  0
SECTION
  2
HEADER
  9
$ACADVER
  1
AC1015
  9
$ACADMAINTVER
 70
    20
  9
$DWGCODEPAGE
  3
ANSI_1252
  9
$INSBASE
 10
0.0
 20
0.0
 30
0.0
  9
$EXTMIN
 10
-1.061073597629128
 20
-0.0000000000000071
 30
-2.388436411526856
  9
$EXTMAX
 10
23.82003832785803
 20
94.94353841074358
 30
4.138436411526852
  9
$LIMMIN
 10
0.0
 20
0.0
  9
$LIMMAX
 10
12.0
 20
9.0
  9
$ORTHOMODE
 70
     0
  9
$REGENMODE
 70
     1
  9
$FILLMODE
 70
     1
  9
$QTEXTMODE
 70
     0
  9
$MIRRTEXT
 70
     0
  9
$LTSCALE
 40
1.0
  9
$ATTMODE
 70
     1
  9
$TEXTSIZE
 40
0.2
  9
$TRACEWID
 40
0.05
  9
$TEXTSTYLE
  7
Standard
  9
$CLAYER
  8
0
  9
$CELTYPE
  6
ByLayer
  9
$CECOLOR
 62
   256
  9
$CELTSCALE
 40
1.0
  9
$DISPSILH
 70
     0
  9
$DIMSCALE
 40
1.0
  9
$DIMASZ
 40
0.5
  9
$DIMEXO
 40
0.25
  9
$DIMDLI
 40
0.38
  9
$DIMRND
 40
0.0625
  9
$DIMDLE
 40
0.0
  9
$DIMEXE
 40
0.25
  9
$DIMTP
 40
0.0
  9
$DIMTM
 40
0.0
  9
$DIMTXT
 40
0.7
  9
$DIMCEN
 40
0.0
  9
$DIMTSZ
 40
0.0
  9
$DIMTOL
 70
     0
  9
$DIMLIM
 70
     0
  9
$DIMTIH
 70
     1
  9
$DIMTOH
 70
     1
  9
$DIMSE1
 70
     0
  9
$DIMSE2
 70
     0
  9
$DIMTAD
 70
     0
  9
$DIMZIN
 70
     0
  9
$DIMBLK
  1

  9
$DIMASO
 70
     1
  9
$DIMSHO
 70
     1
  9
$DIMPOST
  1

  9
$DIMAPOST
  1

  9
$DIMALT
 70
     0
  9
$DIMALTD
 70
     2
  9
$DIMALTF
 40
25.4
  9
$DIMLFAC
 40
1.0
  9
$DIMTOFL
 70
     0
  9
$DIMTVP
 40
0.0
  9
$DIMTIX
 70
     0
  9
$DIMSOXD
 70
     0
  9
$DIMSAH
 70
     0
  9
$DIMBLK1
  1

  9
$DIMBLK2
  1

  9
$DIMSTYLE
  2
New OWP
  9
$DIMCLRD
 70
     0
  9
$DIMCLRE
 70
     0
  9
$DIMCLRT
 70
     0
  9
$DIMTFAC
 40
1.0
  9
$DIMGAP
 40
0.09
  9
$DIMJUST
 70
     0
  9
$DIMSD1
 70
     0
  9
$DIMSD2
 70
     0
  9
$DIMTOLJ
 70
     1
  9
$DIMTZIN
 70
     0
  9
$DIMALTZ
 70
     0
  9
$DIMALTTZ
 70
     0
  9
$DIMUPT
 70
     0
  9
$DIMDEC
 70
     4
  9
$DIMTDEC
 70
     4
  9
$DIMALTU
 70
     2
  9
$DIMALTTD
 70
     2
  9
$DIMTXSTY
  7
Standard
  9
$DIMAUNIT
 70
     0
  9
$DIMADEC
 70
     0
  9
$DIMALTRND
 40
0.0
  9
$DIMAZIN
 70
     0
  9
$DIMDSEP
 70
    46
  9
$DIMATFIT
 70
     3
  9
$DIMFRAC
 70
     1
  9
$DIMLDRBLK
  1

  9
$DIMLUNIT
 70
     5
  9
$DIMLWD
 70
    -2
  9
$DIMLWE
 70
    -2
  9
$DIMTMOVE
 70
     0
  9
$LUNITS
 70
     2
  9
$LUPREC
 70
     4
  9
$SKETCHINC
 40
0.1
  9
$FILLETRAD
 40
0.0
  9
$AUNITS
 70
     0
  9
$AUPREC
 70
     0
  9
$MENU
  1
.
  9
$ELEVATION
 40
0.0
  9
$PELEVATION
 40
0.0
  9
$THICKNESS
 40
0.0
  9
$LIMCHECK
 70
     0
  9
$CHAMFERA
 40
0.0
  9
$CHAMFERB
 40
0.0
  9
$CHAMFERC
 40
0.0
  9
$CHAMFERD
 40
0.0
  9
$SKPOLY
 70
     0
  9
$TDCREATE
 40
2456048.482104005
  9
$TDUCREATE
 40
2456048.648770671
  9
$TDUPDATE
 40
2456063.544101933
  9
$TDUUPDATE
 40
2456063.710768600
  9
$TDINDWG
 40
0.0105518981
  9
$TDUSRTIMER
 40
0.0105516782
  9
$USRTIMER
 70
     1
  9
$ANGBASE
 50
0.0
  9
$ANGDIR
 70
     0
  9
$PDMODE
 70
     0
  9
$PDSIZE
 40
0.0
  9
$PLINEWID
 40
0.0
  9
$SPLFRAME
 70
     0
  9
$SPLINETYPE
 70
     6
  9
$SPLINESEGS
 70
     8
  9
$HANDSEED
  5
6F1
  9
$SURFTAB1
 70
     6
  9
$SURFTAB2
 70
     6
  9
$SURFTYPE
 70
     6
  9
$SURFU
 70
     6
  9
$SURFV
 70
     6
  9
$UCSBASE
  2

  9
$UCSNAME
  2

  9
$UCSORG
 10
0.0
 20
0.0
 30
0.0
  9
$UCSXDIR
 10
1.0
 20
0.0
 30
0.0
  9
$UCSYDIR
 10
0.0
 20
1.0
 30
0.0
  9
$UCSORTHOREF
  2

  9
$UCSORTHOVIEW
 70
     1
  9
$UCSORGTOP
 10
0.0
 20
0.0
 30
0.0
  9
$UCSORGBOTTOM
 10
0.0
 20
0.0
 30
0.0
  9
$UCSORGLEFT
 10
0.0
 20
0.0
 30
0.0
  9
$UCSORGRIGHT
 10
0.0
 20
0.0
 30
0.0
  9
$UCSORGFRONT
 10
0.0
 20
0.0
 30
0.0
  9
$UCSORGBACK
 10
0.0
 20
0.0
 30
0.0
  9
$PUCSBASE
  2

  9
$PUCSNAME
  2

  9
$PUCSORG
 10
0.0
 20
0.0
 30
0.0
  9
$PUCSXDIR
 10
1.0
 20
0.0
 30
0.0
  9
$PUCSYDIR
 10
0.0
 20
1.0
 30
0.0
  9
$PUCSORTHOREF
  2

  9
$PUCSORTHOVIEW
 70
     0
  9
$PUCSORGTOP
 10
0.0
 20
0.0
 30
0.0
  9
$PUCSORGBOTTOM
 10
0.0
 20
0.0
 30
0.0
  9
$PUCSORGLEFT
 10
0.0
 20
0.0
 30
0.0
  9
$PUCSORGRIGHT
 10
0.0
 20
0.0
 30
0.0
  9
$PUCSORGFRONT
 10
0.0
 20
0.0
 30
0.0
  9
$PUCSORGBACK
 10
0.0
 20
0.0
 30
0.0
  9
$USERI1
 70
     0
  9
$USERI2
 70
     0
  9
$USERI3
 70
     0
  9
$USERI4
 70
     0
  9
$USERI5
 70
     0
  9
$USERR1
 40
0.0
  9
$USERR2
 40
0.0
  9
$USERR3
 40
0.0
  9
$USERR4
 40
0.0
  9
$USERR5
 40
0.0
  9
$WORLDVIEW
 70
     1
  9
$SHADEDGE
 70
     3
  9
$SHADEDIF
 70
    70
  9
$TILEMODE
 70
     1
  9
$MAXACTVP
 70
    64
  9
$PINSBASE
 10
0.0
 20
0.0
 30
0.0
  9
$PLIMCHECK
 70
     0
  9
$PEXTMIN
 10
0.0
 20
0.0
 30
0.0
  9
$PEXTMAX
 10
0.0
 20
0.0
 30
0.0
  9
$PLIMMIN
 10
0.0
 20
0.0
  9
$PLIMMAX
 10
12.0
 20
9.0
  9
$UNITMODE
 70
     0
  9
$VISRETAIN
 70
     1
  9
$PLINEGEN
 70
     0
  9
$PSLTSCALE
 70
     1
  9
$TREEDEPTH
 70
  3020
  9
$CMLSTYLE
  2
Standard
  9
$CMLJUST
 70
     0
  9
$CMLSCALE
 40
1.0
  9
$PROXYGRAPHICS
 70
     1
  9
$MEASUREMENT
 70
     0
  9
$CELWEIGHT
370
    -1
  9
$ENDCAPS
280
     0
  9
$JOINSTYLE
280
     0
  9
$LWDISPLAY
290
     0
  9
$INSUNITS
 70
     1
  9
$HYPERLINKBASE
  1

  9
$STYLESHEET
  1

  9
$XEDIT
290
     1
  9
$CEPSNTYPE
380
     0
  9
$PSTYLEMODE
290
     1
  9
$FINGERPRINTGUID
  2
{F9D0464E-1523-4350-84E1-453D95B35FA7}
  9
$VERSIONGUID
  2
{362B8B28-7DAA-4EF2-8415-29EA51802655}
  9
$EXTNAMES
290
     1
  9
$PSVPSCALE
 40
0.0
  9
$OLESTARTUP
290
     0
  0
ENDSEC
  0
SECTION
  2
CLASSES
  0
CLASS
  1
ACDBDICTIONARYWDFLT
  2
AcDbDictionaryWithDefault
  3
ObjectDBX Classes
 90
        0
280
     0
281
     0
  0
CLASS
  1
ACDBPLACEHOLDER
  2
AcDbPlaceHolder
  3
ObjectDBX Classes
 90
        0
280
     0
281
     0
  0
CLASS
  1
LAYOUT
  2
AcDbLayout
  3
ObjectDBX Classes
 90
        0
280
     0
281
     0
  0
CLASS
  1
DICTIONARYVAR
  2
AcDbDictionaryVar
  3
ObjectDBX Classes
 90
        0
280
     0
281
     0
  0
CLASS
  1
TABLESTYLE
  2
AcDbTableStyle
  3
ObjectDBX Classes
 90
     4095
280
     0
281
     0
  0
CLASS
  1
MATERIAL
  2
AcDbMaterial
  3
ObjectDBX Classes
 90
     1153
280
     0
281
     0
  0
CLASS
  1
VISUALSTYLE
  2
AcDbVisualStyle
  3
ObjectDBX Classes
 90
     4095
280
     0
281
     0
  0
CLASS
  1
SCALE
  2
AcDbScale
  3
ObjectDBX Classes
 90
     1153
280
     0
281
     0
  0
CLASS
  1
MLEADERSTYLE
  2
AcDbMLeaderStyle
  3
ACDB_MLEADERSTYLE_CLASS
 90
     4095
280
     0
281
     0
  0
CLASS
  1
CELLSTYLEMAP
  2
AcDbCellStyleMap
  3
ObjectDBX Classes
 90
     1152
280
     0
281
     0
  0
CLASS
  1
EXACXREFPANELOBJECT
  2
ExAcXREFPanelObject
  3
EXAC_ESW
 90
    33793
280
     0
281
     0
  0
CLASS
  1
NPOCOLLECTION
  2
AcDbImpNonPersistentObjectsCollection
  3
ObjectDBX Classes
 90
    33921
280
     0
281
     0
  0
CLASS
  1
LAYER_INDEX
  2
AcDbLayerIndex
  3
ObjectDBX Classes
 90
    32768
280
     0
281
     0
  0
CLASS
  1
SPATIAL_INDEX
  2
AcDbSpatialIndex
  3
ObjectDBX Classes
 90
    32768
280
     0
281
     0
  0
CLASS
  1
IDBUFFER
  2
AcDbIdBuffer
  3
ObjectDBX Classes
 90
    32768
280
     0
281
     0
  0
CLASS
  1
ACSH_REVOLVE_CLASS
  2
AcDbShRevolve
  3
ObjectDBX Classes
 90
    33921
280
     0
281
     0
  0
CLASS
  1
ACAD_EVALUATION_GRAPH
  2
AcDbEvalGraph
  3
ObjectDBX Classes
 90
    33921
280
     0
281
     0
  0
CLASS
  1
ACSH_HISTORY_CLASS
  2
AcDbShHistory
  3
ObjectDBX Classes
 90
    33921
280
     0
281
     0
  0
CLASS
  1
ACSH_EXTRUSION_CLASS
  2
AcDbShExtrusion
  3
ObjectDBX Classes
 90
    33921
280
     0
281
     0
  0
CLASS
  1
SOLID_BACKGROUND
  2
AcDbSolidBackground
  3
SCENEOE
 90
    36863
280
     0
281
     0
  0
CLASS
  1
ACDBASSOCPERSSUBENTMANAGER
  2
AcDbAssocPersSubentManager
  3
ObjectDBX Classes
 90
     1024
280
     0
281
     0
  0
CLASS
  1
ACDBPERSSUBENTMANAGER
  2
AcDbPersSubentManager
  3
AcDbPersSubentManager
 90
     1024
280
     0
281
     0
  0
CLASS
  1
ACSH_BOOLEAN_CLASS
  2
AcDbShBoolean
  3
ObjectDBX Classes
 90
    33921
280
     0
281
     0
  0
CLASS
  1
DIMASSOC
  2
AcDbDimAssoc
  3
"AcDbDimAssoc|Product Desc:     AcDim ARX App For Dimension|Company:          Autodesk, Inc.|WEB Address:      www.autodesk.com"
 90
        0
280
     0
281
     0
  0
CLASS
  1
RASTERVARIABLES
  2
AcDbRasterVariables
  3
ISM
 90
        0
280
     0
281
     0
  0
CLASS
  1
IMAGEDEF
  2
AcDbRasterImageDef
  3
ISM
 90
        0
280
     0
281
     0
  0
CLASS
  1
IMAGEDEF_REACTOR
  2
AcDbRasterImageDefReactor
  3
ISM
 90
    32769
280
     0
281
     0
  0
CLASS
  1
IMAGE
  2
AcDbRasterImage
  3
ISM
 90
    34943
280
     0
281
     1
  0
CLASS
  1
SORTENTSTABLE
  2
AcDbSortentsTable
  3
ObjectDBX Classes
 90
        0
280
     0
281
     0
  0
ENDSEC
  0
SECTION
  2
TABLES
  0
TABLE
  2
VPORT
  5
8
330
0
100
AcDbSymbolTable
 70
     1
  0
VPORT
  5
94
330
8
100
AcDbSymbolTableRecord
100
AcDbViewportTableRecord
  2
*Active
 70
     0
 10
0.0
 20
0.0
 11
1.0
 21
1.0
 12
-20.46109543531096
 22
-47.12471996061018
 13
0.0
 23
0.0
 14
0.5
 24
0.5
 15
0.5
 25
0.5
 16
0.0
 26
0.0
 36
1.0
 17
36.42968484184284
 27
60.30377479760637
 37
9.283594219171726
 40
55.66241974511688
 41
2.132516703786191
 42
50.0
 43
0.0
 44
0.0
 50
0.0
 51
0.0
 71
     0
 72
  1000
 73
     1
 74
     3
 75
     0
 76
     0
 77
     0
 78
     0
281
     0
 65
     1
110
0.0
120
0.0
130
0.0
111
1.0
121
0.0
131
0.0
112
0.0
122
1.0
132
0.0
 79
     0
146
0.0
1001
ACAD_NAV_VCDISPLAY
1070
     3
  0
ENDTAB
  0
TABLE
  2
LTYPE
  5
5
330
0
100
AcDbSymbolTable
 70
     1
  0
LTYPE
  5
14
330
5
100
AcDbSymbolTableRecord
100
AcDbLinetypeTableRecord
  2
ByBlock
 70
     0
  3

 72
    65
 73
     0
 40
0.0
  0
LTYPE
  5
15
330
5
100
AcDbSymbolTableRecord
100
AcDbLinetypeTableRecord
  2
ByLayer
 70
     0
  3

 72
    65
 73
     0
 40
0.0
  0
LTYPE
  5
16
330
5
100
AcDbSymbolTableRecord
100
AcDbLinetypeTableRecord
  2
Continuous
 70
     0
  3
Solid line
 72
    65
 73
     0
 40
0.0
  0
ENDTAB
  0
TABLE
  2
LAYER
  5
2
330
0
100
AcDbSymbolTable
 70
     3
  0
LAYER
  5
10
102
{ACAD_XDICTIONARY
360
E6
102
}
330
2
100
AcDbSymbolTableRecord
100
AcDbLayerTableRecord
  2
0
 70
     0
 62
     7
  6
Continuous
370
    -3
390
F
  0
LAYER
  5
1C1
330
2
100
AcDbSymbolTableRecord
100
AcDbLayerTableRecord
  2
Defpoints
 70
     0
 62
     7
  6
Continuous
290
     0
370
    -3
390
F
  0
LAYER
  5
33E
330
2
100
AcDbSymbolTableRecord
100
AcDbLayerTableRecord
  2
Layer1
 70
     0
 62
    10
  6
Continuous
370
    -3
390
F
1001
AcAecLayerStandard
1000

1000

1001
AcCmTransparency
1071
        0
  0
ENDTAB
  0
TABLE
  2
STYLE
  5
3
330
0
100
AcDbSymbolTable
 70
     2
  0
STYLE
  5
11
330
3
100
AcDbSymbolTableRecord
100
AcDbTextStyleTableRecord
  2
Standard
 70
     0
 40
0.0
 41
1.0
 50
0.0
 71
     0
 42
0.2
  3
ARIAL.TTF
  4

1001
ACAD
1000
Arial
1071
       34
  0
STYLE
  5
DC
330
3
100
AcDbSymbolTableRecord
100
AcDbTextStyleTableRecord
  2
Annotative
 70
     0
 40
0.0
 41
1.0
 50
0.0
 71
     0
 42
0.2
  3
ARIAL.TTF
  4

1001
AcadAnnotative
1000
AnnotativeData
1002
{
1070
     1
1070
     1
1002
}
1001
ACAD
1000
Arial
1071
       34
  0
ENDTAB
  0
TABLE
  2
VIEW
  5
6
330
0
100
AcDbSymbolTable
 70
     0
  0
ENDTAB
  0
TABLE
  2
UCS
  5
7
330
0
100
AcDbSymbolTable
 70
     0
  0
ENDTAB
  0
TABLE
  2
APPID
  5
9
330
0
100
AcDbSymbolTable
 70
    11
  0
APPID
  5
12
330
9
100
AcDbSymbolTableRecord
100
AcDbRegAppTableRecord
  2
ACAD
 70
     0
  0
APPID
  5
DD
330
9
100
AcDbSymbolTableRecord
100
AcDbRegAppTableRecord
  2
AcadAnnoPO
 70
     0
  0
APPID
  5
DE
330
9
100
AcDbSymbolTableRecord
100
AcDbRegAppTableRecord
  2
AcadAnnotative
 70
     0
  0
APPID
  5
DF
330
9
100
AcDbSymbolTableRecord
100
AcDbRegAppTableRecord
  2
ACAD_DSTYLE_DIMJAG
 70
     0
  0
APPID
  5
E0
330
9
100
AcDbSymbolTableRecord
100
AcDbRegAppTableRecord
  2
ACAD_DSTYLE_DIMTALN
 70
     0
  0
APPID
  5
107
330
9
100
AcDbSymbolTableRecord
100
AcDbRegAppTableRecord
  2
ACAD_MLEADERVER
 70
     0
  0
APPID
  5
189
330
9
100
AcDbSymbolTableRecord
100
AcDbRegAppTableRecord
  2
ACAD_DSTYLE_DIMBREAK
 70
     0
  0
APPID
  5
196
330
9
100
AcDbSymbolTableRecord
100
AcDbRegAppTableRecord
  2
ACAD_EXEMPT_FROM_CAD_STANDARDS
 70
     0
  0
APPID
  5
33F
330
9
100
AcDbSymbolTableRecord
100
AcDbRegAppTableRecord
  2
AcAecLayerStandard
 70
     0
  0
APPID
  5
340
330
9
100
AcDbSymbolTableRecord
100
AcDbRegAppTableRecord
  2
AcCmTransparency
 70
     0
  0
APPID
  5
3A1
330
9
100
AcDbSymbolTableRecord
100
AcDbRegAppTableRecord
  2
ACAD_NAV_VCDISPLAY
 70
     0
  0
ENDTAB
  0
TABLE
  2
DIMSTYLE
  5
A
330
0
100
AcDbSymbolTable
 70
     3
100
AcDbDimStyleTable
 71
     3
340
18A
340
27
340
E1
  0
DIMSTYLE
105
27
330
A
100
AcDbSymbolTableRecord
100
AcDbDimStyleTableRecord
  2
Standard
 70
     0
340
11
  0
DIMSTYLE
105
E1
330
A
100
AcDbSymbolTableRecord
100
AcDbDimStyleTableRecord
  2
Annotative
 70
     0
 40
0.0
340
11
1001
AcadAnnotative
1000
AnnotativeData
1002
{
1070
     1
1070
     1
1002
}
1001
ACAD_DSTYLE_DIMJAG
1070
   388
1040
1.5
1001
ACAD_DSTYLE_DIMTALN
1070
   392
1070
     0
  0
DIMSTYLE
105
18A
330
A
100
AcDbSymbolTableRecord
100
AcDbDimStyleTableRecord
  2
New OWP
 70
     0
 41
0.5
 42
0.25
 44
0.25
 45
0.0625
140
0.7
141
0.0
276
     1
277
     5
340
11
1001
ACAD_DSTYLE_DIMBREAK
1070
   391
1040
0.125
1001
ACAD_DSTYLE_DIMJAG
1070
   388
1040
1.5
1001
ACAD_DSTYLE_DIMTALN
1070
   392
1070
     0
  0
ENDTAB
  0
TABLE
  2
BLOCK_RECORD
  5
1
330
0
100
AcDbSymbolTable
 70
     9
  0
BLOCK_RECORD
  5
1F
102
{ACAD_XDICTIONARY
360
15D
102
}
330
1
100
AcDbSymbolTableRecord
100
AcDbBlockTableRecord
  2
*Model_Space
340
22
  0
BLOCK_RECORD
  5
58
330
1
100
AcDbSymbolTableRecord
100
AcDbBlockTableRecord
  2
*Paper_Space
340
59
  0
BLOCK_RECORD
  5
5D
330
1
100
AcDbSymbolTableRecord
100
AcDbBlockTableRecord
  2
*Paper_Space0
340
5E
  0
BLOCK_RECORD
  5
2B9
330
1
100
AcDbSymbolTableRecord
100
AcDbBlockTableRecord
  2
_None
340
0
  0
BLOCK_RECORD
  5
301
330
1
100
AcDbSymbolTableRecord
100
AcDbBlockTableRecord
  2
_Open
340
0
  0
BLOCK_RECORD
  5
31B
330
1
100
AcDbSymbolTableRecord
100
AcDbBlockTableRecord
  2
_Open90
340
0
  0
BLOCK_RECORD
  5
5E2
330
1
100
AcDbSymbolTableRecord
100
AcDbBlockTableRecord
  2
*D4
340
0
  0
BLOCK_RECORD
  5
5FC
330
1
100
AcDbSymbolTableRecord
100
AcDbBlockTableRecord
  2
*D5
340
0
  0
BLOCK_RECORD
  5
616
330
1
100
AcDbSymbolTableRecord
100
AcDbBlockTableRecord
  2
*D6
340
0
  0
BLOCK_RECORD
  5
630
330
1
100
AcDbSymbolTableRecord
100
AcDbBlockTableRecord
  2
*D7
340
0
  0
BLOCK_RECORD
  5
63E
330
1
100
AcDbSymbolTableRecord
100
AcDbBlockTableRecord
  2
*D8
340
0
  0
ENDTAB
  0
ENDSEC
  0
SECTION
  2
BLOCKS
  0
BLOCK
  5
20
330
1F
100
AcDbEntity
  8
0
100
AcDbBlockBegin
  2
*Model_Space
 70
     0
 10
0.0
 20
0.0
 30
0.0
  3
*Model_Space
  1

  0
ENDBLK
  5
21
330
1F
100
AcDbEntity
  8
0
100
AcDbBlockEnd
  0
BLOCK
  5
5A
330
58
100
AcDbEntity
 67
     1
  8
0
100
AcDbBlockBegin
  2
*Paper_Space
 70
     0
 10
0.0
 20
0.0
 30
0.0
  3
*Paper_Space
  1

  0
ENDBLK
  5
5B
330
58
100
AcDbEntity
 67
     1
  8
0
100
AcDbBlockEnd
  0
BLOCK
  5
5F
330
5D
100
AcDbEntity
 67
     1
  8
0
100
AcDbBlockBegin
  2
*Paper_Space0
 70
     0
 10
0.0
 20
0.0
 30
0.0
  3
*Paper_Space0
  1

  0
ENDBLK
  5
60
330
5D
100
AcDbEntity
 67
     1
  8
0
100
AcDbBlockEnd
  0
BLOCK
  5
2BA
330
2B9
100
AcDbEntity
  8
0
100
AcDbBlockBegin
  2
_None
 70
     0
 10
0.0
 20
0.0
 30
0.0
  3
_None
  1

  0
ENDBLK
  5
2BB
330
2B9
100
AcDbEntity
  8
0
100
AcDbBlockEnd
  0
BLOCK
  5
305
330
301
100
AcDbEntity
  8
0
100
AcDbBlockBegin
  2
_Open
 70
     0
 10
0.0
 20
0.0
 30
0.0
  3
_Open
  1

  0
LINE
  5
302
330
301
100
AcDbEntity
  8
0
  6
ByBlock
 62
     0
370
    -2
100
AcDbLine
 10
-1.0
 20
0.1666666666666666
 30
0.0
 11
0.0
 21
0.0
 31
0.0
  0
LINE
  5
303
330
301
100
AcDbEntity
  8
0
  6
ByBlock
 62
     0
370
    -2
100
AcDbLine
 10
-1.0
 20
-0.1666666666666666
 30
0.0
 11
0.0
 21
0.0
 31
0.0
  0
LINE
  5
304
330
301
100
AcDbEntity
  8
0
  6
ByBlock
 62
     0
370
    -2
100
AcDbLine
 10
0.0
 20
0.0
 30
0.0
 11
-1.0
 21
0.0
 31
0.0
  0
ENDBLK
  5
306
330
301
100
AcDbEntity
  8
0
100
AcDbBlockEnd
  0
BLOCK
  5
31F
330
31B
100
AcDbEntity
  8
0
100
AcDbBlockBegin
  2
_Open90
 70
     0
 10
0.0
 20
0.0
 30
0.0
  3
_Open90
  1

  0
LINE
  5
31C
330
31B
100
AcDbEntity
  8
0
  6
ByBlock
 62
     0
370
    -2
100
AcDbLine
 10
-0.5
 20
0.5
 30
0.0
 11
0.0
 21
0.0
 31
0.0
  0
LINE
  5
31D
330
31B
100
AcDbEntity
  8
0
  6
ByBlock
 62
     0
370
    -2
100
AcDbLine
 10
0.0
 20
0.0
 30
0.0
 11
-0.5
 21
-0.5
 31
0.0
  0
LINE
  5
31E
330
31B
100
AcDbEntity
  8
0
  6
ByBlock
 62
     0
370
    -2
100
AcDbLine
 10
0.0
 20
0.0
 30
0.0
 11
-1.0
 21
0.0
 31
0.0
  0
ENDBLK
  5
320
330
31B
100
AcDbEntity
  8
0
100
AcDbBlockEnd
  0
BLOCK
  5
5E3
330
5E2
100
AcDbEntity
  8
0
100
AcDbBlockBegin
  2
*D4
 70
     1
 10
0.0
 20
0.0
 30
0.0
  3
*D4
  1

  0
LINE
  5
5F0
330
5E2
100
AcDbEntity
  8
0
 62
     0
370
    -2
100
AcDbLine
 10
16.05886113351961
 20
93.1706710923647
 30
0.0
 11
16.05886113351961
 21
94.30206501374495
 31
0.0
  0
LINE
  5
5F1
330
5E2
100
AcDbEntity
  8
0
 62
     0
370
    -2
100
AcDbLine
 10
19.55886113351965
 20
93.1706710923647
 30
0.0
 11
19.55886113351965
 21
94.30206501374495
 31
0.0
  0
LINE
  5
5F2
330
5E2
100
AcDbEntity
  8
0
 62
     0
370
    -2
100
AcDbLine
 10
16.55886113351962
 20
94.05206501374495
 30
0.0
 11
16.99005258417903
 21
94.05206501374495
 31
0.0
  0
LINE
  5
5F3
330
5E2
100
AcDbEntity
  8
0
 62
     0
370
    -2
100
AcDbLine
 10
19.05886113351965
 20
94.05206501374495
 30
0.0
 11
18.62766968286025
 21
94.05206501374495
 31
0.0
  0
SOLID
  5
5F4
330
5E2
100
AcDbEntity
  8
0
 62
     0
100
AcDbTrace
 10
16.55886113351962
 20
94.13539834707831
 30
0.0
 11
16.55886113351962
 21
93.96873168041166
 31
0.0
 12
16.05886113351961
 22
94.05206501374495
 32
0.0
 13
16.05886113351961
 23
94.05206501374495
 33
0.0
  0
SOLID
  5
5F5
330
5E2
100
AcDbEntity
  8
0
 62
     0
100
AcDbTrace
 10
19.05886113351965
 20
94.13539834707831
 30
0.0
 11
19.05886113351965
 21
93.96873168041166
 31
0.0
 12
19.55886113351965
 22
94.05206501374495
 32
0.0
 13
19.55886113351965
 23
94.05206501374495
 33
0.0
  0
MTEXT
  5
5F6
102
{ACAD_XDICTIONARY
360
6E9
102
}
330
5E2
100
AcDbEntity
  8
0
 62
     0
100
AcDbMText
 10
17.80886113351964
 20
94.05206501374495
 30
0.0
 40
0.7
 41
0.0
 71
     5
 72
     1
  1
\A1;3\S1/2;
 73
     1
 44
1.0
1001
ACAD
1000
MTEXTBEGIN
1070
    73
1070
     1
1070
    44
1040
1.0
1070
    74
1070
     0
1000
MTEXTEND
  0
POINT
  5
5F7
330
5E2
100
AcDbEntity
  8
Defpoints
 62
     0
100
AcDbPoint
 10
16.05886113351961
 20
92.92067109236469
 30
3.5
  0
POINT
  5
5F8
330
5E2
100
AcDbEntity
  8
Defpoints
 62
     0
100
AcDbPoint
 10
19.55886113351965
 20
92.92067109236469
 30
0.0
  0
POINT
  5
5F9
330
5E2
100
AcDbEntity
  8
Defpoints
 62
     0
100
AcDbPoint
 10
19.55886113351965
 20
94.05206501374495
 30
0.0
  0
ENDBLK
  5
5E4
330
5E2
100
AcDbEntity
  8
0
100
AcDbBlockEnd
  0
BLOCK
  5
5FD
330
5FC
100
AcDbEntity
  8
0
100
AcDbBlockBegin
  2
*D5
 70
     1
 10
0.0
 20
0.0
 30
0.0
  3
*D5
  1

  0
LINE
  5
60A
330
5FC
100
AcDbEntity
  8
0
 62
     0
370
    -2
100
AcDbLine
 10
19.80886113351965
 20
92.92067109236469
 30
0.0
 11
21.26174264939366
 21
92.92067109236469
 31
0.0
  0
LINE
  5
60B
330
5FC
100
AcDbEntity
  8
0
 62
     0
370
    -2
100
AcDbLine
 10
19.80886113351965
 20
81.42067109236469
 30
0.0
 11
21.26174264939365
 21
81.42067109236469
 31
0.0
  0
LINE
  5
60C
330
5FC
100
AcDbEntity
  8
0
 62
     0
370
    -2
100
AcDbLine
 10
21.01174264939366
 20
92.42067109236471
 30
0.0
 11
21.01174264939365
 21
87.96353603097314
 31
0.0
  0
LINE
  5
60D
330
5FC
100
AcDbEntity
  8
0
 62
     0
370
    -2
100
AcDbLine
 10
21.01174264939365
 20
81.92067109236468
 30
0.0
 11
21.01174264939365
 21
86.37780615375623
 31
0.0
  0
SOLID
  5
60E
330
5FC
100
AcDbEntity
  8
0
 62
     0
100
AcDbTrace
 10
20.92840931606033
 20
92.42067109236471
 30
0.0
 11
21.09507598272699
 21
92.42067109236471
 31
0.0
 12
21.01174264939366
 22
92.92067109236469
 32
0.0
 13
21.01174264939366
 23
92.92067109236469
 33
0.0
  0
SOLID
  5
60F
330
5FC
100
AcDbEntity
  8
0
 62
     0
100
AcDbTrace
 10
20.92840931606032
 20
81.92067109236468
 30
0.0
 11
21.09507598272699
 21
81.92067109236468
 31
0.0
 12
21.01174264939365
 22
81.42067109236469
 32
0.0
 13
21.01174264939365
 23
81.42067109236469
 33
0.0
  0
MTEXT
  5
610
102
{ACAD_XDICTIONARY
360
6EB
102
}
330
5FC
100
AcDbEntity
  8
0
 62
     0
100
AcDbMText
 10
21.01174264939364
 20
87.1706710923647
 30
0.0
 40
0.7
 41
0.0
 71
     5
 72
     1
  1
\A1;11\S1/2;
 73
     1
 44
1.0
1001
ACAD
1000
MTEXTBEGIN
1070
    73
1070
     1
1070
    44
1040
1.0
1070
    74
1070
     0
1000
MTEXTEND
  0
POINT
  5
611
330
5FC
100
AcDbEntity
  8
Defpoints
 62
     0
100
AcDbPoint
 10
19.55886113351965
 20
92.92067109236469
 30
0.0
  0
POINT
  5
612
330
5FC
100
AcDbEntity
  8
Defpoints
 62
     0
100
AcDbPoint
 10
19.55886113351965
 20
81.42067109236469
 30
3.5
  0
POINT
  5
613
330
5FC
100
AcDbEntity
  8
Defpoints
 62
     0
100
AcDbPoint
 10
21.01174264939365
 20
81.42067109236469
 30
0.0
  0
ENDBLK
  5
5FE
330
5FC
100
AcDbEntity
  8
0
100
AcDbBlockEnd
  0
BLOCK
  5
617
330
616
100
AcDbEntity
  8
0
100
AcDbBlockBegin
  2
*D6
 70
     1
 10
0.0
 20
0.0
 30
0.0
  3
*D6
  1

  0
LINE
  5
624
330
616
100
AcDbEntity
  8
0
 62
     0
370
    -2
100
AcDbLine
 10
19.80886113351965
 20
81.42067109236469
 30
0.0
 11
21.26174264939365
 21
81.42067109236469
 31
0.0
  0
LINE
  5
625
330
616
100
AcDbEntity
  8
0
 62
     0
370
    -2
100
AcDbLine
 10
18.98344245264843
 20
58.42067109236467
 30
0.0
 11
21.26174264939365
 21
58.42067109236467
 31
0.0
  0
LINE
  5
626
330
616
100
AcDbEntity
  8
0
 62
     0
370
    -2
100
AcDbLine
 10
21.01174264939365
 20
80.92067109236468
 30
0.0
 11
21.01174264939365
 21
70.36831092865391
 31
0.0
  0
LINE
  5
627
330
616
100
AcDbEntity
  8
0
 62
     0
370
    -2
100
AcDbLine
 10
21.01174264939365
 20
58.92067109236467
 30
0.0
 11
21.01174264939365
 21
69.47303125607546
 31
0.0
  0
SOLID
  5
628
330
616
100
AcDbEntity
  8
0
 62
     0
100
AcDbTrace
 10
20.92840931606032
 20
80.92067109236468
 30
0.0
 11
21.09507598272699
 21
80.92067109236468
 31
0.0
 12
21.01174264939365
 22
81.42067109236469
 32
0.0
 13
21.01174264939365
 23
81.42067109236469
 33
0.0
  0
SOLID
  5
629
330
616
100
AcDbEntity
  8
0
 62
     0
100
AcDbTrace
 10
20.92840931606032
 20
58.92067109236467
 30
0.0
 11
21.09507598272698
 21
58.92067109236467
 31
0.0
 12
21.01174264939365
 22
58.42067109236467
 32
0.0
 13
21.01174264939365
 23
58.42067109236467
 33
0.0
  0
MTEXT
  5
62A
330
616
100
AcDbEntity
  8
0
 62
     0
100
AcDbMText
 10
21.01174264939364
 20
69.92067109236469
 30
0.0
 40
0.7
 41
0.0
 71
     5
 72
     1
  1
\A1;23
 73
     1
 44
1.0
1001
ACAD
1000
MTEXTBEGIN
1070
    73
1070
     1
1070
    44
1040
1.0
1070
    74
1070
     0
1000
MTEXTEND
  0
POINT
  5
62B
330
616
100
AcDbEntity
  8
Defpoints
 62
     0
100
AcDbPoint
 10
19.55886113351965
 20
81.42067109236469
 30
3.5
  0
POINT
  5
62C
330
616
100
AcDbEntity
  8
Defpoints
 62
     0
100
AcDbPoint
 10
18.73344245264843
 20
58.42067109236467
 30
1.75
  0
POINT
  5
62D
330
616
100
AcDbEntity
  8
Defpoints
 62
     0
100
AcDbPoint
 10
21.01174264939365
 20
58.42067109236467
 30
0.0
  0
ENDBLK
  5
618
330
616
100
AcDbEntity
  8
0
100
AcDbBlockEnd
  0
BLOCK
  5
631
330
630
100
AcDbEntity
  8
0
100
AcDbBlockBegin
  2
*D7
 70
     1
 10
0.0
 20
0.0
 30
0.0
  3
*D7
  1

  0
LINE
  5
633
330
630
100
AcDbEntity
  8
0
 62
     0
370
    -2
100
AcDbLine
 10
21.26174264939365
 20
58.42067109236467
 30
0.0
 11
23.01773046064568
 21
58.42067109236467
 31
0.0
  0
LINE
  5
634
330
630
100
AcDbEntity
  8
0
 62
     0
370
    -2
100
AcDbLine
 10
21.26174264939365
 20
92.92067109236471
 30
0.0
 11
23.01773046064568
 21
92.92067109236471
 31
0.0
  0
LINE
  5
635
330
630
100
AcDbEntity
  8
0
 62
     0
370
    -2
100
AcDbLine
 10
22.76773046064567
 20
58.92067109236467
 30
0.0
 11
22.76773046064568
 21
74.87159878677123
 31
0.0
  0
LINE
  5
636
330
630
100
AcDbEntity
  8
0
 62
     0
370
    -2
100
AcDbLine
 10
22.76773046064568
 20
92.42067109236471
 30
0.0
 11
22.76773046064568
 21
76.46974339795815
 31
0.0
  0
SOLID
  5
637
330
630
100
AcDbEntity
  8
0
 62
     0
100
AcDbTrace
 10
22.68439712731234
 20
58.92067109236467
 30
0.0
 11
22.851063793979
 21
58.92067109236467
 31
0.0
 12
22.76773046064567
 22
58.42067109236467
 32
0.0
 13
22.76773046064567
 23
58.42067109236467
 33
0.0
  0
SOLID
  5
638
330
630
100
AcDbEntity
  8
0
 62
     0
100
AcDbTrace
 10
22.68439712731235
 20
92.42067109236471
 30
0.0
 11
22.85106379397901
 21
92.42067109236471
 31
0.0
 12
22.76773046064568
 22
92.92067109236471
 32
0.0
 13
22.76773046064568
 23
92.92067109236471
 33
0.0
  0
MTEXT
  5
639
102
{ACAD_XDICTIONARY
360
6ED
102
}
330
630
100
AcDbEntity
  8
0
 62
     0
100
AcDbMText
 10
22.76773046064566
 20
75.6706710923647
 30
0.0
 40
0.7
 41
0.0
 71
     5
 72
     1
  1
\A1;34\S1/2;
 73
     1
 44
1.0
1001
ACAD
1000
MTEXTBEGIN
1070
    73
1070
     1
1070
    44
1040
1.0
1070
    74
1070
     0
1000
MTEXTEND
  0
POINT
  5
63A
330
630
100
AcDbEntity
  8
Defpoints
 62
     0
100
AcDbPoint
 10
21.01174264939365
 20
58.42067109236467
 30
0.0
  0
POINT
  5
63B
330
630
100
AcDbEntity
  8
Defpoints
 62
     0
100
AcDbPoint
 10
21.01174264939365
 20
92.92067109236471
 30
0.0
  0
POINT
  5
63C
330
630
100
AcDbEntity
  8
Defpoints
 62
     0
100
AcDbPoint
 10
22.76773046064568
 20
92.92067109236471
 30
0.0
  0
ENDBLK
  5
632
330
630
100
AcDbEntity
  8
0
100
AcDbBlockEnd
  0
BLOCK
  5
63F
330
63E
100
AcDbEntity
  8
0
100
AcDbBlockBegin
  2
*D8
 70
     1
 10
0.0
 20
0.0
 30
0.0
  3
*D8
  1

  0
LINE
  5
64C
330
63E
100
AcDbEntity
  8
0
 62
     0
370
    -2
100
AcDbLine
 10
16.88427981439082
 20
58.17067109236468
 30
0.0
 11
16.88427981439082
 21
56.7497439747503
 31
0.0
  0
LINE
  5
64D
330
63E
100
AcDbEntity
  8
0
 62
     0
370
    -2
100
AcDbLine
 10
18.73344245264843
 20
58.17067109236468
 30
0.0
 11
18.73344245264843
 21
56.7497439747503
 31
0.0
  0
LINE
  5
64E
330
63E
100
AcDbEntity
  8
0
 62
     0
370
    -2
100
AcDbLine
 10
16.38427981439082
 20
56.9997439747503
 30
0.0
 11
15.88427981439082
 21
56.9997439747503
 31
0.0
  0
LINE
  5
64F
330
63E
100
AcDbEntity
  8
0
 62
     0
370
    -2
100
AcDbLine
 10
19.23344245264843
 20
56.9997439747503
 30
0.0
 11
19.73344245264843
 21
56.9997439747503
 31
0.0
  0
SOLID
  5
650
330
63E
100
AcDbEntity
  8
0
 62
     0
100
AcDbTrace
 10
16.38427981439082
 20
57.08307730808364
 30
0.0
 11
16.38427981439082
 21
56.91641064141697
 31
0.0
 12
16.88427981439082
 22
56.9997439747503
 32
0.0
 13
16.88427981439082
 23
56.9997439747503
 33
0.0
  0
SOLID
  5
651
330
63E
100
AcDbEntity
  8
0
 62
     0
100
AcDbTrace
 10
19.23344245264843
 20
57.08307730808364
 30
0.0
 11
19.23344245264843
 21
56.91641064141697
 31
0.0
 12
18.73344245264843
 22
56.9997439747503
 32
0.0
 13
18.73344245264843
 23
56.9997439747503
 33
0.0
  0
MTEXT
  5
652
102
{ACAD_XDICTIONARY
360
6EF
102
}
330
63E
100
AcDbEntity
  8
0
 62
     0
100
AcDbMText
 10
17.80886113351963
 20
56.9997439747503
 30
0.0
 40
0.7
 41
0.0
 71
     5
 72
     1
  1
\A1;1\S7/8;
 73
     1
 44
1.0
1001
ACAD
1000
MTEXTBEGIN
1070
    73
1070
     1
1070
    44
1040
1.0
1070
    74
1070
     0
1000
MTEXTEND
  0
POINT
  5
653
330
63E
100
AcDbEntity
  8
Defpoints
 62
     0
100
AcDbPoint
 10
16.88427981439082
 20
58.42067109236467
 30
1.749999999999999
  0
POINT
  5
654
330
63E
100
AcDbEntity
  8
Defpoints
 62
     0
100
AcDbPoint
 10
18.73344245264843
 20
58.42067109236467
 30
1.75
  0
POINT
  5
655
330
63E
100
AcDbEntity
  8
Defpoints
 62
     0
100
AcDbPoint
 10
18.73344245264843
 20
56.9997439747503
 30
0.0
  0
ENDBLK
  5
640
330
63E
100
AcDbEntity
  8
0
100
AcDbBlockEnd
  0
ENDSEC
  0
SECTION
  2
ENTITIES
  0
3DSOLID
  5
5DB
330
1F
100
AcDbEntity
  8
0
100
AcDbModelerGeometry
 70
     1
  1
koo ljj n o         
  1
ni ^ *+0;:,4 ^ *+0\^ [ nf ^ LR mnhqoqoqkjol QK o  
  1
mjqlffffffffffffff fqfffffffffffffffj:rooh n:rono 
  1
=0;& {rn {n {rn {rn |
  1
3*2/ {rn {rn {m {o |
  1
,7:33 {rn {rn {rn {l {rn {n |
  1
9><: {k {j {i {m {rn {h 90-(>-; ,6183: |
  1
/:-,*=:1+r><>;L036;W6,+0-&r>++-6= {rn {rn {rn {l n k mg o |
  1
9><: {g {f {no {m {rn {nn 90-(>-; ,6183: |
  1
300/ {rn {nm {nl {l |
  1
+0-*,r,*-9><: {rn oqfmkjgnlnfnmggonkg kqgoohmhhllifhnhfi mqmmokkiokfmjolnln:roni rnqglifhonfghmnomfh:roni rn o fqijfnohllgkoihknk rgqhklifogigmnkmfmk o o rn 90-(>-;@) V V V V |
  1
/:-,*=:1+r><>;L036;W6,+0-&r>++-6= {rn {rn {rn {j n k mh o |
  1
9><: {nk {nj {ni {m {rn {nh 90-(>-; ,6183: |
  1
300/ {rn {ng {nf {j |
  1
+0-*,r,*-9><: {rn oqfmkjgnlnfnmggonkg kqjloofoifghfjlnmh mqmmokkiokfmjolnln:roni rnqglifhonfghmnomfh:roni rn o mqolfknfnmhmjgknml rnqnmoiglhnlfmjffnj o o rn 90-(>-;@) V V V V |
  1
300/ {rn {rn {mo {l |
  1
<0:;8: {rn {nl {nl {mn {mm -:):-,:; {i {rn |
  1
/:-,*=:1+r><>;L036;W6,+0-&r>++-6= {rn {rn {rn {f n k mi o |
  1
9><: {ml {mk {mj {m {rn {mi 90-(>-; ,6183: |
  1
300/ {rn {mh {mg {f |
  1
<01:r,*-9><: {rn oqfmkjgnlnfnmggonkg lqiojlgkokkghfkfmf mqmmokkiokfmjolnln:roni rnqglifhonfghmnomfh:roni rn o nqmkokjmfonhllhiof rmqmhgihjonlkonfkki:roni o n V V o n nqmkokjmfonhllhiof 90-(>-; V V V V |
  1
300/ {rn {rn {mn {j |
  1
<0:;8: {rn {nf {nf {mf {lo -:):-,:; {no {rn |
  1
<0:;8: {rn {mo {mo {ln {lm 90-(>-; {nm {rn |
  1
<0:;8: {rn {mn {mn {nl {mm 90-(>-; {ng {rn |
  1
:;8: {rn {ll {ll {mn {lk 90-(>-; |
  1
/:-,*=:1+r><>;L036;W6,+0-&r>++-6= {rn {rn {rn {nj n k mj o |
  1
9><: {lj {li {lh {m {rn {lg 90-(>-; ,6183: |
  1
300/ {rn {lf {ko {nj |
  1
+0-*,r,*-9><: {rn oqfmkjgnlnfnmggonkg lqnhhljnfhnojhlmig mqmmokkiokfmjolnln:roni rnqglifhonfghmnomfh:roni rn o nqngkljnfghmmfoj oqmfkjgmkgoghigjnk o o rn 90-(>-;@) V V V V |
  1
300/ {rn {rn {mf {f |
  1
<0:;8: {rn {mg {mg {kn {km -:):-,:; {ni {rn |
  1
<0:;8: {rn {mf {mf {nf {lo 90-(>-; {mh {rn |
  1
:;8: {rn {kl {kl {mf {kk 90-(>-; |
  1
<0:;8: {rn {ln {ln {mo {lm -:):-,:; {kj {rn |
  1
:;8: {rn {ki {ki {mo {kh 90-(>-; |
  1
):-+:' {rn {mm {kg |
  1
:336/,:r<*-): {rn oqfmkjgnlnfnmggonkg kqkmgilmgkfgkjiimi mqmmokkiokfmjolnln:roni rnqglifhonfghmnomfh:roni rn o oqfmlllhkjgkohloll rnqifinkllfkkjholkj:roni o n V V |
  1
/:-,*=:1+r><>;L036;W6,+0-&r>++-6= {rn {rn {rn {mk n k mk o |
  1
9><: {kf {jo {jn {m {rn {jm 90-(>-; ,6183: |
  1
300/ {rn {jl {jk {mk |
  1
+0-*,r,*-9><: {rn oqfmkjgnlnfnmggonkg mqhnlmhggjoonfjknh mqmmokkiokfmjolnln:roni rnqglifhonfghmnomfh:roni rn o nqlmikngmongmnlgl roqnfohgonomklkimhgk o o rn 90-(>-;@) V V V V |
  1
300/ {rn {rn {kn {nj |
  1
<0:;8: {rn {ko {ko {jj {ji -:):-,:; {mj {rn |
  1
<0:;8: {rn {kn {kn {mg {km 90-(>-; {lf {rn |
  1
:;8: {rn {jh {jh {kn {jg 90-(>-; |
  1
):-+:' {rn {lo {jf |
  1
:336/,:r<*-): {rn oqfmkjgnlnfnmggonkg lqhkkmmkfinkjmngmg mqmmokkiokfmjolnln:roni rnqglifhonfghmnomfh:roni rn o nqmkokjmfonhllhiof rmqmhgihjonlkonfkki:roni o n V V |
  1
300/ {rn {io {ln {in |
  1
):-+:' {rn {lm {im |
  1
:336/,:r<*-): {rn oqfmkjgnlnfnmggonkg jqnjghljfojonjhmkh mqmmokkiokfmjolnln:roni rnqglifhonfghmnomfh:roni rn o oqfmmhkggmohffhfikg rnqifjoimogkhnknfg:roni o n V V |
  1
/061+ {rn nqgkhfnghhhjlinokg kqkmgilmgkfgkjiimi mqmmokkiokfmjolnln:roni |
  1
/:-,*=:1+r><>;L036;W6,+0-&r>++-6= {rn {rn {rn {li n k ml o |
  1
9><: {il {ik {ij {m {rn {ii 90-(>-; ,6183: |
  1
300/ {rn {ih {ig {li |
  1
+0-*,r,*-9><: {rn oqfmkjgnlnfnmggonkg nqgiioijfhmkmiflog mqmmokkiokfmjolnln:roni rnqglifhonfghmnomfh:roni rn o oqhnhlglollognlhjhk oqgjmilfoikjfjmjmmf o o rn 90-(>-;@) V V V V |
  1
300/ {rn {rn {jj {mk |
  1
<0:;8: {rn {jk {jk {if {ho -:):-,:; {lh {rn |
  1
<0:;8: {rn {jj {jj {ko {ji 90-(>-; {jl {rn |
  1
:;8: {rn {hn {hn {jj {hm 90-(>-; |
  1
):-+:' {rn {km {hl |
  1
:336/,:r<*-): {rn oqfmkjgnlnfnmggonkg lqkiijklnmgloigoln mqmmokkiokfmjolnln:roni rnqglifhonfghmnomfh:roni rn o nqmkokjmfonhllhiof rmqmhgihjonlkonfkki:roni o n V V |
  1
/061+ {rn mqnijolkmmogimjimk lqhkkmmkfinkjmngmg mqmmokkiokfmjolnln:roni |
  1
300/ {rn {rn {hk {in |
  1
9><: {hj {hi {kj {m {rn {hh 90-(>-; ,6183: |
  1
/061+ {rn nqgkhllonlffmgjfg jqnjghljfojonjhmkh mqmmokkiokfmjolnln:roni |
  1
/:-,*=:1+r><>;L036;W6,+0-&r>++-6= {rn {rn {rn {jo n k mm o |
  1
9><: {hg {hf {go {m {rn {gn 90-(>-; ,6183: |
  1
300/ {rn {gm {gl {jo |
  1
+0-*,r,*-9><: {rn oqfmkjgnlnfnmggonkg nqgnikloofkojjngjk mqmmokkiokfmjolnln:roni rnqglifhonfghmnomfh:roni rn o roqmknljmifgfnloinii nqgohlkljjookloikk o o rn 90-(>-;@) V V V V |
  1
300/ {rn {rn {if {li |
  1
<0:;8: {rn {ig {ig {gk {gj -:):-,:; {jn {rn |
  1
<0:;8: {rn {if {if {jk {ho 90-(>-; {ih {rn |
  1
:;8: {rn {gi {gi {if {gh 90-(>-; |
  1
):-+:' {rn {ji {gg |
  1
:336/,:r<*-): {rn oqfmkjgnlnfnmggonkg mqgfikifihnflhiloi mqmmokkiokfmjolnln:roni rnqglifhonfghmnomfh:roni rn o nqmhlnklhmnjlljnkg rmqllghmhohjnkjgjm:roni o n V V |
  1
/061+ {rn mqnijolkmmogimjimk lqkiijklnmgloigoln mqmmokkiokfmjolnln:roni |
  1
<0:;8: {rn {hk {hk {gf {fo 90-(>-; {io {rn |
  1
/:-,*=:1+r><>;L036;W6,+0-&r>++-6= {rn {rn {rn {in n k n o |
  1
9><: {fn {fm {fl {m {rn {fk 90-(>-; ,6183: |
  1
+0-*,r,*-9><: {rn oqfmkjgnlnfnmggonkg nqfhjhifjfhmmmlion mqmmokkiokfmjolnln:roni rnqglifhonfghmnomfh:roni rn o jgqgohkimfhngglijm rjhqfhmnioinfmfknon o o rn 90-(>-;@) V V V V |
  1
/:-,*=:1+r><>;L036;W6,+0-&r>++-6= {rn {rn {rn {ik n k mn o |
  1
9><: {fj {fi {fh {m {rn {fg 90-(>-; ,6183: |
  1
300/ {rn {ff {noo {ik |
  1
<01:r,*-9><: {rn oqfmkjgnlnfnmggonkg oqmllhhklikkmnimhkh mqmmokkiokfmjolnln:roni rnqglifhonfghmnomfh:roni rn o oqfklohmfoioliingfh rnqhlmlfigmlinojoif:roni o n V V roqohggjlgkjllinngig oqffigginghimkofhik oqfklohmfoioliingfh 90-(>-; V V V V |
  1
300/ {rn {rn {gk {jo |
  1
<0:;8: {rn {gl {gl {non {nom -:):-,:; {ij {rn |
  1
<0:;8: {rn {gk {gk {ig {gj 90-(>-; {gm {rn |
  1
:;8: {rn {nol {nol {gk {nok 90-(>-; |
  1
):-+:' {rn {ho {noj |
  1
:336/,:r<*-): {rn oqfmkjgnlnfnmggonkg mqjjhnklhkiiokhl mqmmokkiokfmjolnln:roni rnqglifhonfghmnomfh:roni rn o nqmnihghjiloogoigh rmqmljmomkfnkmomofn:roni o n V V |
  1
/061+ {rn mqnfhhmjokoiimlnil mqgfikifihnflhiloi mqmmokkiokfmjolnln:roni |
  1
<0:;8: {rn {gf {gf {hk {fo -:):-,:; {noi {rn |
  1
:;8: {rn {noh {noh {hk {nog 90-(>-; |
  1
/:-,*=:1+r><>;L036;W6,+0-&r>++-6= {rn {rn {rn {hi n l l o |
  1
9><: {nof {nno {nnn {m {rn {nnm -:):-,:; ,6183: |
  1
300/ {rn {rn {nnl {hi |
  1
/3>1:r,*-9><: {rn mqihkjgnlnfnmggmff lkqjoooooooooooooh rnqhkfffffffffffffg n rnqglifhonfghmnomfh:roni o o o n 90-(>-;@) V V V V |
  1
/:-,*=:1+r><>;L036;W6,+0-&r>++-6= {rn {rn {rn {hf n k ni o |
  1
9><: {nnk {nnj {nni {m {rn {nnh 90-(>-; ,6183: |
  1
300/ {rn {nng {nnf {hf |
  1
+0-*,r,*-9><: {rn oqfmkjgnlnfnmggnjif mhqhghoklkkmonmknn mqmmokkiokfmjolnln:roni rnqglifhonfghmnomfh:roni rn o roqjkjjikofmjkhfhh jqiiomgjmfnkjijhli o o rn 90-(>-;@) V V V V |
  1
300/ {rn {rn {non {ik |
  1
<0:;8: {rn {noo {noo {nmo {nmn 90-(>-; {go {rn |
  1
<0:;8: {rn {non {non {gl {nom 90-(>-; {ff {rn |
  1
:;8: {rn {nmm {nmm {non {nml 90-(>-; |
  1
):-+:' {rn {gj {nmk |
  1
:336/,:r<*-): {rn oqfmkjgnlnfnmggonkg nqhhfkijjhifhfmknl mqmmokkiokfmjolnln:roni rnqglifhonfghmnomfh:roni rn o nqjijinmgojoohiggh rmqghjfgkoijjljnimh:roni o n V V |
  1
/061+ {rn mqnknligggmnlighom mqjjhnklhkiiokhl mqmmokkiokfmjolnln:roni |
  1
300/ {rn {nmj {gf {nmi |
  1
):-+:' {rn {fo {nmh |
  1
:336/,:r<*-): {rn oqfmkjgnlnfnmggnjif nnqmjnhoggjkjhljnj mqmmokkiokfmjolnln:roni rnqglifhonfghmnomfh:roni rn o nqjgmmmoijfokkkmlf rmqfoikfmnfgkijljlf:roni o n V V |
  1
/:-,*=:1+r><>;L036;W6,+0-&r>++-6= {rn {rn {rn {fm n l nooooooooo n |
  1
9><: {nmg {nmf {nlo {m {rn {nln 90-(>-; ,6183: |
  1
300/ {rn {rn {nlm {fm |
  1
/3>1:r,*-9><: {rn oqfmkjgnlnfnmggnjif nhqmkffffffffffffl rnqhkfffffffffffffg o o n rnqglifhonfghmnomfh:roni rn o 90-(>-;@) V V V V |
  1
<0:;8: {rn {nll {nlk {nlj {nli -:):-,:; {fl {rn |
  1
/:-,*=:1+r><>;L036;W6,+0-&r>++-6= {rn {rn {rn {fi n k nj o |
  1
9><: {nlh {nlg {nlf {m {rn {nko 90-(>-; ,6183: |
  1
300/ {rn {nkn {nkm {fi |
  1
+0-*,r,*-9><: {rn oqfmkjgnlnfnmggnjif mnqfhjjooohoiolln mqmmokkiokfmjolnln:roni rnqglifhonfghmnomfh:roni rn o nqngokgjfofmgfjgih oqkigfhgihnmjgmljkj o o rn 90-(>-;@) V V V V |
  1
300/ {rn {rn {nkl {hf |
  1
<0:;8: {rn {nkk {nkj {nki {nkh 90-(>-; {fh {rn |
  1
<0:;8: {rn {nmo {nmo {noo {nmn -:):-,:; {nkg {rn |
  1
:;8: {rn {nkf {nkf {nmo {njo 90-(>-; |
  1
):-+:' {rn {nom {njn |
  1
:336/,:r<*-): {rn oqfmkjgnlnfnmggonkg oqkihjkghmggklmhimj mqmmokkiokfmjolnln:roni rnqglifhonfghmnomfh:roni rn o oqfinjikkfmfkkklmfn rnqhiilijlnhighmmn:roni o n V V |
  1
/061+ {rn mqkfonfknmknlikfom nqhhfkijjhifhfmknl mqmmokkiokfmjolnln:roni |
  1
300/ {rn {rn {njm {nmi |
  1
9><: {njl {in {noi {m {rn {njk 90-(>-; ,6183: |
  1
/061+ {rn mqjoigonfhgnhlmlfi nnqmjnhoggjkjhljnj mqmmokkiokfmjolnln:roni |
  1
/:-,*=:1+r><>;L036;W6,+0-&r>++-6= {rn {rn {rn {nno n l n o |
  1
9><: {njj {nji {nkg {m {rn {njh 90-(>-; ,6183: |
  1
300/ {rn {rn {nki {nno |
  1
/3>1:r,*-9><: {rn roqgmjkngigoghnmnmhl o rnqhkfffffffffffffg rn nqglifhonfghmnomfh:roni o o o rn 90-(>-;@) V V V V |
  1
<0:;8: {rn {njg {njf {nkk {nio -:):-,:; {nnn {rn |
  1
<0:;8: {rn {nin {nnl {njf {nim 90-(>-; {fl {rn |
  1
<0:;8: {rn {nnl {nin {nil {nik 90-(>-; {fl {rn |
  1
<0:;8: {rn {nkj {nkk {nnl {nli 90-(>-; {fh {rn |
  1
:;8: {rn {nij {nii {nnl {nih 90-(>-; |
  1
/:-,*=:1+r><>;L036;W6,+0-&r>++-6= {rn {rn {rn {nnj n k nk o |
  1
9><: {nig {nif {nho {m {rn {nhn 90-(>-; ,6183: |
  1
300/ {rn {nhm {nhl {nnj |
  1
+0-*,r,*-9><: {rn oqfmkjgnlnfnmggnjif mnqmohkjmlnhhlhfih mqmmokkiokfmjolnln:roni rnqglifhonfghmnomfh:roni rn o nqminfnmkkmioonlkf oqlnmiimgfjgljmllgg o o rn 90-(>-;@) V V V V |
  1
300/ {rn {rn {nhk {fi |
  1
<0:;8: {rn {nkm {nkm {nhj {nhi -:):-,:; {nni {rn |
  1
<0:;8: {rn {nkl {nkl {nhk {nhh -:):-,:; {nng {rn |
  1
<0:;8: {rn {nlj {nnf {nlm {nio 90-(>-; {fh {rn |
  1
<0:;8: {rn {nnf {nlj {nhg {nhf 90-(>-; {fh {rn |
  1
<0:;8: {rn {ngo {ngn {nnf {nkh -:):-,:; {nlo {rn |
  1
:;8: {rn {ngm {ngl {nki {ngk 90-(>-; |
  1
300/ {rn {rn {nmo {nmf |
  1
):-+:' {rn {nmn {ngj |
  1
:336/,:r<*-): {rn oqfmkjgnlnfnmggonkg o mqmmokkiokfmjolnln:roni nqglifhonfghmnomfh:roni n o oqfmkjgnlnfnmggomfl rnqifgkmglmfjllhggf:roni o n V V |
  1
/061+ {rn nqgginkjgnmohlmlkk oqkihjkghmggklmhimj mqmmokkiokfmjolnln:roni |
  1
<0:;8: {rn {njm {njm {ngi {ngh 90-(>-; {nmj {rn |
  1
/:-,*=:1+r><>;L036;W6,+0-&r>++-6= {rn {rn {rn {nmi n k m o |
  1
+0-*,r,*-9><: {rn oqfmkjgnlnfnmggnjif nmqkjoololfkfihmmm mqmmokkiokfmjolnln:roni rnqglifhonfghmnomfh:roni rn o rjqjjoliiojgjgjffll hqmlmjkfnfogflnihi o o rn 90-(>-;@) V V V V |
  1
/:-,*=:1+r><>;L036;W6,+0-&r>++-6= {rn {rn {rn {nmf m l k o k mo o |
  1
9><: {ngg {ngf {nfo {m {rn {nfn 90-(>-; ,6183: |
  1
/3>1:r,*-9><: {rn mqihkjgnlnfnmggnjh o rnqhkfffffffffffffg rnqglifhonfghmnomfh:roni rn o o o rn 90-(>-;@) V V V V |
  1
<0:;8: {rn {nfm {nlm {ngn {nfl -:):-,:; {nnn {rn |
  1
<0:;8: {rn {nlm {nfm {nll {nim -:):-,:; {nnn {rn |
  1
:;8: {rn {ngl {nij {nlm {nfk 90-(>-; |
  1
<0:;8: {rn {nlk {nll {nfj {nfi 90-(>-; {fl {rn |
  1
:;8: {rn {nij {nfh {nll {nfg 90-(>-; |
  1
<0:;8: {rn {nff {nhg {nlk {nik -:):-,:; {moo {rn |
  1
:;8: {rn {mon {nii {nlk {mom 90-(>-; |
  1
):-+:' {rn {nim {mol |
  1
):-+:' {rn {nhf {mok |
  1
61+<*-):r<*-): {rn 90-(>-; $ ,*-961+<*- 1*=, l 0/:1 f 
  1
 nmqffnjmohkoljflik l nlqoifjfngkfffloih m nlqggljfngfjjgfkh m nkqmfojfnfnglghihl m nkqifhjfnfknngjghl m 
  1
 njqnokjfnfilfgkohk m njqjnnjfnfgihgmmhi m niqlmjjfmolmlhgig m niqkoliilnkmonmlgk l 
  1
 mqihkjgnlnfnmggmff mlqooooooooooooomn rnqhjooooooooooolk 
  1
 mqihkjgnlnfnmggmff mmqfgfohnlhniooofh rnqhmjjokfinjhmgnjh 
  1
 mqihkjgnlnfnmggnjh mmqfhgkfjihghigmll rnqhonmkgmfkgngmofl 
  1
 mqihkjgnlnfnmggmff mmqgingjgmijfhgklk rnqkmhhmnkjgjkfkmik 
  1
 mqihkjgnlnfnmggnjh mmqhigollojgoihig rnqnkjnkhmmgklkhnfl 
  1
 mqihkjgnlnfnmggnjh mmqihkjmiogkggonfm roqhnnjjllkjngjgglln 
  1
 mqihkjgnlnfnmggnjh mmqijofgmkglojhjgm roqjijkogglhfihmhlok 
  1
 mqihkjgnlnfnmggnjh mmqimomginihngmjlj roqmhhkiinifkgjnjgji 
  1
 mqihkjgnlnfnmggmff mmqinlnkjfihknnmhg roqnljiiiihkmiioiigm 
  1
 mqihkjgnlnfnmggmff mmqinlnkjfihknnmhg oqnljiiiihkmiioihmh 
  1
 mqihkjgnlnfnmggnjh mmqimomginihngmjlj oqmhhkiinifkgjnjgji 
  1
 mqihkjgnlnfnmggnjh mmqijofgmkglojhjgm oqjijkogglhfihmhmgn 
  1
 mqihkjgnlnfnmggnjh mmqihkjmiogkggonfm oqhnnjjllkjngjgglfg 
  1
 mqihkjgnlnfnmggnjh mmqhigollojgoihig nqnkjnkhmmgklkhnfj 
  1
 mqihkjgnlnfnmggmff mmqgingjgmijfhgklk nqkmhhmnkjgjkfkmhn 
  1
 mqihkjgnlnfnmggmff mmqfhgkfjihghigmll nqhonmkgmfkgngmnom 
  1
 mqihkjgnlnfnmggmff mmqfgfohnlhniooofh nqhmjjokfinjhmgnkk 
  1
 mqihkjgnlnfnmggmff mlqooooooooooooomn nqhjooooooooooolkk 
  1
 oqooolhllmmkjlkknfffoj 
  1
 +0-*, oqfmkjgnlnfnmggnjif mhqhghoklkkmonmknn mqmmokkiokfmjolnln:roni rnqglifhonfghmnomfh:roni rn o roqjkjjikofmjkhfhh jqiiomgjmfnkjijhli o o rn 90-(>-;@) V V V V 
  1
 /3>1: mqihkjgnlnfnmggmff lkqjoooooooooooooh rnqhkfffffffffffffg n rnqglifhonfghmnomfh:roni o o o n 90-(>-;@) V V V V 
  1
 1*33=, 
  1
 1*33=, 
  1
 V V 
  1
 o 
  1
 o 
  1
 o 
  1
 " V V |
  1
/:-,*=:1+r><>;L036;W6,+0-&r>++-6= {rn {rn {rn {nlg n k nl o |
  1
9><: {moj {moi {moh {m {rn {mog 90-(>-; ,6183: |
  1
300/ {rn {mof {mno {nlg |
  1
<01:r,*-9><: {rn oqfmkjgnlnfnmggnjif moqhjhijnmklmfnifh mqmmokkiokfmjolnln:roni rnqglifhonfghmnomfh:roni rn o nqmggoknghmkghhmkj rmqliiofkjlkkikhgmk:roni o n V V o n nqmggoknghmkghhmkj 90-(>-; V V V V |
  1
300/ {rn {rn {nhj {nnj |
  1
<0:;8: {rn {nhl {nhl {mnn {mnm -:):-,:; {nlf {rn |
  1
<0:;8: {rn {nhk {nhk {nkl {nhh 90-(>-; {nkn {rn |
  1
<0:;8: {rn {nhj {nhj {nkm {nhi 90-(>-; {nhm {rn |
  1
:;8: {rn {mnl {mnl {nhj {mnk 90-(>-; |
  1
:;8: {rn {mnj {mnj {nhk {mni 90-(>-; |
  1
<0:;8: {rn {nil {mnh {nkj {nhf -:):-,:; {moo {rn |
  1
:;8: {rn {nii {ngm {nhg {mng 90-(>-; |
  1
<0:;8: {rn {mnf {nki {mnh {mmo 90-(>-; {nlo {rn |
  1
<0:;8: {rn {nki {mnf {njg {nfl 90-(>-; {nlo {rn |
  1
):-+:' {rn {mmo {mmn |
  1
):-+:' {rn {nkh {mmm |
  1
61+<*-):r<*-): {rn 90-(>-; $ ,*-961+<*- 1*=, l 0/:1 f 
  1
 nmqffnjmohkoljflii l nlqoifjfngkffflojg m nlqggljfngfjjgfkil m nkqmfojfnfnglghiii m nkqifhjfnfknngjgig m 
  1
 njqnokjfnfilfgkoh m njqjnnjfnfgihgmmhj m niqlmjjfmolmlhgig m niqkoliilnkmonmlhl l 
  1
 roqgmjkngigoghnmnmhl mlqooooooooooooomn nqhjooooooooooomhl 
  1
 roqgmjkngigoghnmnmhl mmqfgfohnlhniooofh nqhmjjokfinjhmgnmm 
  1
 roqgmjkngigoghnmnmhl mmqfhgkfjihghigmll nqhonmkgmfkgngmofh 
  1
 roqgmjkngigoghnmnmhl mmqgingjgmijfhgklk nqkmhhmnkjgjkfkmfg 
  1
 roqgmjkngigoghnmnmhl mmqhigollojgoihig nqnkjnkhmmgklkhmnl 
  1
 roqgmjkngigoghnmnmhl mmqihkjmiogkggomoi oqhnnjjllkjngjggkgh 
  1
 roqgmjkngigoghnmojim mmqijofgmkglojhjgm oqjijkogglhfihmhjkg 
  1
 roqgmjkngigoghnmojim mmqimomginihngmjlj oqmhhkiinifkgjniolk 
  1
 roqgmjkngigoghnmnmhl mmqinlnkjfihknnmhg oqnljiiiihkmiioihhn 
  1
 roqgmjkngigoghnmnmhl mmqinlnkjfihknnmhg roqnljiiiihkmiioihmh 
  1
 roqgmjkngigoghnmojim mmqimomginihngmjlj roqmhhkiinifkgjnjfih 
  1
 roqgmjkngigoghnmojim mmqijofgmkglojhjgm roqjijkogglhfihmhkgn 
  1
 roqgmjkngigoghnmnmhl mmqihkjmiogkggonfm roqhnnjjllkjngjggjfg 
  1
 roqgmjkngigoghnmnmhl mmqhigollojgoihig rnqnkjnkhmmgklkhmmk 
  1
 roqgmjkngigoghnmnmhl mmqgingjgmijfhgklk rnqkmhhmnkjgjkfkmfg 
  1
 roqgmjkngigoghnmnfgl mmqfhgkfjihghigmll rnqhonmkgmfkgngmofh 
  1
 roqgmjkngigoghnmnmhl mmqfgfohnlhniooofh rnqhmjjokfinjhmgnnn 
  1
 roqgmjkngigoghnmnmhl mlqooooooooooooomn rnqhjooooooooooomif 
  1
 oqooolhllmmkjlkknkhfin 
  1
 +0-*, oqfmkjgnlnfnmggnjif mhqhghoklkkmonmknn mqmmokkiokfmjolnln:roni rnqglifhonfghmnomfh:roni rn o roqjkjjikofmjkhfhh jqiiomgjmfnkjijhli o o rn 90-(>-;@) V V V V 
  1
 /3>1: roqgmjkngigoghnmnmhl o rnqhkfffffffffffffg rn nqglifhonfghmnomfh:roni o o o rn 90-(>-;@) V V V V 
  1
 1*33=, 
  1
 1*33=, 
  1
 V V 
  1
 o 
  1
 o 
  1
 o 
  1
 " V V |
  1
/061+ {rn nqgkfnimilgmjhioij rhqnojkmhljhionoonf:ronj mqmmokkiokfmjolnln:roni |
  1
<0:;8: {rn {ngi {ngi {njm {ngh -:):-,:; {mml {rn |
  1
:;8: {rn {mmk {mmk {njm {mmj 90-(>-; |
  1
/:-,*=:1+r><>;L036;W6,+0-&r>++-6= {rn {rn {rn {nji m l m o k ng o |
  1
9><: {mmi {rn {moo {m {rn {mmh 90-(>-; ,6183: |
  1
300/ {rn {rn {mmg {nji |
  1
/3>1:r,*-9><: {rn roqgmjkngigoghnmojim lkqjoooooooooooooh rnqhkfffffffffffffg nqglifhonfghmnomfh:roni n o o o n 90-(>-;@) V V V V |
  1
<0:;8: {rn {njf {njg {mmf {mlo -:):-,:; {nnn {rn |
  1
:;8: {rn {mln {ngl {ngn {mlm 90-(>-; |
  1
61+<*-):r<*-): {rn 90-(>-; $ ,*-961+<*- 1*=, l 0/:1 f 
  1
 nmqffnjmohkoljflhj l nlqoifjfngkffflofk m nlqggljfngfjjgfkfl m nkqmfojfnfnglghifm m nkqifhjfnfknngjgfn m 
  1
 njqnokjfnfilfgkofm m njqjnnjfnfgihgmmfn m niqlmjjfmolmlhgif m niqkoliilnkmonmknm l 
  1
 roqgmjkngigoghnmnmhl mlqooooooooooooomn rnqhjooooooooooomif 
  1
 roqgoofmlikmkklfgifj mmqfgfohnlhniooofh rnqhjooooooooooomif 
  1
 roqhhiiiifhjigflfgmk mmqfhgkfjihghigmll rnqhkfffffffffffffg 
  1
 roqjolnkonlfkmoinmof mmqgingjgmijfhgkm rnqhkfffffffffffffg 
  1
 roqmmojijfoflojfmnhf mmqhigollojgoihiij rnqhkfffffffffffffg 
  1
 oqmnlomhfhlfkmfmkgl mmqihkjmiogkggonhg rnqhkfffffffffffffg 
  1
 oqljfnhmkgnninjkhn mmqijofgmkglojhjgm rnqhkfffffffffffffg 
  1
 oqikhnnjnkfikliikon mmqimomginihngmjm rnqhkfffffffffffffg 
  1
 oqhggfnkikkgimhjljl mmqinlnkjfihknnmil rnqhkfffffffffffffg 
  1
 nqoiomkhffllfkghhf mmqinlnkjfihknnmil rnqhkfffffffffffffg 
  1
 nqmomokhkgginlfihk mmqimomginihngmjm rnqhkfffffffffffffg 
  1
 nqkgfffonjhofiogkl mmqijofgmkglojhjgm rnqhkfffffffffffffg 
  1
 nqilinlkiiklnkhoii mmqihkjmiogkggonhg rnqhkfffffffffffffg 
  1
 mqoifhmgjkhjiljjlm mmqhigollojgoihiij rnqhkfffffffffffffg 
  1
 mqljmlomhhhihgmklj mmqgingjgmijfhgkm rnqhkfffffffffffffg 
  1
 mqimjgmfinlfkhomfi mmqfhgkfjihghigmll rnqhkfffffffffffffg 
  1
 mqijoogimgohonjfh mmqfgfohnlhniooofh rnqhjooooooooooolk 
  1
 mqihkjgnlnfnmggmff mlqooooooooooooomn rnqhjooooooooooolk 
  1
 oqooolhllmmkjlklimkmjl 
  1
 +0-*, oqfmkjgnlnfnmggnjif mhqhghoklkkmonmknn mqmmokkiokfmjolnln:roni rnqglifhonfghmnomfh:roni rn o roqjkjjikofmjkhfhh jqiiomgjmfnkjijhli o o rn 90-(>-;@) V V V V 
  1
 /3>1: oqfmkjgnlnfnmggnjif nhqmkffffffffffffl rnqhkfffffffffffffg o o rn rnqglifhonfghmnomfh:roni rn o -:):-,:@) V V V V 
  1
 1*33=, 
  1
 1*33=, 
  1
 V V 
  1
 o 
  1
 o 
  1
 o 
  1
 " V V |
  1
<0:;8: {rn {mmf {mmg {nin {nfi -:):-,:; {nfo {rn |
  1
:;8: {rn {nfh {mon {nin {mll 90-(>-; |
  1
):-+:' {rn {nim {mlk |
  1
,+->687+r<*-): {rn mqihkjgnlnfnmggnjh o rnqhkfffffffffffffg nqglifhonfghmnomfh:roni n o V V |
  1
<0:;8: {rn {mnh {nil {mmg {mlj -:):-,:; {moo {rn |
  1
300/ {rn {rn {nhg {ngf |
  1
):-+:' {rn {nfi {mli |
  1
,+->687+r<*-): {rn mqihkjgnlnfnmggnjh o nqhjooooooooooooom rnqglifhonfghmnomfh:roni rn o V V |
  1
/061+ {rn mqihkjgnlnfnmggmff mlqooooooooooooomn rnqhjooooooooooolk |
  1
/061+ {rn mqihkjgnlnfnmggmff mlqooooooooooooomn nqhjooooooooooolkk |
  1
/:-,*=:1+r><>;L036;W6,+0-&r>++-6= {rn {rn {rn {nif n k nm o |
  1
9><: {mlh {mlg {mlf {m {rn {mko 90-(>-; ,6183: |
  1
300/ {rn {mkn {mkm {nif |
  1
+0-*,r,*-9><: {rn oqfmkjgnlnfnmggnjif nfqffngifgkhmjioim mqmmokkiokfmjolnln:roni rnqglifhonfghmnomfh:roni rn o nqjfninhmhhiimkfll roqifhnmoojhmnojfnji o o rn 90-(>-;@) V V V V |
  1
300/ {rn {rn {mnn {nlg |
  1
<0:;8: {rn {mno {mno {mkl {mkk -:):-,:; {nho {rn |
  1
<0:;8: {rn {mnn {mnn {nhl {mnm 90-(>-; {mof {rn |
  1
:;8: {rn {mkj {mkj {mnn {mki 90-(>-; |
  1
):-+:' {rn {nhi {mkh |
  1
:336/,:r<*-): {rn oqfmkjgnlnfnmggnjif mnqjnfomnkhklogofh mqmmokkiokfmjolnln:roni rnqglifhonfghmnomfh:roni rn o nqmggoknghmkghgofg rmqliiofkjlkkikflfn:roni o n V V |
  1
):-+:' {rn {nhh {mkg |
  1
:336/,:r<*-): {rn oqfmkjgnlnfnmggnjif mmqklnfhgiiigfgjlh mqmmokkiokfmjolnln:roni rnqglifhonfghmnomfh:roni rn o nqmggoknghmkghiihh rmqliiofkjlkkikihhg:roni o n V V |
  1
<0:;8: {rn {nhg {nff {ngo {mmo -:):-,:; {moo {rn |
  1
61+<*-):r<*-): {rn 90-(>-; $ ,*-961+<*- 1*=, l 0/:1 f 
  1
 nmqffnjmohkoljflg l nlqoifjfngkffflofm m nlqggljfngfjjgfkfn m nkqmfojfnfnglghif m nkqifhjfnfknngjgfn m 
  1
 njqnokjfnfilfgkofm m njqjnnjfnfgihgmmfn m niqlmjjfmolmlhgif m niqkoliilnkmonmkml l 
  1
 mqihkjgnlnfnmggmff mlqooooooooooooomn nqhjooooooooooolkk 
  1
 mqijoogimgohonjfh mmqfgfohnlhniooofh nqhjooooooooooolkk 
  1
 mqimjgmfinlfkhonjk mmqfhgkfjihghigmll nqhjooooooooooooom 
  1
 mqljmlomhhhihgmklj mmqgingjgmijfhgklk nqhjooooooooooooom 
  1
 mqoifhmgjkhjiljjlm mmqhigollojgoihig nqhjooooooooooooom 
  1
 nqilinlkiiklnkhoii mmqihkjmiogkggonfm nqhjooooooooooooom 
  1
 nqkgfffonjhofiogkl mmqijofgmkglojhjgm nqhjooooooooooooom 
  1
 nqmomokhkgginlfihk mmqimomginihngmjlj nqhjooooooooooooom 
  1
 nqoiomkhffllfkghhf mmqinlnkjfihknnmil nqhjooooooooooooom 
  1
 oqhggfnkikkgimhjljl mmqinlnkjfihknnmil nqhjooooooooooooom 
  1
 oqikhnnjnkfikliikon mmqimomginihngmjlj nqhjooooooooooooom 
  1
 oqljfnhmkgnninjkhn mmqijofgmkglojhjgm nqhjooooooooooooom 
  1
 oqmnlomhfhlfkmfmkgl mmqihkjmiogkggonfm nqhjooooooooooooom 
  1
 roqmmojijfoflojfmnhf mmqhigollojgoihig nqhjooooooooooooom 
  1
 roqjolnkonlfkmoinmof mmqgingjgmijfhgklk nqhjooooooooooooom 
  1
 roqhhiiiifhjigflfgmk mmqfhgkfjihghigmll nqhjooooooooooooom 
  1
 roqgoofmlikmkklfgifj mmqfgfohnlhniooofh nqhjooooooooooomhl 
  1
 roqgmjkngigoghnmnmhl mlqooooooooooooomn nqhjooooooooooomhl 
  1
 oqooolhllmmkjlkkllkmlm 
  1
 +0-*, oqfmkjgnlnfnmggnjif mhqhghoklkkmonmknn mqmmokkiokfmjolnln:roni rnqglifhonfghmnomfh:roni rn o roqjkjjikofmjkhfhh jqiiomgjmfnkjijhli o o rn 90-(>-;@) V V V V 
  1
 /3>1: oqfmkjgnlnfnmggnjif nhqmkffffffffffffl nqhjooooooooooooom o o n rnqglifhonfghmnomfh:roni rn o 90-(>-;@) V V V V 
  1
 1*33=, 
  1
 1*33=, 
  1
 V V 
  1
 o 
  1
 o 
  1
 o 
  1
 " V V |
  1
<0:;8: {rn {ngn {ngo {mkf {mjo -:):-,:; {nlo {rn |
  1
:;8: {rn {ngm {mjn {ngo {mjm 90-(>-; |
  1
/061+ {rn roqgmjkngigoghnmnmhl mlqooooooooooooomn nqhjooooooooooomhl |
  1
/061+ {rn roqgmjkngigoghnmnmhl mlqooooooooooooomn rnqhjooooooooooomif |
  1
300/ {rn {mjl {ngi {mjk |
  1
):-+:' {rn {ngh {mjj |
  1
:336/,:r<*-): {rn oqfmkjgnlnfnmggnjif nkqhkhfjfffonglofg mqmmokkiokfmjolnln:roni rnqglifhonfghmnomfh:roni rn o nqlohkmkmnokjmiofl rmqkonifflnnighgnkh:roni o n V V |
  1
/:-,*=:1+r><>;L036;W6,+0-&r>++-6= {rn {rn {rn {ngf n l nooooooooo m |
  1
/3>1:r,*-9><: {rn oqfmkjgnlnfnmggnjif nhqmkffffffffffffl nqhjooooooooooooom o o n rnqglifhonfghmnomfh:roni rn o 90-(>-;@) V V V V |
  1
<0:;8: {rn {nfj {mkf {nff {mlj 90-(>-; {nfo {rn |
  1
<0:;8: {rn {mkf {nfj {nfm {mlo 90-(>-; {nfo {rn |
  1
:;8: {rn {nfh {mln {mmf {mji 90-(>-; |
  1
):-+:' {rn {nfl {mjh |
  1
,+->687+r<*-): {rn roqgmjkngigoghnmojim lkqjoooooooooooooh rnqhkfffffffffffffg rnqglifhonfghmnomfh:roni rn o V V |
  1
,+->687+r<*-): {rn mqihkjgnlnfnmggmff lkqjoooooooooooooh rnqhkfffffffffffffg o o n V V |
  1
/061+ {rn mqihkjgnlnfnmggmff lkqjoooooooooooooh rnqhkfffffffffffffg |
  1
:;8: {rn {mjn {mon {mmg {mjg 90-(>-; |
  1
/061+ {rn mqihkjgnlnfnmggmff lkqjoooooooooooooh nqhjooooooooooooom |
  1
/:-,*=:1+r><>;L036;W6,+0-&r>++-6= {rn {rn {rn {moi n k nn o |
  1
9><: {mjf {mio {min {m {rn {mim 90-(>-; ,6183: |
  1
300/ {rn {mil {mik {moi |
  1
+0-*,r,*-9><: {rn oqfmkjgnlnfnmggnjif moqonhmjmiojkhmggl mqmmokkiokfmjolnln:roni rnqglifhonfghmnomfh:roni rn o mqnkkggmjolgiihnn rnqmkffnkighknnkhom o o rn 90-(>-;@) V V V V |
  1
300/ {rn {rn {mkl {nif |
  1
<0:;8: {rn {mkm {mkm {mij {mii -:):-,:; {moh {rn |
  1
<0:;8: {rn {mkl {mkl {mno {mkk 90-(>-; {mkn {rn |
  1
:;8: {rn {mih {mih {mkl {mig 90-(>-; |
  1
):-+:' {rn {mnm {mif |
  1
:336/,:r<*-): {rn oqfmkjgnlnfnmggnjif moqgfjgglninnihgmk mqmmokkiokfmjolnln:roni rnqglifhonfghmnomfh:roni rn o nqmggoknghmkghhmkj rmqliiofkjlkkikhgmk:roni o n V V |
  1
/061+ {rn mqmnmimlnfniniimjj mnqjnfomnkhklogofh mqmmokkiokfmjolnln:roni |
  1
/061+ {rn mqmnmimlnfninikglk mmqklnfhgiiigfgjlh mqmmokkiokfmjolnln:roni |
  1
<0:;8: {rn {mmg {mmf {mnf {mjo 90-(>-; {nfo {rn |
  1
:;8: {rn {mln {mjn {mkf {mho 90-(>-; |
  1
):-+:' {rn {mjo {mhn |
  1
,+->687+r<*-): {rn roqgmjkngigoghnmojim lkqjoooooooooooooh nqhjooooooooooooom nqglifhonfghmnomfh:roni n o V V |
  1
300/ {rn {rn {mhm {mjk |
  1
9><: {mhl {nmi {mml {m {rn {mhk 90-(>-; ,6183: |
  1
/061+ {rn mqmlmoojjmfjgnkmj nkqhkhfjfffonglofg mqmmokkiokfmjolnln:roni |
  1
,+->687+r<*-): {rn mqihkjgnlnfnmggmff lkqjoooooooooooooh rnqhkfffffffffffffg rn nqglifhonfghmnomfh:roni o V V |
  1
/061+ {rn roqgmjkngigoghnmojim lkqjoooooooooooooh rnqhkfffffffffffffg |
  1
,+->687+r<*-): {rn mqihkjgnlnfnmggmff lkqjoooooooooooooh nqhjooooooooooooom n rnqglifhonfghmnomfh:roni o V V |
  1
/:-,*=:1+r><>;L036;W6,+0-&r>++-6= {rn {rn {rn {mlg n k no o |
  1
9><: {mhj {mhi {mhh {m {rn {mhg 90-(>-; ,6183: |
  1
300/ {rn {mhf {mgo {mlg |
  1
+0-*,r,*-9><: {rn oqfmkjgnlnfnmggnjif ngqonjjkfgifjoilii mqmmokkiokfmjolnln:roni rnqglifhonfghmnomfh:roni rn o roqnmjkkhohjmnilgjkl nqhhghmommjiimfjom o o rn 90-(>-;@) V V V V |
  1
300/ {rn {rn {mij {moi |
  1
<0:;8: {rn {mik {mik {mgn {mgm -:):-,:; {mlf {rn |
  1
<0:;8: {rn {mij {mij {mkm {mii 90-(>-; {mil {rn |
  1
:;8: {rn {mgl {mgl {mij {mgk 90-(>-; |
  1
):-+:' {rn {mkk {mgj |
  1
:336/,:r<*-): {rn oqfmkjgnlnfnmggnjif moqinfknflmjknjjhn mqmmokkiokfmjolnln:roni rnqglifhonfghmnomfh:roni rn o nqmggoknghmkghhmkj rmqliiofkjlkkikhgmk:roni o n V V |
  1
/061+ {rn mqmnmimlnfninijkom moqgfjgglninnihgmk mqmmokkiokfmjolnln:roni |
  1
,+->687+r<*-): {rn roqgmjkngigoghnmojim lkqjoooooooooooooh rnqhkfffffffffffffg o o n V V |
  1
/061+ {rn roqgmjkngigoghnmojim lkqjoooooooooooooh nqhjooooooooooooom |
  1
<0:;8: {rn {mhm {mhm {mgi {mgh 90-(>-; {mjl {rn |
  1
/:-,*=:1+r><>;L036;W6,+0-&r>++-6= {rn {rn {rn {mjk n k l o |
  1
<01:r,*-9><: {rn oqfmkjgnlnfnmggnjif nkqgjjjoojjooihhn mqmmokkiokfmjolnln:roni rnqglifhonfghmnomfh:roni rn o nqlohkmkmnokjmiofl rmqkonifflnnighgnkh:roni o n V V o n nqlohkmkmnokjmiofl 90-(>-; V V V V |
  1
/:-,*=:1+r><>;L036;W6,+0-&r>++-6= {rn {rn {rn {mio n k f o |
  1
9><: {mgg {mgf {mfo {m {rn {mfn 90-(>-; ,6183: |
  1
300/ {rn {mfm {mfl {mio |
  1
<01:r,*-9><: {rn oqfmkjgnlnfnmggnjif niqgkghmkhfhmokiki mqmmokkiokfmjolnln:roni rnqglifhonfghmnomfh:roni rn o nqlmokjngogknhomi rmqkmjiloimofoflihj:roni o n V V oqfmlghfjlmjnnmgkil oqlgmiglklmlijofjoi nqlmokjngogknhomi 90-(>-; V V V V |
  1
300/ {rn {rn {mgn {mlg |
  1
<0:;8: {rn {mgo {mgo {mfk {mfj -:):-,:; {min {rn |
  1
<0:;8: {rn {mgn {mgn {mik {mgm 90-(>-; {mhf {rn |
  1
:;8: {rn {mfi {mfi {mgn {mfh 90-(>-; |
  1
):-+:' {rn {mii {mfg |
  1
:336/,:r<*-): {rn oqfmkjgnlnfnmggnjif moqonhkgnoojhhofmj mqmmokkiokfmjolnln:roni rnqglifhonfghmnomfh:roni rn o oqgfkfihglhlmllkfin rnqikkomfmkjfhigolg:roni o n V V |
  1
/061+ {rn mqmnmimlnfninijkom moqinfknflmjknjjhn mqmmokkiokfmjolnln:roni |
  1
<0:;8: {rn {mgi {mgi {mhm {mgh -:):-,:; {mff {rn |
  1
:;8: {rn {loo {loo {mhm {lon 90-(>-; |
  1
/:-,*=:1+r><>;L036;W6,+0-&r>++-6= {rn {rn {rn {mhi n k g o |
  1
9><: {lom {lol {lok {m {rn {loj 90-(>-; ,6183: |
  1
300/ {rn {loi {loh {mhi |
  1
<01:r,*-9><: {rn oqfmkjgnlnfnmggnjif niqhlinifjhiimigkl mqmmokkiokfmjolnln:roni rnqglifhonfghmnomfh:roni rn o nqlfiflifjnkmlonjm rmqjiinlnjkfmjimgjg:roni o n V V o n nqlfiflifjnkmlonjm 90-(>-; V V V V |
  1
300/ {rn {rn {mfk {mio |
  1
<0:;8: {rn {mfl {mfl {log {lof -:):-,:; {mhh {rn |
  1
<0:;8: {rn {mfk {mfk {mgo {mfj 90-(>-; {mfm {rn |
  1
:;8: {rn {lno {lno {mfk {lnn 90-(>-; |
  1
):-+:' {rn {mgm {lnm |
  1
:336/,:r<*-): {rn oqfmkjgnlnfnmggnjif nfqmloglohngmkijjg mqmmokkiokfmjolnln:roni rnqglifhonfghmnomfh:roni rn o nqnhllhkhliffngolj rmqnjjkjkkmlhgioifl:roni o n V V |
  1
/061+ {rn nqgnfjkfnjikjmnijl moqonhkgnoojhhofmj mqmmokkiokfmjolnln:roni |
  1
300/ {rn {lnl {mgi {lnk |
  1
):-+:' {rn {mgh {lnj |
  1
:336/,:r<*-): {rn oqfmkjgnlnfnmggnjif nkqfiloknnoffjmlli mqmmokkiokfmjolnln:roni rnqglifhonfghmnomfh:roni rn o nqlohkmkmnokjmiofl rmqkonifflnnighgnkh:roni o n V V |
  1
/:-,*=:1+r><>;L036;W6,+0-&r>++-6= {rn {rn {rn {mgf n k h o |
  1
9><: {lni {lnh {lng {m {rn {lnf 90-(>-; ,6183: |
  1
300/ {rn {lmo {lmn {mgf |
  1
+0-*,r,*-9><: {rn oqfmkjgnlnfnmggnjif niqlgkgjjjnflijgik mqmmokkiokfmjolnln:roni rnqglifhonfghmnomfh:roni rn o nqlningmimffiflngf oqmgmmlflhjlninkjoh o o rn 90-(>-;@) V V V V |
  1
300/ {rn {rn {log {mhi |
  1
<0:;8: {rn {loh {loh {lmm {lml -:):-,:; {mfo {rn |
  1
<0:;8: {rn {log {log {mfl {lof 90-(>-; {loi {rn |
  1
:;8: {rn {lmk {lmk {log {lmj 90-(>-; |
  1
):-+:' {rn {mfj {lmi |
  1
:336/,:r<*-): {rn oqfmkjgnlnfnmggnjif niqggokojfgohjhhhf mqmmokkiokfmjolnln:roni rnqglifhonfghmnomfh:roni rn o nqmklfiiiijknnolig rmqmgjnmfifmjimkkgg:roni o n V V |
  1
/061+ {rn mqofhfjiojinmoinfm nfqmloglohngmkijjg mqmmokkiokfmjolnln:roni |
  1
300/ {rn {rn {lmh {lnk |
  1
9><: {lmg {mjk {mff {m {rn {lmf 90-(>-; ,6183: |
  1
/061+ {rn mqmlmoojjmfjgnkmj nkqfiloknnoffjmlli mqmmokkiokfmjolnln:roni |
  1
/:-,*=:1+r><>;L036;W6,+0-&r>++-6= {rn {rn {rn {lol n k i o |
  1
9><: {llo {lnk {lln {m {rn {llm 90-(>-; ,6183: |
  1
300/ {rn {lll {llk {lol |
  1
+0-*,r,*-9><: {rn oqfmkjgnlnfnmggnjif njqgklfhjkhggflloi mqmmokkiokfmjolnln:roni rnqglifhonfghmnomfh:roni rn o nqlningmimffiflngf oqmgmmlflhjlninkjoh o o rn 90-(>-;@) V V V V |
  1
300/ {rn {rn {lmm {mgf |
  1
<0:;8: {rn {lmn {lmn {llj {lli -:):-,:; {lok {rn |
  1
<0:;8: {rn {lmm {lmm {loh {lml 90-(>-; {lmo {rn |
  1
:;8: {rn {llh {llh {lmm {llg 90-(>-; |
  1
):-+:' {rn {lof {llf |
  1
:336/,:r<*-): {rn oqfmkjgnlnfnmggnjif niqgnhoklinlijnjmg mqmmokkiokfmjolnln:roni rnqglifhonfghmnomfh:roni rn o nqlfiflifjnkmlonjm rmqjiinlnjkfmjimgjg:roni o n V V |
  1
/061+ {rn mqnigjkhfgkjlfgjmj niqggokojfgohjhhhf mqmmokkiokfmjolnln:roni |
  1
<0:;8: {rn {lmh {lmh {lko {lkn 90-(>-; {lnl {rn |
  1
/:-,*=:1+r><>;L036;W6,+0-&r>++-6= {rn {rn {rn {lnk n k k o |
  1
+0-*,r,*-9><: {rn oqfmkjgnlnfnmggnjif njqmllfojgkomogmkk mqmmokkiokfmjolnln:roni rnqglifhonfghmnomfh:roni rn o nqlilojihmklnokihf roqmhijnggjhhjinngnh o o rn 90-(>-;@) V V V V |
  1
/:-,*=:1+r><>;L036;W6,+0-&r>++-6= {rn {rn {rn {lnh n k j o |
  1
300/ {rn {lkm {lko {lnh |
  1
+0-*,r,*-9><: {rn oqfmkjgnlnfnmggnjif njqolfomknifknonnf mqmmokkiokfmjolnln:roni rnqglifhonfghmnomfh:roni rn o nqjhlikjfohilijnhf roqjimfilfngjokfjikm o o rn 90-(>-;@) V V V V |
  1
300/ {rn {rn {llj {lol |
  1
<0:;8: {rn {llk {llk {lkl {lkk -:):-,:; {lng {rn |
  1
<0:;8: {rn {llj {llj {lmn {lli 90-(>-; {lll {rn |
  1
:;8: {rn {lkj {lkj {llj {lki 90-(>-; |
  1
):-+:' {rn {lml {lkh |
  1
:336/,:r<*-): {rn oqfmkjgnlnfnmggnjif niqijjmfjjlfiomnjh mqmmokkiokfmjolnln:roni rnqglifhonfghmnomfh:roni rn o nqlfiflifjnkmlonjm rmqjiinlnjkfmjimgjg:roni o n V V |
  1
/061+ {rn mqlmnjngmhojjnglof niqgnhoklinlijnjmg mqmmokkiokfmjolnln:roni |
  1
<0:;8: {rn {lko {lko {lmh {lkn -:):-,:; {lln {rn |
  1
:;8: {rn {lkg {lkg {lmh {lkf 90-(>-; |
  1
300/ {rn {rn {lkl {lnh |
  1
<0:;8: {rn {lkl {lkl {llk {lkk 90-(>-; {lkm {rn |
  1
:;8: {rn {ljo {ljo {lkl {ljn 90-(>-; |
  1
):-+:' {rn {lli {ljm |
  1
:336/,:r<*-): {rn oqfmkjgnlnfnmggnjif niqnnkknjkffnmfjhn mqmmokkiokfmjolnln:roni rnqglifhonfghmnomfh:roni rn o nqlfiflifjnkmlonjm rmqjiinlnjkfmjimgjg:roni o n V V |
  1
/061+ {rn mqlmnjngmhojjnglof niqijjmfjjlfiomnjh mqmmokkiokfmjolnln:roni |
  1
):-+:' {rn {lkn {ljl |
  1
:336/,:r<*-): {rn oqfmkjgnlnfnmggnjif njqkoklnhnfijooogn mqmmokkiokfmjolnln:roni rnqglifhonfghmnomfh:roni rn o nqnkjmgfloilnmkilk rmqnolgimlmkiofghin:roni o n V V |
  1
):-+:' {rn {lkk {ljk |
  1
:336/,:r<*-): {rn oqfmkjgnlnfnmggnjif njqjhljljkjgijhonm mqmmokkiokfmjolnln:roni rnqglifhonfghmnomfh:roni rn o nqlfiflifjnkmlonjm rmqjiinlnjkfmjimgjg:roni o n V V |
  1
/061+ {rn mqlmnjngmhojjnglof niqnnkknjkffnmfjhn mqmmokkiokfmjolnln:roni |
  1
/061+ {rn mqoifghoimjkknmhfn njqkoklnhnfijooogn mqmmokkiokfmjolnln:roni |
  1
/061+ {rn mqlmnjngmhojjnglof njqjhljljkjgijhonm mqmmokkiokfmjolnln:roni |
  0
ENDSEC
  0
SECTION
  2
OBJECTS
  0
DICTIONARY
  5
C
330
0
100
AcDbDictionary
281
     1
  3
ACAD_ASSOCPERSSUBENTMANAGER
350
1BC
  3
ACAD_BACKGROUND
350
1B8
  3
ACAD_CIP_PREVIOUS_PRODUCT_INFO
350
345
  3
ACAD_COLOR
350
73
  3
ACAD_GROUP
350
D
  3
ACAD_IMAGE_DICT
350
346
  3
ACAD_IMAGE_VARS
350
347
  3
ACAD_LAYOUT
350
1A
  3
ACAD_MATERIAL
350
72
  3
ACAD_MLEADERSTYLE
350
D7
  3
ACAD_MLINESTYLE
350
17
  3
ACAD_PERSUBENTMGR
350
1BD
  3
ACAD_PLOTSETTINGS
350
19
  3
ACAD_PLOTSTYLENAME
350
E
  3
ACAD_SCALELIST
350
B6
  3
ACAD_TABLESTYLE
350
86
  3
ACAD_VISUALSTYLE
350
99
  3
ACDB_RECOMPOSE_DATA
350
6AC
  3
AcDbVariableDictionary
350
66
  3
DWGPROPS
350
6AD
  0
DICTIONARY
  5
E6
330
10
100
AcDbDictionary
280
     1
281
     1
  0
DICTIONARY
  5
15D
330
1F
100
AcDbDictionary
280
     1
281
     1
  3
ACAD_SORTENTS
360
399
  0
DICTIONARY
  5
6E9
330
5F6
100
AcDbDictionary
280
     1
281
     1
  3
ACAD_MTEXT_RT
360
6EA
  0
DICTIONARY
  5
6EB
330
610
100
AcDbDictionary
280
     1
281
     1
  3
ACAD_MTEXT_RT
360
6EC
  0
DICTIONARY
  5
6ED
330
639
100
AcDbDictionary
280
     1
281
     1
  3
ACAD_MTEXT_RT
360
6EE
  0
DICTIONARY
  5
6EF
330
652
100
AcDbDictionary
280
     1
281
     1
  3
ACAD_MTEXT_RT
360
6F0
  0
ACDBASSOCPERSSUBENTMANAGER
  5
1BC
102
{ACAD_REACTORS
330
C
102
}
330
C
100
AcDbAssocPersSubentManager
 90
        1
 90
        3
 90
        0
 90
        2
 90
        4
 90
        0
 90
        0
 90
        0
290
     0
  0
DICTIONARY
  5
1B8
102
{ACAD_REACTORS
330
C
102
}
330
C
100
AcDbDictionary
281
     1
  0
XRECORD
  5
345
102
{ACAD_REACTORS
330
C
102
}
330
C
100
AcDbXrecord
280
     1
300
ACD
300
2012
300
ACD_F_S
  0
DICTIONARY
  5
73
102
{ACAD_REACTORS
330
C
102
}
330
C
100
AcDbDictionary
281
     1
  0
DICTIONARY
  5
D
102
{ACAD_REACTORS
330
C
102
}
330
C
100
AcDbDictionary
281
     1
  0
DICTIONARY
  5
346
102
{ACAD_REACTORS
330
C
102
}
330
C
100
AcDbDictionary
281
     1
  3
leg
350
348
  0
RASTERVARIABLES
  5
347
102
{ACAD_REACTORS
330
C
102
}
330
C
100
AcDbRasterVariables
 90
        0
 70
     1
 71
     1
 72
     5
  0
DICTIONARY
  5
1A
102
{ACAD_REACTORS
330
C
102
}
330
C
100
AcDbDictionary
281
     1
  3
Layout1
350
59
  3
Layout2
350
5E
  3
Model
350
22
  0
DICTIONARY
  5
72
102
{ACAD_REACTORS
330
C
102
}
330
C
100
AcDbDictionary
281
     1
  3
ByBlock
350
97
  3
ByLayer
350
96
  3
Global
350
98
  0
DICTIONARY
  5
D7
102
{ACAD_REACTORS
330
C
102
}
330
C
100
AcDbDictionary
281
     1
  3
Annotative
350
E5
  3
Standard
350
D8
  0
DICTIONARY
  5
17
102
{ACAD_REACTORS
330
C
102
}
330
C
100
AcDbDictionary
281
     1
  3
Standard
350
18
  0
ACDBPERSSUBENTMANAGER
  5
1BD
102
{ACAD_REACTORS
330
C
102
}
330
C
100
AcDbPersSubentManager
 90
        2
 90
        0
 90
        2
 90
        4
 90
        0
 90
        2
 90
        3
 90
        4
  0
DICTIONARY
  5
19
102
{ACAD_REACTORS
330
C
102
}
330
C
100
AcDbDictionary
281
     1
  0
ACDBDICTIONARYWDFLT
  5
E
102
{ACAD_REACTORS
330
C
102
}
330
C
100
AcDbDictionary
281
     1
  3
Normal
350
F
100
AcDbDictionaryWithDefault
340
F
  0
DICTIONARY
  5
B6
102
{ACAD_REACTORS
330
C
102
}
330
C
100
AcDbDictionary
281
     1
  3
A0
350
B7
  3
A1
350
124
  3
A2
350
125
  3
A3
350
126
  3
A4
350
127
  3
A5
350
128
  3
A6
350
129
  3
A7
350
12A
  3
A8
350
12B
  3
A9
350
12C
  3
B0
350
12D
  3
B1
350
12E
  3
B2
350
12F
  3
B3
350
130
  3
B4
350
131
  3
B5
350
132
  3
B6
350
133
  3
B7
350
134
  3
B8
350
135
  3
B9
350
136
  3
C0
350
137
  3
C1
350
138
  3
C2
350
139
  3
C3
350
13A
  3
C4
350
13B
  3
C5
350
13C
  3
C6
350
13D
  3
C7
350
13E
  3
C8
350
13F
  3
C9
350
140
  3
D0
350
141
  3
D1
350
142
  3
D2
350
143
  0
DICTIONARY
  5
86
102
{ACAD_REACTORS
330
C
102
}
330
C
100
AcDbDictionary
281
     1
  3
Standard
350
87
  0
DICTIONARY
  5
99
102
{ACAD_REACTORS
330
C
102
}
330
C
100
AcDbDictionary
281
     1
  3
2dWireframe
350
9F
  3
3D Hidden
350
A1
  3
3dWireframe
350
A0
  3
Basic
350
9E
  3
Brighten
350
A5
  3
ColorChange
350
A9
  3
Conceptual
350
A2
  3
Dim
350
A4
  3
EdgeColorOff
350
175
  3
Facepattern
350
A8
  3
Flat
350
9A
  3
FlatWithEdges
350
9B
  3
Gouraud
350
9C
  3
GouraudWithEdges
350
9D
  3
Hidden
350
17F
  3
JitterOff
350
173
  3
Linepattern
350
A7
  3
OverhangOff
350
174
  3
Realistic
350
A3
  3
Shaded
350
184
  3
Shaded with edges
350
183
  3
Shades of Gray
350
180
  3
Sketchy
350
181
  3
Thicken
350
A6
  3
Wireframe
350
17E
  3
X-Ray
350
182
  0
XRECORD
  5
6AC
102
{ACAD_REACTORS
330
C
102
}
330
C
100
AcDbXrecord
280
     1
 90
        1
330
87
  0
DICTIONARY
  5
66
102
{ACAD_REACTORS
330
C
102
}
330
C
100
AcDbDictionary
281
     1
  3
CANNOSCALE
350
F0
  3
CMLEADERSTYLE
350
EF
  3
CTABLESTYLE
350
89
  3
DIMASSOC
350
67
  3
HIDETEXT
350
6B
  3
INDEXCTL
350
39E
  3
LAYEREVAL
350
14D
  3
LAYERNOTIFY
350
14E
  3
LIGHTINGUNITS
350
39C
  3
MSLTSCALE
350
39B
  3
SOLIDHIST
350
39F
  3
SORTENTS
350
39D
  3
XCLIPFRAME
350
6A6
  0
XRECORD
  5
6AD
102
{ACAD_REACTORS
330
C
102
}
330
C
100
AcDbXrecord
280
     1
  1
DWGPROPS COOKIE
  2

  3

  4

  6

  7

  8
Haden
  9

300
=
301
=
302
=
303
=
304
=
305
=
306
=
307
=
308
=
309
=
 40
0.0105517708333333
 41
2456048.482104005
 42
2456063.544101933
  1

 90
        0
  0
SORTENTSTABLE
  5
399
102
{ACAD_REACTORS
330
15D
102
}
330
15D
100
AcDbSortentsTable
330
1F
  0
XRECORD
  5
6EA
102
{ACAD_REACTORS
330
6E9
102
}
330
6E9
100
AcDbXrecord
280
     1
 40
3957.0
  1
\A1;3{\H1.000000x;\S1#2;}
  0
XRECORD
  5
6EC
102
{ACAD_REACTORS
330
6EB
102
}
330
6EB
100
AcDbXrecord
280
     1
 40
4621.0
  1
\A1;11{\H1.000000x;\S1#2;}
  0
XRECORD
  5
6EE
102
{ACAD_REACTORS
330
6ED
102
}
330
6ED
100
AcDbXrecord
280
     1
 40
4649.0
  1
\A1;34{\H1.000000x;\S1#2;}
  0
XRECORD
  5
6F0
102
{ACAD_REACTORS
330
6EF
102
}
330
6EF
100
AcDbXrecord
280
     1
 40
4055.0
  1
\A1;1{\H1.000000x;\S7#8;}
  0
IMAGEDEF
  5
348
102
{ACAD_REACTORS
330
346
102
}
330
346
100
AcDbRasterImageDef
 90
        0
  1
C:\Users\Haden\Desktop\leg.jpg
 10
300.0
 20
676.0
 11
0.2645833333333333
 21
0.2645833333333333
280
     1
281
     5
  0
LAYOUT
  5
59
102
{ACAD_XDICTIONARY
360
6B0
102
}
102
{ACAD_REACTORS
330
1A
102
}
330
1A
100
AcDbPlotSettings
  1

  2
None
  4

  6

 40
0.0
 41
0.0
 42
0.0
 43
0.0
 44
0.0
 45
0.0
 46
0.0
 47
0.0
 48
0.0
 49
0.0
140
0.0
141
0.0
142
1.0
143
1.0
 70
   688
 72
     0
 73
     0
 74
     5
  7

 75
    16
147
1.0
148
0.0
149
0.0
100
AcDbLayout
  1
Layout1
 70
     1
 71
     1
 10
0.0
 20
0.0
 11
12.0
 21
9.0
 12
0.0
 22
0.0
 32
0.0
 14
0.0
 24
0.0
 34
0.0
 15
0.0
 25
0.0
 35
0.0
146
0.0
 13
0.0
 23
0.0
 33
0.0
 16
1.0
 26
0.0
 36
0.0
 17
0.0
 27
1.0
 37
0.0
 76
     0
330
58
  0
LAYOUT
  5
5E
102
{ACAD_XDICTIONARY
360
6B2
102
}
102
{ACAD_REACTORS
330
1A
102
}
330
1A
100
AcDbPlotSettings
  1

  2
None
  4

  6

 40
0.0
 41
0.0
 42
0.0
 43
0.0
 44
0.0
 45
0.0
 46
0.0
 47
0.0
 48
0.0
 49
0.0
140
0.0
141
0.0
142
1.0
143
1.0
 70
   688
 72
     0
 73
     0
 74
     5
  7

 75
    16
147
1.0
148
0.0
149
0.0
100
AcDbLayout
  1
Layout2
 70
     1
 71
     2
 10
0.0
 20
0.0
 11
12.0
 21
9.0
 12
0.0
 22
0.0
 32
0.0
 14
0.0
 24
0.0
 34
0.0
 15
0.0
 25
0.0
 35
0.0
146
0.0
 13
0.0
 23
0.0
 33
0.0
 16
1.0
 26
0.0
 36
0.0
 17
0.0
 27
1.0
 37
0.0
 76
     0
330
5D
  0
LAYOUT
  5
22
102
{ACAD_XDICTIONARY
360
6AE
102
}
102
{ACAD_REACTORS
330
1A
102
}
330
1A
100
AcDbPlotSettings
  1

  2
none_device
  4
ANSI_A_(8.50_x_11.00_Inches)
  6

 40
6.349999904632567
 41
19.04999923706055
 42
6.350006103515625
 43
19.04998779296875
 44
215.8999938964844
 45
279.3999938964844
 46
0.0
 47
0.0
 48
0.0
 49
0.0
140
0.0
141
0.0
142
1.0
143
2.584895464708373
 70
 11952
 72
     0
 73
     1
 74
     0
  7

 75
     0
147
0.3868628397755418
148
0.0
149
0.0
100
AcDbLayout
  1
Model
 70
     1
 71
     0
 10
0.0
 20
0.0
 11
12.0
 21
9.0
 12
0.0
 22
0.0
 32
0.0
 14
0.0
 24
0.0
 34
0.0
 15
0.0
 25
0.0
 35
0.0
146
0.0
 13
0.0
 23
0.0
 33
0.0
 16
1.0
 26
0.0
 36
0.0
 17
0.0
 27
1.0
 37
0.0
 76
     0
330
1F
331
94
  0
MATERIAL
  5
97
102
{ACAD_XDICTIONARY
360
3B2
102
}
102
{ACAD_REACTORS
330
72
102
}
330
72
100
AcDbMaterial
  1
ByBlock
  0
MATERIAL
  5
96
102
{ACAD_XDICTIONARY
360
3B0
102
}
102
{ACAD_REACTORS
330
72
102
}
330
72
100
AcDbMaterial
  1
ByLayer
  0
MATERIAL
  5
98
102
{ACAD_XDICTIONARY
360
110
102
}
102
{ACAD_REACTORS
330
72
102
}
330
72
100
AcDbMaterial
  1
Global
 43
0.0208000000566244
 43
0.0
 43
0.0
 43
0.0
 43
0.0
 43
0.0208000000566244
 43
0.0
 43
0.0
 43
0.0
 43
0.0
 43
1.0
 43
0.0
 43
0.0
 43
0.0
 43
0.0
 43
1.0
 49
0.0208000000566244
 49
0.0
 49
0.0
 49
0.0
 49
0.0
 49
0.0208000000566244
 49
0.0
 49
0.0
 49
0.0
 49
0.0
 49
1.0
 49
0.0
 49
0.0
 49
0.0
 49
0.0
 49
1.0
142
0.0208000000566244
142
0.0
142
0.0
142
0.0
142
0.0
142
0.0208000000566244
142
0.0
142
0.0
142
0.0
142
0.0
142
1.0
142
0.0
142
0.0
142
0.0
142
0.0
142
1.0
144
0.0208000000566244
144
0.0
144
0.0
144
0.0
144
0.0
144
0.0208000000566244
144
0.0
144
0.0
144
0.0
144
0.0
144
1.0
144
0.0
144
0.0
144
0.0
144
0.0
144
1.0
1001
ACAD
1070
    -1
1070
     3
1070
     0
1000

1071
        0
1070
     0
  0
MLEADERSTYLE
  5
E5
102
{ACAD_XDICTIONARY
360
6AA
102
}
102
{ACAD_REACTORS
330
D7
102
}
330
D7
100
AcDbMLeaderStyle
170
     2
171
     1
172
     0
 90
        2
 40
0.0
 41
0.0
173
     1
 91
-1056964608
340
14
 92
       -2
290
     1
 42
0.09
291
     1
 43
0.36
  3
Standard
 44
0.18
300

342
11
174
     1
178
     1
175
     1
176
     0
 93
-1056964608
 45
0.18
292
     0
297
     0
 46
0.18
 94
-1056964608
 47
1.0
 49
1.0
140
1.0
293
     1
141
0.0
294
     1
177
     0
142
1.0
295
     0
296
     1
143
0.125
1001
ACAD_MLEADERVER
1070
     2
  0
MLEADERSTYLE
  5
D8
102
{ACAD_XDICTIONARY
360
6A8
102
}
102
{ACAD_REACTORS
330
D7
102
}
330
D7
100
AcDbMLeaderStyle
170
     2
171
     1
172
     0
 90
        2
 40
0.0
 41
0.0
173
     1
 91
-1056964608
340
14
 92
       -2
290
     1
 42
0.09
291
     1
 43
0.36
  3
Standard
 44
0.18
300

342
11
174
     1
178
     1
175
     1
176
     0
 93
-1056964608
 45
0.18
292
     0
297
     0
 46
0.18
 94
-1056964608
 47
1.0
 49
1.0
140
1.0
293
     1
141
0.0
294
     1
177
     0
142
1.0
295
     0
296
     0
143
0.125
1001
ACAD_MLEADERVER
1070
     2
  0
MLINESTYLE
  5
18
102
{ACAD_REACTORS
330
17
102
}
330
17
100
AcDbMlineStyle
  2
STANDARD
 70
     0
  3

 62
   256
 51
90.0
 52
90.0
 71
     2
 49
0.5
 62
   256
  6
BYLAYER
 49
-0.5
 62
   256
  6
BYLAYER
  0
ACDBPLACEHOLDER
  5
F
102
{ACAD_REACTORS
330
E
102
}
330
E
  0
SCALE
  5
B7
102
{ACAD_REACTORS
330
B6
102
}
330
B6
100
AcDbScale
 70
     0
300
1:1
140
1.0
141
1.0
290
     1
  0
SCALE
  5
124
102
{ACAD_REACTORS
330
B6
102
}
330
B6
100
AcDbScale
 70
     0
300
1:2
140
1.0
141
2.0
290
     0
  0
SCALE
  5
125
102
{ACAD_REACTORS
330
B6
102
}
330
B6
100
AcDbScale
 70
     0
300
1:4
140
1.0
141
4.0
290
     0
  0
SCALE
  5
126
102
{ACAD_REACTORS
330
B6
102
}
330
B6
100
AcDbScale
 70
     0
300
1:5
140
1.0
141
5.0
290
     0
  0
SCALE
  5
127
102
{ACAD_REACTORS
330
B6
102
}
330
B6
100
AcDbScale
 70
     0
300
1:8
140
1.0
141
8.0
290
     0
  0
SCALE
  5
128
102
{ACAD_REACTORS
330
B6
102
}
330
B6
100
AcDbScale
 70
     0
300
1:10
140
1.0
141
10.0
290
     0
  0
SCALE
  5
129
102
{ACAD_REACTORS
330
B6
102
}
330
B6
100
AcDbScale
 70
     0
300
1:16
140
1.0
141
16.0
290
     0
  0
SCALE
  5
12A
102
{ACAD_REACTORS
330
B6
102
}
330
B6
100
AcDbScale
 70
     0
300
1:20
140
1.0
141
20.0
290
     0
  0
SCALE
  5
12B
102
{ACAD_REACTORS
330
B6
102
}
330
B6
100
AcDbScale
 70
     0
300
1:30
140
1.0
141
30.0
290
     0
  0
SCALE
  5
12C
102
{ACAD_REACTORS
330
B6
102
}
330
B6
100
AcDbScale
 70
     0
300
1:40
140
1.0
141
40.0
290
     0
  0
SCALE
  5
12D
102
{ACAD_REACTORS
330
B6
102
}
330
B6
100
AcDbScale
 70
     0
300
1:50
140
1.0
141
50.0
290
     0
  0
SCALE
  5
12E
102
{ACAD_REACTORS
330
B6
102
}
330
B6
100
AcDbScale
 70
     0
300
1:100
140
1.0
141
100.0
290
     0
  0
SCALE
  5
12F
102
{ACAD_REACTORS
330
B6
102
}
330
B6
100
AcDbScale
 70
     0
300
2:1
140
2.0
141
1.0
290
     0
  0
SCALE
  5
130
102
{ACAD_REACTORS
330
B6
102
}
330
B6
100
AcDbScale
 70
     0
300
4:1
140
4.0
141
1.0
290
     0
  0
SCALE
  5
131
102
{ACAD_REACTORS
330
B6
102
}
330
B6
100
AcDbScale
 70
     0
300
8:1
140
8.0
141
1.0
290
     0
  0
SCALE
  5
132
102
{ACAD_REACTORS
330
B6
102
}
330
B6
100
AcDbScale
 70
     0
300
10:1
140
10.0
141
1.0
290
     0
  0
SCALE
  5
133
102
{ACAD_REACTORS
330
B6
102
}
330
B6
100
AcDbScale
 70
     0
300
100:1
140
100.0
141
1.0
290
     0
  0
SCALE
  5
134
102
{ACAD_REACTORS
330
B6
102
}
330
B6
100
AcDbScale
 70
     0
300
1/128" = 1'-0"
140
0.0078125
141
12.0
290
     0
  0
SCALE
  5
135
102
{ACAD_REACTORS
330
B6
102
}
330
B6
100
AcDbScale
 70
     0
300
1/64" = 1'-0"
140
0.015625
141
12.0
290
     0
  0
SCALE
  5
136
102
{ACAD_REACTORS
330
B6
102
}
330
B6
100
AcDbScale
 70
     0
300
1/32" = 1'-0"
140
0.03125
141
12.0
290
     0
  0
SCALE
  5
137
102
{ACAD_REACTORS
330
B6
102
}
330
B6
100
AcDbScale
 70
     0
300
1/16" = 1'-0"
140
0.0625
141
12.0
290
     0
  0
SCALE
  5
138
102
{ACAD_REACTORS
330
B6
102
}
330
B6
100
AcDbScale
 70
     0
300
3/32" = 1'-0"
140
0.09375
141
12.0
290
     0
  0
SCALE
  5
139
102
{ACAD_REACTORS
330
B6
102
}
330
B6
100
AcDbScale
 70
     0
300
1/8" = 1'-0"
140
0.125
141
12.0
290
     0
  0
SCALE
  5
13A
102
{ACAD_REACTORS
330
B6
102
}
330
B6
100
AcDbScale
 70
     0
300
3/16" = 1'-0"
140
0.1875
141
12.0
290
     0
  0
SCALE
  5
13B
102
{ACAD_REACTORS
330
B6
102
}
330
B6
100
AcDbScale
 70
     0
300
1/4" = 1'-0"
140
0.25
141
12.0
290
     0
  0
SCALE
  5
13C
102
{ACAD_REACTORS
330
B6
102
}
330
B6
100
AcDbScale
 70
     0
300
3/8" = 1'-0"
140
0.375
141
12.0
290
     0
  0
SCALE
  5
13D
102
{ACAD_REACTORS
330
B6
102
}
330
B6
100
AcDbScale
 70
     0
300
1/2" = 1'-0"
140
0.5
141
12.0
290
     0
  0
SCALE
  5
13E
102
{ACAD_REACTORS
330
B6
102
}
330
B6
100
AcDbScale
 70
     0
300
3/4" = 1'-0"
140
0.75
141
12.0
290
     0
  0
SCALE
  5
13F
102
{ACAD_REACTORS
330
B6
102
}
330
B6
100
AcDbScale
 70
     0
300
1" = 1'-0"
140
1.0
141
12.0
290
     0
  0
SCALE
  5
140
102
{ACAD_REACTORS
330
B6
102
}
330
B6
100
AcDbScale
 70
     0
300
1-1/2" = 1'-0"
140
1.5
141
12.0
290
     0
  0
SCALE
  5
141
102
{ACAD_REACTORS
330
B6
102
}
330
B6
100
AcDbScale
 70
     0
300
3" = 1'-0"
140
3.0
141
12.0
290
     0
  0
SCALE
  5
142
102
{ACAD_REACTORS
330
B6
102
}
330
B6
100
AcDbScale
 70
     0
300
6" = 1'-0"
140
6.0
141
12.0
290
     0
  0
SCALE
  5
143
102
{ACAD_REACTORS
330
B6
102
}
330
B6
100
AcDbScale
 70
     0
300
1'-0" = 1'-0"
140
12.0
141
12.0
290
     0
  0
TABLESTYLE
  5
87
102
{ACAD_XDICTIONARY
360
104
102
}
102
{ACAD_REACTORS
330
86
102
}
330
86
100
AcDbTableStyle
  3
Standard
 70
     0
 71
     0
 40
0.06
 41
0.06
280
     0
281
     0
  7
Standard
140
0.18
170
     2
 62
     0
 63
     7
283
     0
274
    -2
284
     1
 64
     0
275
    -2
285
     1
 65
     0
276
    -2
286
     1
 66
     0
277
    -2
287
     1
 67
     0
278
    -2
288
     1
 68
     0
279
    -2
289
     1
 69
     0
  7
Standard
140
0.25
170
     5
 62
     0
 63
     7
283
     0
274
    -2
284
     1
 64
     0
275
    -2
285
     1
 65
     0
276
    -2
286
     1
 66
     0
277
    -2
287
     1
 67
     0
278
    -2
288
     1
 68
     0
279
    -2
289
     1
 69
     0
  7
Standard
140
0.18
170
     5
 62
     0
 63
     7
283
     0
274
    -2
284
     1
 64
     0
275
    -2
285
     1
 65
     0
276
    -2
286
     1
 66
     0
277
    -2
287
     1
 67
     0
278
    -2
288
     1
 68
     0
279
    -2
289
     1
 69
     0
  0
VISUALSTYLE
  5
9F
102
{ACAD_XDICTIONARY
360
6BF
102
}
102
{ACAD_REACTORS
330
99
102
}
330
99
100
AcDbVisualStyle
  2

 70
     4
 71
     0
 72
     2
 73
     1
 90
        0
 40
-0.6
 41
-30.0
 62
     5
 63
     7
 74
     1
 91
        4
 64
     7
 65
   257
 75
     1
175
     1
 42
1.0
 92
        0
 66
   257
 43
1.0
 76
     1
 77
     6
 78
     2
 67
     7
 79
     5
170
     0
171
     0
290
     0
174
     0
 93
        1
 44
0.0
173
     0
291
     0
 45
0.0
1001
ACAD
1000
AcDbSavedByObjectVersion
1070
     0
  0
VISUALSTYLE
  5
A1
102
{ACAD_XDICTIONARY
360
6C3
102
}
102
{ACAD_REACTORS
330
99
102
}
330
99
100
AcDbVisualStyle
  2

 70
     6
 71
     1
 72
     2
 73
     2
 90
        0
 40
-0.6
 41
-30.0
 62
     5
 63
     7
 74
     2
 91
        2
 64
     7
 65
   257
 75
     2
175
     1
 42
40.0
 92
        0
 66
   257
 43
1.0
 76
     1
 77
     6
 78
     2
 67
     7
 79
     3
170
     0
171
     0
290
     0
174
     0
 93
        1
 44
0.0
173
     0
291
     0
 45
0.0
1001
ACAD
1000
AcDbSavedByObjectVersion
1070
     0
  0
VISUALSTYLE
  5
A0
102
{ACAD_XDICTIONARY
360
6C1
102
}
102
{ACAD_REACTORS
330
99
102
}
330
99
100
AcDbVisualStyle
  2

 70
     5
 71
     0
 72
     2
 73
     1
 90
        0
 40
-0.6
 41
-30.0
 62
     5
 63
     7
 74
     1
 91
        4
 64
     7
 65
   257
 75
     1
175
     1
 42
1.0
 92
        0
 66
   257
 43
1.0
 76
     1
 77
     6
 78
     2
 67
     7
 79
     5
170
     0
171
     0
290
     0
174
     0
 93
        1
 44
0.0
173
     0
291
     0
 45
0.0
1001
ACAD
1000
AcDbSavedByObjectVersion
1070
     0
  0
VISUALSTYLE
  5
9E
102
{ACAD_XDICTIONARY
360
6BD
102
}
102
{ACAD_REACTORS
330
99
102
}
330
99
100
AcDbVisualStyle
  2

 70
     7
 71
     1
 72
     0
 73
     1
 90
        0
 40
-0.6
 41
-30.0
 62
     5
 63
     7
 74
     0
 91
        4
 64
     7
 65
   257
 75
     1
175
     1
 42
1.0
 92
        8
 66
     7
 43
1.0
 76
     1
 77
     6
 78
     2
 67
     7
 79
     5
170
     0
171
     0
290
     0
174
     0
 93
        1
 44
0.0
173
     0
291
     1
 45
0.0
1001
ACAD
1000
AcDbSavedByObjectVersion
1070
     0
  0
VISUALSTYLE
  5
A5
102
{ACAD_XDICTIONARY
360
6CB
102
}
102
{ACAD_REACTORS
330
99
102
}
330
99
100
AcDbVisualStyle
  2

 70
    12
 71
     2
 72
     2
 73
     1
 90
        0
 40
-0.6
 41
-30.0
 62
     5
 63
     7
 74
     1
 91
        4
 64
     7
 65
   257
 75
     1
175
     1
 42
1.0
 92
        8
 66
     7
 43
1.0
 76
     1
 77
     6
 78
     2
 67
     7
 79
     5
170
     0
171
     0
290
     0
174
     0
 93
        1
 44
50.0
173
     0
291
     1
 45
0.0
1001
ACAD
1000
AcDbSavedByObjectVersion
1070
     0
  0
VISUALSTYLE
  5
A9
102
{ACAD_XDICTIONARY
360
6D3
102
}
102
{ACAD_REACTORS
330
99
102
}
330
99
100
AcDbVisualStyle
  2

 70
    16
 71
     2
 72
     2
 73
     3
 90
        0
 40
-0.6
 41
-30.0
 62
     5
 63
     8
 74
     1
 91
        4
 64
     7
 65
   257
 75
     1
175
     1
 42
1.0
 92
        8
 66
     8
 43
1.0
 76
     1
 77
     6
 78
     2
 67
     7
 79
     5
170
     0
171
     0
290
     0
174
     0
 93
        1
 44
0.0
173
     0
291
     1
 45
0.0
1001
ACAD
1000
AcDbSavedByObjectVersion
1070
     0
  0
VISUALSTYLE
  5
A2
102
{ACAD_XDICTIONARY
360
6C5
102
}
102
{ACAD_REACTORS
330
99
102
}
330
99
100
AcDbVisualStyle
  2

 70
     9
 71
     3
 72
     2
 73
     1
 90
        0
 40
-0.6
 41
-30.0
 62
     5
 63
     7
 74
     2
 91
        2
 64
     7
 65
   257
 75
     1
175
     1
 42
40.0
 92
        8
 66
     7
 43
1.0
 76
     1
 77
     6
 78
     2
 67
     7
 79
     3
170
     0
171
     0
290
     0
174
     0
 93
        1
 44
0.0
173
     0
291
     0
 45
0.0
1001
ACAD
1000
AcDbSavedByObjectVersion
1070
     0
  0
VISUALSTYLE
  5
A4
102
{ACAD_XDICTIONARY
360
6C9
102
}
102
{ACAD_REACTORS
330
99
102
}
330
99
100
AcDbVisualStyle
  2

 70
    11
 71
     2
 72
     2
 73
     1
 90
        0
 40
-0.6
 41
-30.0
 62
     5
 63
     7
 74
     1
 91
        4
 64
     7
 65
   257
 75
     1
175
     1
 42
1.0
 92
        8
 66
     7
 43
1.0
 76
     1
 77
     6
 78
     2
 67
     7
 79
     5
170
     0
171
     0
290
     0
174
     0
 93
        1
 44
-50.0
173
     0
291
     1
 45
0.0
1001
ACAD
1000
AcDbSavedByObjectVersion
1070
     0
  0
VISUALSTYLE
  5
175
102
{ACAD_XDICTIONARY
360
6D9
102
}
102
{ACAD_REACTORS
330
99
102
}
330
99
100
AcDbVisualStyle
  2

 70
    22
 71
     2
 72
     2
 73
     0
 90
        0
 40
-0.6
 41
-30.0
 62
     5
 63
     7
 74
     1
 91
        4
 64
     7
 65
   257
 75
     1
175
     1
 42
1.0
 92
        8
 66
     7
 43
1.0
 76
     1
 77
     6
 78
     2
 67
     7
 79
     5
170
     0
171
     0
290
     0
174
     0
 93
        1
 44
0.0
173
     0
291
     1
 45
0.0
1001
ACAD
1000
AcDbSavedByObjectVersion
1070
     0
  0
VISUALSTYLE
  5
A8
102
{ACAD_XDICTIONARY
360
6D1
102
}
102
{ACAD_REACTORS
330
99
102
}
330
99
100
AcDbVisualStyle
  2

 70
    15
 71
     2
 72
     2
 73
     1
 90
        0
 40
-0.6
 41
-30.0
 62
     5
 63
     7
 74
     1
 91
        4
 64
     7
 65
   257
 75
     1
175
     1
 42
1.0
 92
        8
 66
     7
 43
1.0
 76
     1
 77
     6
 78
     2
 67
     7
 79
     5
170
     0
171
     0
290
     0
174
     0
 93
        1
 44
0.0
173
     0
291
     1
 45
0.0
1001
ACAD
1000
AcDbSavedByObjectVersion
1070
     0
  0
VISUALSTYLE
  5
9A
102
{ACAD_XDICTIONARY
360
6B5
102
}
102
{ACAD_REACTORS
330
99
102
}
330
99
100
AcDbVisualStyle
  2

 70
     0
 71
     2
 72
     1
 73
     1
 90
        2
 40
-0.6
 41
30.0
 62
     5
 63
     7
 74
     0
 91
        4
 64
     7
 65
   257
 75
     1
175
     1
 42
1.0
 92
        8
 66
     7
 43
1.0
 76
     1
 77
     6
 78
     2
 67
     7
 79
     5
170
     0
171
     0
290
     0
174
     0
 93
        1
 44
0.0
173
     0
291
     1
 45
0.0
1001
ACAD
1000
AcDbSavedByObjectVersion
1070
     0
  0
VISUALSTYLE
  5
9B
102
{ACAD_XDICTIONARY
360
6B7
102
}
102
{ACAD_REACTORS
330
99
102
}
330
99
100
AcDbVisualStyle
  2

 70
     1
 71
     2
 72
     1
 73
     1
 90
        2
 40
-0.6
 41
30.0
 62
     5
 63
     7
 74
     1
 91
        4
 64
     7
 65
   257
 75
     1
175
     1
 42
1.0
 92
        0
 66
   257
 43
1.0
 76
     1
 77
     6
 78
     2
 67
     7
 79
     5
170
     0
171
     0
290
     0
174
     0
 93
        1
 44
0.0
173
     0
291
     1
 45
0.0
1001
ACAD
1000
AcDbSavedByObjectVersion
1070
     0
  0
VISUALSTYLE
  5
9C
102
{ACAD_XDICTIONARY
360
6B9
102
}
102
{ACAD_REACTORS
330
99
102
}
330
99
100
AcDbVisualStyle
  2

 70
     2
 71
     2
 72
     2
 73
     1
 90
        2
 40
-0.6
 41
30.0
 62
     5
 63
     7
 74
     0
 91
        4
 64
     7
 65
   257
 75
     1
175
     1
 42
1.0
 92
        0
 66
     7
 43
1.0
 76
     1
 77
     6
 78
     2
 67
     7
 79
     5
170
     0
171
     0
290
     0
174
     0
 93
        1
 44
0.0
173
     0
291
     1
 45
0.0
1001
ACAD
1000
AcDbSavedByObjectVersion
1070
     0
  0
VISUALSTYLE
  5
9D
102
{ACAD_XDICTIONARY
360
6BB
102
}
102
{ACAD_REACTORS
330
99
102
}
330
99
100
AcDbVisualStyle
  2

 70
     3
 71
     2
 72
     2
 73
     1
 90
        2
 40
-0.6
 41
30.0
 62
     5
 63
     7
 74
     1
 91
        4
 64
     7
 65
   257
 75
     1
175
     1
 42
1.0
 92
        0
 66
   257
 43
1.0
 76
     1
 77
     6
 78
     2
 67
     7
 79
     5
170
     0
171
     0
290
     0
174
     0
 93
        1
 44
0.0
173
     0
291
     1
 45
0.0
1001
ACAD
1000
AcDbSavedByObjectVersion
1070
     0
  0
VISUALSTYLE
  5
17F
102
{ACAD_XDICTIONARY
360
6DD
102
}
102
{ACAD_REACTORS
330
99
102
}
330
99
100
AcDbVisualStyle
  2

 70
     6
 71
     1
 72
     2
 73
     2
 90
        0
 40
-0.6
 41
-30.0
 62
     5
 63
     7
 74
     2
 91
        2
 64
     7
 65
   257
 75
     2
175
     1
 42
40.0
 92
        0
 66
   257
 43
1.0
 76
     1
 77
     6
 78
     2
 67
     7
 79
     3
170
     0
171
     0
290
     0
174
     0
 93
        1
 44
0.0
173
     0
291
     0
 45
0.0
1001
ACAD
1000
AcDbSavedByObjectVersion
1070
     0
  0
VISUALSTYLE
  5
173
102
{ACAD_XDICTIONARY
360
6D5
102
}
102
{ACAD_REACTORS
330
99
102
}
330
99
100
AcDbVisualStyle
  2

 70
    20
 71
     2
 72
     2
 73
     0
 90
        0
 40
-0.6
 41
-30.0
 62
     5
 63
     7
 74
     1
 91
        4
 64
     7
 65
   257
 75
     1
175
     1
 42
1.0
 92
       10
 66
     7
 43
1.0
 76
     1
 77
     6
 78
     2
 67
     7
 79
     5
170
     0
171
     0
290
     0
174
     0
 93
        1
 44
0.0
173
     0
291
     1
 45
0.0
1001
ACAD
1000
AcDbSavedByObjectVersion
1070
     0
  0
VISUALSTYLE
  5
A7
102
{ACAD_XDICTIONARY
360
6CF
102
}
102
{ACAD_REACTORS
330
99
102
}
330
99
100
AcDbVisualStyle
  2

 70
    14
 71
     2
 72
     2
 73
     1
 90
        0
 40
-0.6
 41
-30.0
 62
     5
 63
     7
 74
     1
 91
        4
 64
     7
 65
   257
 75
     7
175
     7
 42
1.0
 92
        8
 66
     7
 43
1.0
 76
     1
 77
     6
 78
     2
 67
     7
 79
     5
170
     0
171
     0
290
     0
174
     0
 93
        1
 44
0.0
173
     0
291
     1
 45
0.0
1001
ACAD
1000
AcDbSavedByObjectVersion
1070
     0
  0
VISUALSTYLE
  5
174
102
{ACAD_XDICTIONARY
360
6D7
102
}
102
{ACAD_REACTORS
330
99
102
}
330
99
100
AcDbVisualStyle
  2

 70
    21
 71
     2
 72
     2
 73
     0
 90
        0
 40
-0.6
 41
-30.0
 62
     5
 63
     7
 74
     1
 91
        4
 64
     7
 65
   257
 75
     1
175
     1
 42
1.0
 92
        9
 66
     7
 43
1.0
 76
     1
 77
     6
 78
     2
 67
     7
 79
     5
170
     0
171
     0
290
     0
174
     0
 93
        1
 44
0.0
173
     0
291
     1
 45
0.0
1001
ACAD
1000
AcDbSavedByObjectVersion
1070
     0
  0
VISUALSTYLE
  5
A3
102
{ACAD_XDICTIONARY
360
6C7
102
}
102
{ACAD_REACTORS
330
99
102
}
330
99
100
AcDbVisualStyle
  2

 70
     8
 71
     2
 72
     2
 73
     1
 90
        0
 40
-0.6
 41
-30.0
 62
     5
 63
     7
 74
     1
 91
        0
 64
     7
 65
   257
 75
     1
175
     1
 42
1.0
 92
        8
 66
     8
 43
1.0
 76
     1
 77
     6
 78
     2
 67
     7
 79
     5
170
     0
171
     0
290
     0
174
     0
 93
       13
 44
0.0
173
     0
291
     0
 45
0.0
1001
ACAD
1000
AcDbSavedByObjectVersion
1070
     0
  0
VISUALSTYLE
  5
184
102
{ACAD_XDICTIONARY
360
6E7
102
}
102
{ACAD_REACTORS
330
99
102
}
330
99
100
AcDbVisualStyle
  2

 70
    27
 71
     2
 72
     2
 73
     1
 90
        2
 40
-0.6
 41
30.0
 62
     5
 63
     7
 74
     0
 91
        4
 64
     7
 65
   257
 75
     1
175
     1
 42
1.0
 92
        8
 66
   257
 43
1.0
 76
     1
 77
     6
 78
     2
 67
     8
 79
     3
170
     0
171
     0
290
     0
174
     0
 93
        5
 44
0.0
173
     0
291
     0
 45
0.0
1001
ACAD
1000
AcDbSavedByObjectVersion
1070
     0
  0
VISUALSTYLE
  5
183
102
{ACAD_XDICTIONARY
360
6E5
102
}
102
{ACAD_REACTORS
330
99
102
}
330
99
100
AcDbVisualStyle
  2

 70
    26
 71
     2
 72
     2
 73
     1
 90
        2
 40
-0.6
 41
30.0
 62
     5
 63
     7
 74
     1
 91
       10
 64
     7
 65
   257
 75
     2
175
     1
 42
1.0
 92
        8
 66
   257
 43
1.0
 76
     1
 77
     6
 78
     2
 67
     7
 79
     3
170
     0
171
     0
290
     0
174
     0
 93
        5
 44
0.0
173
     0
291
     0
 45
0.0
1001
ACAD
1000
AcDbSavedByObjectVersion
1070
     0
  0
VISUALSTYLE
  5
180
102
{ACAD_XDICTIONARY
360
6DF
102
}
102
{ACAD_REACTORS
330
99
102
}
330
99
100
AcDbVisualStyle
  2

 70
    23
 71
     2
 72
     2
 73
     3
 90
        0
 40
-0.6
 41
-30.0
 62
     5
 63
     7
 74
     2
 91
        2
 64
     7
 65
     7
 75
     1
175
     1
 42
40.0
 92
        8
 66
     7
 43
1.0
 76
     1
 77
     6
 78
     2
 67
     7
 79
     3
170
     0
171
     0
290
     0
174
     0
 93
        1
 44
0.0
173
     0
291
     0
 45
0.0
1001
ACAD
1000
AcDbSavedByObjectVersion
1070
     0
  0
VISUALSTYLE
  5
181
102
{ACAD_XDICTIONARY
360
6E1
102
}
102
{ACAD_REACTORS
330
99
102
}
330
99
100
AcDbVisualStyle
  2

 70
    24
 71
     1
 72
     2
 73
     2
 90
        0
 40
-0.6
 41
-30.0
 62
     5
 63
     7
 74
     2
 91
        2
 64
     7
 65
     7
 75
     1
175
     1
 42
40.0
 92
       11
 66
     7
 43
1.0
 76
     1
 77
     6
 78
     2
 67
     7
 79
     6
170
     0
171
     0
290
     0
174
     0
 93
        1
 44
0.0
173
     0
291
     0
 45
0.0
1001
ACAD
1000
AcDbSavedByObjectVersion
1070
     0
  0
VISUALSTYLE
  5
A6
102
{ACAD_XDICTIONARY
360
6CD
102
}
102
{ACAD_REACTORS
330
99
102
}
330
99
100
AcDbVisualStyle
  2

 70
    13
 71
     2
 72
     2
 73
     1
 90
        0
 40
-0.6
 41
-30.0
 62
     5
 63
     7
 74
     1
 91
        4
 64
     7
 65
   257
 75
     1
175
     1
 42
1.0
 92
       12
 66
     7
 43
1.0
 76
     1
 77
     6
 78
     2
 67
     7
 79
     5
170
     0
171
     0
290
     0
174
     0
 93
        1
 44
0.0
173
     0
291
     1
 45
0.0
1001
ACAD
1000
AcDbSavedByObjectVersion
1070
     0
  0
VISUALSTYLE
  5
17E
102
{ACAD_XDICTIONARY
360
6DB
102
}
102
{ACAD_REACTORS
330
99
102
}
330
99
100
AcDbVisualStyle
  2

 70
     5
 71
     0
 72
     2
 73
     0
 90
        0
 40
-0.6
 41
-30.0
 62
     5
 63
     7
 74
     1
 91
        4
 64
     7
 65
   257
 75
     1
175
     1
 42
1.0
 92
        0
 66
   257
 43
1.0
 76
     1
 77
     6
 78
     2
 67
     7
 79
     3
170
     0
171
     0
290
     0
174
     0
 93
        1
 44
0.0
173
     0
291
     0
 45
0.0
1001
ACAD
1000
AcDbSavedByObjectVersion
1070
     0
  0
VISUALSTYLE
  5
182
102
{ACAD_XDICTIONARY
360
6E3
102
}
102
{ACAD_REACTORS
330
99
102
}
330
99
100
AcDbVisualStyle
  2

 70
    25
 71
     2
 72
     2
 73
     1
 90
        1
 40
0.5
 41
-30.0
 62
     5
 63
     7
 74
     1
 91
        0
 64
     7
 65
   257
 75
     1
175
     1
 42
1.0
 92
        8
 66
     7
 43
1.0
 76
     1
 77
     6
 78
     2
 67
     7
 79
     3
170
     0
171
     0
290
     0
174
     0
 93
       13
 44
0.0
173
     0
291
     0
 45
0.0
1001
ACAD
1000
AcDbSavedByObjectVersion
1070
     0
  0
DICTIONARYVAR
  5
F0
102
{ACAD_REACTORS
330
66
102
}
330
66
100
DictionaryVariables
280
     0
  1
1:1
  0
DICTIONARYVAR
  5
EF
102
{ACAD_REACTORS
330
66
102
}
330
66
100
DictionaryVariables
280
     0
  1
STANDARD
  0
DICTIONARYVAR
  5
89
102
{ACAD_REACTORS
330
66
102
}
330
66
100
DictionaryVariables
280
     0
  1
STANDARD
  0
DICTIONARYVAR
  5
67
102
{ACAD_REACTORS
330
66
102
}
330
66
100
DictionaryVariables
280
     0
  1
2
  0
DICTIONARYVAR
  5
6B
102
{ACAD_REACTORS
330
66
102
}
330
66
100
DictionaryVariables
280
     0
  1
1
  0
DICTIONARYVAR
  5
39E
102
{ACAD_REACTORS
330
66
102
}
330
66
100
DictionaryVariables
280
     0
  1
0
  0
DICTIONARYVAR
  5
14D
102
{ACAD_REACTORS
330
66
102
}
330
66
100
DictionaryVariables
280
     0
  1
0
  0
DICTIONARYVAR
  5
14E
102
{ACAD_REACTORS
330
66
102
}
330
66
100
DictionaryVariables
280
     0
  1
0
  0
DICTIONARYVAR
  5
39C
102
{ACAD_REACTORS
330
66
102
}
330
66
100
DictionaryVariables
280
     0
  1
2
  0
DICTIONARYVAR
  5
39B
102
{ACAD_REACTORS
330
66
102
}
330
66
100
DictionaryVariables
280
     0
  1
1
  0
DICTIONARYVAR
  5
39F
102
{ACAD_REACTORS
330
66
102
}
330
66
100
DictionaryVariables
280
     0
  1
1
  0
DICTIONARYVAR
  5
39D
102
{ACAD_REACTORS
330
66
102
}
330
66
100
DictionaryVariables
280
     0
  1
127
  0
DICTIONARYVAR
  5
6A6
102
{ACAD_REACTORS
330
66
102
}
330
66
100
DictionaryVariables
280
     0
  1
2
  0
DICTIONARY
  5
6B0
330
59
100
AcDbDictionary
280
     1
281
     1
  3
ACAD_XREC_ROUNDTRIP
360
6B1
  0
DICTIONARY
  5
6B2
330
5E
100
AcDbDictionary
280
     1
281
     1
  3
ACAD_XREC_ROUNDTRIP
360
6B3
  0
DICTIONARY
  5
6AE
330
22
100
AcDbDictionary
280
     1
281
     1
  3
ACAD_XREC_ROUNDTRIP
360
6AF
  0
DICTIONARY
  5
3B2
330
97
100
AcDbDictionary
280
     1
281
     1
  3
ACAD_XREC_ROUNDTRIP
360
3B3
  0
DICTIONARY
  5
3B0
330
96
100
AcDbDictionary
280
     1
281
     1
  3
ACAD_XREC_ROUNDTRIP
360
3B1
  0
DICTIONARY
  5
110
330
98
100
AcDbDictionary
280
     1
281
     1
  3
ACAD_XREC_ROUNDTRIP
360
3B4
  3
BUMPTILE
360
112
  3
DIFFUSETILE
360
111
  3
OPACITYTILE
360
113
  3
REFLECTIONTILE
360
114
  0
DICTIONARY
  5
6AA
330
E5
100
AcDbDictionary
280
     1
281
     1
  3
ACAD_XREC_ROUNDTRIP
360
6AB
  0
DICTIONARY
  5
6A8
330
D8
100
AcDbDictionary
280
     1
281
     1
  3
ACAD_XREC_ROUNDTRIP
360
6A9
  0
DICTIONARY
  5
104
330
87
100
AcDbDictionary
280
     1
281
     1
  3
ACAD_ROUNDTRIP_2008_TABLESTYLE_CELLSTYLEMAP
360
6A7
  3
ACAD_XREC_ROUNDTRIP
360
6B4
  0
DICTIONARY
  5
6BF
330
9F
100
AcDbDictionary
280
     1
281
     1
  3
ACAD_XREC_ROUNDTRIP
360
6C0
  0
DICTIONARY
  5
6C3
330
A1
100
AcDbDictionary
280
     1
281
     1
  3
ACAD_XREC_ROUNDTRIP
360
6C4
  0
DICTIONARY
  5
6C1
330
A0
100
AcDbDictionary
280
     1
281
     1
  3
ACAD_XREC_ROUNDTRIP
360
6C2
  0
DICTIONARY
  5
6BD
330
9E
100
AcDbDictionary
280
     1
281
     1
  3
ACAD_XREC_ROUNDTRIP
360
6BE
  0
DICTIONARY
  5
6CB
330
A5
100
AcDbDictionary
280
     1
281
     1
  3
ACAD_XREC_ROUNDTRIP
360
6CC
  0
DICTIONARY
  5
6D3
330
A9
100
AcDbDictionary
280
     1
281
     1
  3
ACAD_XREC_ROUNDTRIP
360
6D4
  0
DICTIONARY
  5
6C5
330
A2
100
AcDbDictionary
280
     1
281
     1
  3
ACAD_XREC_ROUNDTRIP
360
6C6
  0
DICTIONARY
  5
6C9
330
A4
100
AcDbDictionary
280
     1
281
     1
  3
ACAD_XREC_ROUNDTRIP
360
6CA
  0
DICTIONARY
  5
6D9
330
175
100
AcDbDictionary
280
     1
281
     1
  3
ACAD_XREC_ROUNDTRIP
360
6DA
  0
DICTIONARY
  5
6D1
330
A8
100
AcDbDictionary
280
     1
281
     1
  3
ACAD_XREC_ROUNDTRIP
360
6D2
  0
DICTIONARY
  5
6B5
330
9A
100
AcDbDictionary
280
     1
281
     1
  3
ACAD_XREC_ROUNDTRIP
360
6B6
  0
DICTIONARY
  5
6B7
330
9B
100
AcDbDictionary
280
     1
281
     1
  3
ACAD_XREC_ROUNDTRIP
360
6B8
  0
DICTIONARY
  5
6B9
330
9C
100
AcDbDictionary
280
     1
281
     1
  3
ACAD_XREC_ROUNDTRIP
360
6BA
  0
DICTIONARY
  5
6BB
330
9D
100
AcDbDictionary
280
     1
281
     1
  3
ACAD_XREC_ROUNDTRIP
360
6BC
  0
DICTIONARY
  5
6DD
330
17F
100
AcDbDictionary
280
     1
281
     1
  3
ACAD_XREC_ROUNDTRIP
360
6DE
  0
DICTIONARY
  5
6D5
330
173
100
AcDbDictionary
280
     1
281
     1
  3
ACAD_XREC_ROUNDTRIP
360
6D6
  0
DICTIONARY
  5
6CF
330
A7
100
AcDbDictionary
280
     1
281
     1
  3
ACAD_XREC_ROUNDTRIP
360
6D0
  0
DICTIONARY
  5
6D7
330
174
100
AcDbDictionary
280
     1
281
     1
  3
ACAD_XREC_ROUNDTRIP
360
6D8
  0
DICTIONARY
  5
6C7
330
A3
100
AcDbDictionary
280
     1
281
     1
  3
ACAD_XREC_ROUNDTRIP
360
6C8
  0
DICTIONARY
  5
6E7
330
184
100
AcDbDictionary
280
     1
281
     1
  3
ACAD_XREC_ROUNDTRIP
360
6E8
  0
DICTIONARY
  5
6E5
330
183
100
AcDbDictionary
280
     1
281
     1
  3
ACAD_XREC_ROUNDTRIP
360
6E6
  0
DICTIONARY
  5
6DF
330
180
100
AcDbDictionary
280
     1
281
     1
  3
ACAD_XREC_ROUNDTRIP
360
6E0
  0
DICTIONARY
  5
6E1
330
181
100
AcDbDictionary
280
     1
281
     1
  3
ACAD_XREC_ROUNDTRIP
360
6E2
  0
DICTIONARY
  5
6CD
330
A6
100
AcDbDictionary
280
     1
281
     1
  3
ACAD_XREC_ROUNDTRIP
360
6CE
  0
DICTIONARY
  5
6DB
330
17E
100
AcDbDictionary
280
     1
281
     1
  3
ACAD_XREC_ROUNDTRIP
360
6DC
  0
DICTIONARY
  5
6E3
330
182
100
AcDbDictionary
280
     1
281
     1
  3
ACAD_XREC_ROUNDTRIP
360
6E4
  0
XRECORD
  5
6B1
102
{ACAD_REACTORS
330
6B0
102
}
330
6B0
100
AcDbXrecord
280
     1
102
SHADEPLOT
 70
     0
102
SHADEPLOTRESLEVEL
 70
     2
102
SHADEPLOTCUSTOMDPI
 70
   300
  0
XRECORD
  5
6B3
102
{ACAD_REACTORS
330
6B2
102
}
330
6B2
100
AcDbXrecord
280
     1
102
SHADEPLOT
 70
     0
102
SHADEPLOTRESLEVEL
 70
     2
102
SHADEPLOTCUSTOMDPI
 70
   300
  0
XRECORD
  5
6AF
102
{ACAD_REACTORS
330
6AE
102
}
330
6AE
100
AcDbXrecord
280
     1
102
SHADEPLOT
 70
     0
102
SHADEPLOTRESLEVEL
 70
     2
102
SHADEPLOTCUSTOMDPI
 70
   300
  0
XRECORD
  5
3B3
102
{ACAD_REACTORS
330
3B2
102
}
330
3B2
100
AcDbXrecord
280
     1
102
MATERIAL
148
0.0
149
0.0
149
0.0
 93
        0
 94
      127
282
     0
 72
     1
 77
     1
171
     1
175
     1
179
     1
273
     0
  0
XRECORD
  5
3B1
102
{ACAD_REACTORS
330
3B0
102
}
330
3B0
100
AcDbXrecord
280
     1
102
MATERIAL
148
0.0
149
0.0
149
0.0
 93
        0
 94
      127
282
     0
 72
     1
 77
     1
171
     1
175
     1
179
     1
273
     0
  0
XRECORD
  5
3B4
102
{ACAD_REACTORS
330
110
102
}
330
110
100
AcDbXrecord
280
     1
102
MATERIAL
148
0.0
149
0.0
149
0.0
 93
        0
 94
      127
282
     0
 72
     1
 77
     1
171
     1
175
     1
179
     1
273
     0
  0
XRECORD
  5
112
102
{ACAD_REACTORS
330
110
102
}
330
110
100
AcDbXrecord
280
     1
270
     1
271
     1
  0
XRECORD
  5
111
102
{ACAD_REACTORS
330
110
102
}
330
110
100
AcDbXrecord
280
     1
270
     1
271
     1
  0
XRECORD
  5
113
102
{ACAD_REACTORS
330
110
102
}
330
110
100
AcDbXrecord
280
     1
270
     1
271
     1
  0
XRECORD
  5
114
102
{ACAD_REACTORS
330
110
102
}
330
110
100
AcDbXrecord
280
     1
270
     1
271
     1
  0
XRECORD
  5
6AB
102
{ACAD_REACTORS
330
6AA
102
}
330
6AA
100
AcDbXrecord
280
     1
102
ACAD_ROUNDTRIP_2012_MLEADER_STYLE
298
     1
  0
XRECORD
  5
6A9
102
{ACAD_REACTORS
330
6A8
102
}
330
6A8
100
AcDbXrecord
280
     1
102
ACAD_ROUNDTRIP_2012_MLEADER_STYLE
298
     1
  0
CELLSTYLEMAP
  5
6A7
102
{ACAD_REACTORS
330
104
102
}
330
104
100
AcDbCellStyleMap
 90
        3
300
CELLSTYLE
  1
TABLEFORMAT_BEGIN
 90
        5
170
     1
 91
        0
 92
    32768
 62
   257
 93
        1
300
CONTENTFORMAT
  1
CONTENTFORMAT_BEGIN
 90
        0
 91
        0
 92
      512
 93
        0
300

 40
0.0
140
1.0
 94
        5
 62
     0
340
11
144
0.25
309
CONTENTFORMAT_END
171
     1
301
MARGIN
  1
CELLMARGIN_BEGIN
 40
0.06
 40
0.06
 40
0.06
 40
0.06
 40
0.18
 40
0.18
309
CELLMARGIN_END
 94
        6
 95
        1
302
GRIDFORMAT
  1
GRIDFORMAT_BEGIN
 90
        0
 91
        1
 62
     0
 92
       -2
340
0
 93
        0
 40
0.045
309
GRIDFORMAT_END
 95
        2
302
GRIDFORMAT
  1
GRIDFORMAT_BEGIN
 90
        0
 91
        1
 62
     0
 92
       -2
340
0
 93
        0
 40
0.045
309
GRIDFORMAT_END
 95
        4
302
GRIDFORMAT
  1
GRIDFORMAT_BEGIN
 90
        0
 91
        1
 62
     0
 92
       -2
340
0
 93
        0
 40
0.045
309
GRIDFORMAT_END
 95
        8
302
GRIDFORMAT
  1
GRIDFORMAT_BEGIN
 90
        0
 91
        1
 62
     0
 92
       -2
340
0
 93
        0
 40
0.045
309
GRIDFORMAT_END
 95
       16
302
GRIDFORMAT
  1
GRIDFORMAT_BEGIN
 90
        0
 91
        1
 62
     0
 92
       -2
340
0
 93
        0
 40
0.045
309
GRIDFORMAT_END
 95
       32
302
GRIDFORMAT
  1
GRIDFORMAT_BEGIN
 90
        0
 91
        1
 62
     0
 92
       -2
340
0
 93
        0
 40
0.045
309
GRIDFORMAT_END
309
TABLEFORMAT_END
  1
CELLSTYLE_BEGIN
 90
        1
 91
        1
300
_TITLE
309
CELLSTYLE_END
300
CELLSTYLE
  1
TABLEFORMAT_BEGIN
 90
        5
170
     1
 91
        0
 92
        0
 62
   257
 93
        1
300
CONTENTFORMAT
  1
CONTENTFORMAT_BEGIN
 90
        0
 91
        0
 92
      512
 93
        0
300

 40
0.0
140
1.0
 94
        5
 62
     0
340
11
144
0.18
309
CONTENTFORMAT_END
171
     1
301
MARGIN
  1
CELLMARGIN_BEGIN
 40
0.06
 40
0.06
 40
0.06
 40
0.06
 40
0.18
 40
0.18
309
CELLMARGIN_END
 94
        6
 95
        1
302
GRIDFORMAT
  1
GRIDFORMAT_BEGIN
 90
        0
 91
        1
 62
     0
 92
       -2
340
0
 93
        0
 40
0.045
309
GRIDFORMAT_END
 95
        2
302
GRIDFORMAT
  1
GRIDFORMAT_BEGIN
 90
        0
 91
        1
 62
     0
 92
       -2
340
0
 93
        0
 40
0.045
309
GRIDFORMAT_END
 95
        4
302
GRIDFORMAT
  1
GRIDFORMAT_BEGIN
 90
        0
 91
        1
 62
     0
 92
       -2
340
0
 93
        0
 40
0.045
309
GRIDFORMAT_END
 95
        8
302
GRIDFORMAT
  1
GRIDFORMAT_BEGIN
 90
        0
 91
        1
 62
     0
 92
       -2
340
0
 93
        0
 40
0.045
309
GRIDFORMAT_END
 95
       16
302
GRIDFORMAT
  1
GRIDFORMAT_BEGIN
 90
        0
 91
        1
 62
     0
 92
       -2
340
0
 93
        0
 40
0.045
309
GRIDFORMAT_END
 95
       32
302
GRIDFORMAT
  1
GRIDFORMAT_BEGIN
 90
        0
 91
        1
 62
     0
 92
       -2
340
0
 93
        0
 40
0.045
309
GRIDFORMAT_END
309
TABLEFORMAT_END
  1
CELLSTYLE_BEGIN
 90
        2
 91
        1
300
_HEADER
309
CELLSTYLE_END
300
CELLSTYLE
  1
TABLEFORMAT_BEGIN
 90
        5
170
     1
 91
        0
 92
        0
 62
   257
 93
        1
300
CONTENTFORMAT
  1
CONTENTFORMAT_BEGIN
 90
        0
 91
        0
 92
      512
 93
        0
300

 40
0.0
140
1.0
 94
        2
 62
     0
340
11
144
0.18
309
CONTENTFORMAT_END
171
     1
301
MARGIN
  1
CELLMARGIN_BEGIN
 40
0.06
 40
0.06
 40
0.06
 40
0.06
 40
0.18
 40
0.18
309
CELLMARGIN_END
 94
        6
 95
        1
302
GRIDFORMAT
  1
GRIDFORMAT_BEGIN
 90
        0
 91
        1
 62
     0
 92
       -2
340
0
 93
        0
 40
0.045
309
GRIDFORMAT_END
 95
        2
302
GRIDFORMAT
  1
GRIDFORMAT_BEGIN
 90
        0
 91
        1
 62
     0
 92
       -2
340
0
 93
        0
 40
0.045
309
GRIDFORMAT_END
 95
        4
302
GRIDFORMAT
  1
GRIDFORMAT_BEGIN
 90
        0
 91
        1
 62
     0
 92
       -2
340
0
 93
        0
 40
0.045
309
GRIDFORMAT_END
 95
        8
302
GRIDFORMAT
  1
GRIDFORMAT_BEGIN
 90
        0
 91
        1
 62
     0
 92
       -2
340
0
 93
        0
 40
0.045
309
GRIDFORMAT_END
 95
       16
302
GRIDFORMAT
  1
GRIDFORMAT_BEGIN
 90
        0
 91
        1
 62
     0
 92
       -2
340
0
 93
        0
 40
0.045
309
GRIDFORMAT_END
 95
       32
302
GRIDFORMAT
  1
GRIDFORMAT_BEGIN
 90
        0
 91
        1
 62
     0
 92
       -2
340
0
 93
        0
 40
0.045
309
GRIDFORMAT_END
309
TABLEFORMAT_END
  1
CELLSTYLE_BEGIN
 90
        3
 91
        2
300
_DATA
309
CELLSTYLE_END
  0
XRECORD
  5
6B4
102
{ACAD_REACTORS
330
104
102
}
330
104
100
AcDbXrecord
280
     1
102
ACAD_ROUNDTRIP_PRE2007_TABLESTYLE
 90
      512
 91
        0
  1

 92
      512
 93
        0
  2

 94
      512
 95
        0
  3

  0
XRECORD
  5
6C0
102
{ACAD_REACTORS
330
6BF
102
}
330
6BF
100
AcDbXrecord
280
     1
102
RTVSPropertyOp0
 70
     1
102
RTVSPropertyOp1
 70
     1
102
RTVSPropertyOp2
 70
     1
102
RTVSPropertyOp3
 70
     1
102
RTVSPropertyOp4
 70
     1
102
RTVSPropertyOp5
 70
     1
102
RTVSPropertyOp6
 70
     1
102
RTVSPropertyOp7
 70
     1
102
RTVSPropertyOp8
 70
     1
102
RTVSPropertyOp9
 70
     1
102
RTVSPropertyOp10
 70
     1
102
RTVSPropertyOp11
 70
     1
102
RTVSPropertyOp12
 70
     1
102
RTVSPropertyOp13
 70
     1
102
RTVSPropertyOp14
 70
     1
102
RTVSPropertyOp15
 70
     1
102
RTVSPropertyOp16
 70
     1
102
RTVSPropertyOp17
 70
     1
102
RTVSPropertyOp18
 70
     1
102
RTVSPropertyOp19
 70
     1
102
RTVSPropertyOp20
 70
     1
102
RTVSPropertyOp21
 70
     1
102
RTVSPropertyOp22
 70
     1
102
RTVSPropertyOp23
 70
     1
102
RTVSPropertyOp24
 70
     1
102
RTVSPropertyOp25
 70
     1
102
RTVSPropertyOp26
 70
     1
102
RTVSPropertyOp27
 70
     1
102
RTVSPropertyOp28
 70
     1
102
RTVSPropertyOp29
 70
     1
102
RTVSPropertyOp30
 70
     1
102
RTVSPropertyOp31
 70
     1
102
RTVSPropertyOp32
 70
     1
  0
XRECORD
  5
6C4
102
{ACAD_REACTORS
330
6C3
102
}
330
6C3
100
AcDbXrecord
280
     1
102
RTVSPropertyOp0
 70
     1
102
RTVSPropertyOp1
 70
     1
102
RTVSPropertyOp2
 70
     1
102
RTVSPropertyOp3
 70
     1
102
RTVSPropertyOp4
 70
     1
102
RTVSPropertyOp5
 70
     1
102
RTVSPropertyOp6
 70
     1
102
RTVSPropertyOp7
 70
     1
102
RTVSPropertyOp8
 70
     1
102
RTVSPropertyOp9
 70
     1
102
RTVSPropertyOp10
 70
     1
102
RTVSPropertyOp11
 70
     1
102
RTVSPropertyOp12
 70
     1
102
RTVSPropertyOp13
 70
     1
102
RTVSPropertyOp14
 70
     1
102
RTVSPropertyOp15
 70
     1
102
RTVSPropertyOp16
 70
     1
102
RTVSPropertyOp17
 70
     1
102
RTVSPropertyOp18
 70
     1
102
RTVSPropertyOp19
 70
     1
102
RTVSPropertyOp20
 70
     1
102
RTVSPropertyOp21
 70
     1
102
RTVSPropertyOp22
 70
     1
102
RTVSPropertyOp23
 70
     1
102
RTVSPropertyOp24
 70
     1
102
RTVSPropertyOp25
 70
     1
102
RTVSPropertyOp26
 70
     1
102
RTVSPropertyOp27
 70
     1
102
RTVSPropertyOp28
 70
     1
102
RTVSPropertyOp29
 70
     1
102
RTVSPropertyOp30
 70
     1
102
RTVSPropertyOp31
 70
     1
102
RTVSPropertyOp32
 70
     1
  0
XRECORD
  5
6C2
102
{ACAD_REACTORS
330
6C1
102
}
330
6C1
100
AcDbXrecord
280
     1
102
RTVSPropertyOp0
 70
     1
102
RTVSPropertyOp1
 70
     1
102
RTVSPropertyOp2
 70
     1
102
RTVSPropertyOp3
 70
     1
102
RTVSPropertyOp4
 70
     1
102
RTVSPropertyOp5
 70
     1
102
RTVSPropertyOp6
 70
     1
102
RTVSPropertyOp7
 70
     1
102
RTVSPropertyOp8
 70
     1
102
RTVSPropertyOp9
 70
     1
102
RTVSPropertyOp10
 70
     1
102
RTVSPropertyOp11
 70
     1
102
RTVSPropertyOp12
 70
     1
102
RTVSPropertyOp13
 70
     1
102
RTVSPropertyOp14
 70
     1
102
RTVSPropertyOp15
 70
     1
102
RTVSPropertyOp16
 70
     1
102
RTVSPropertyOp17
 70
     1
102
RTVSPropertyOp18
 70
     1
102
RTVSPropertyOp19
 70
     1
102
RTVSPropertyOp20
 70
     1
102
RTVSPropertyOp21
 70
     1
102
RTVSPropertyOp22
 70
     1
102
RTVSPropertyOp23
 70
     1
102
RTVSPropertyOp24
 70
     1
102
RTVSPropertyOp25
 70
     1
102
RTVSPropertyOp26
 70
     1
102
RTVSPropertyOp27
 70
     1
102
RTVSPropertyOp28
 70
     1
102
RTVSPropertyOp29
 70
     1
102
RTVSPropertyOp30
 70
     1
102
RTVSPropertyOp31
 70
     1
102
RTVSPropertyOp32
 70
     1
  0
XRECORD
  5
6BE
102
{ACAD_REACTORS
330
6BD
102
}
330
6BD
100
AcDbXrecord
280
     1
102
RTVSPropertyOp0
 70
     1
102
RTVSPropertyOp1
 70
     1
102
RTVSPropertyOp2
 70
     1
102
RTVSPropertyOp3
 70
     1
102
RTVSPropertyOp4
 70
     1
102
RTVSPropertyOp5
 70
     1
102
RTVSPropertyOp6
 70
     1
102
RTVSPropertyOp7
 70
     1
102
RTVSPropertyOp8
 70
     1
102
RTVSPropertyOp9
 70
     1
102
RTVSPropertyOp10
 70
     1
102
RTVSPropertyOp11
 70
     1
102
RTVSPropertyOp12
 70
     1
102
RTVSPropertyOp13
 70
     1
102
RTVSPropertyOp14
 70
     1
102
RTVSPropertyOp15
 70
     1
102
RTVSPropertyOp16
 70
     1
102
RTVSPropertyOp17
 70
     1
102
RTVSPropertyOp18
 70
     1
102
RTVSPropertyOp19
 70
     1
102
RTVSPropertyOp20
 70
     1
102
RTVSPropertyOp21
 70
     1
102
RTVSPropertyOp22
 70
     1
102
RTVSPropertyOp23
 70
     1
102
RTVSPropertyOp24
 70
     1
102
RTVSPropertyOp25
 70
     1
102
RTVSPropertyOp26
 70
     1
102
RTVSPropertyOp27
 70
     1
102
RTVSPropertyOp28
 70
     1
102
RTVSPropertyOp29
 70
     1
102
RTVSPropertyOp30
 70
     1
102
RTVSPropertyOp31
 70
     1
102
RTVSPropertyOp32
 70
     1
  0
XRECORD
  5
6CC
102
{ACAD_REACTORS
330
6CB
102
}
330
6CB
100
AcDbXrecord
280
     1
102
RTVSPropertyOp0
 70
     1
102
RTVSPropertyOp1
 70
     1
102
RTVSPropertyOp2
 70
     1
102
RTVSPropertyOp3
 70
     1
102
RTVSPropertyOp4
 70
     1
102
RTVSPropertyOp5
 70
     1
102
RTVSPropertyOp6
 70
     1
102
RTVSPropertyOp7
 70
     1
102
RTVSPropertyOp8
 70
     1
102
RTVSPropertyOp9
 70
     1
102
RTVSPropertyOp10
 70
     1
102
RTVSPropertyOp11
 70
     1
102
RTVSPropertyOp12
 70
     1
102
RTVSPropertyOp13
 70
     1
102
RTVSPropertyOp14
 70
     1
102
RTVSPropertyOp15
 70
     1
102
RTVSPropertyOp16
 70
     1
102
RTVSPropertyOp17
 70
     1
102
RTVSPropertyOp18
 70
     1
102
RTVSPropertyOp19
 70
     1
102
RTVSPropertyOp20
 70
     1
102
RTVSPropertyOp21
 70
     1
102
RTVSPropertyOp22
 70
     1
102
RTVSPropertyOp23
 70
     1
102
RTVSPropertyOp24
 70
     1
102
RTVSPropertyOp25
 70
     1
102
RTVSPropertyOp26
 70
     1
102
RTVSPropertyOp27
 70
     1
102
RTVSPropertyOp28
 70
     1
102
RTVSPropertyOp29
 70
     1
102
RTVSPropertyOp30
 70
     1
102
RTVSPropertyOp31
 70
     1
102
RTVSPropertyOp32
 70
     1
  0
XRECORD
  5
6D4
102
{ACAD_REACTORS
330
6D3
102
}
330
6D3
100
AcDbXrecord
280
     1
102
RTVSPropertyOp0
 70
     1
102
RTVSPropertyOp1
 70
     1
102
RTVSPropertyOp2
 70
     1
102
RTVSPropertyOp3
 70
     1
102
RTVSPropertyOp4
 70
     1
102
RTVSPropertyOp5
 70
     1
102
RTVSPropertyOp6
 70
     1
102
RTVSPropertyOp7
 70
     1
102
RTVSPropertyOp8
 70
     1
102
RTVSPropertyOp9
 70
     1
102
RTVSPropertyOp10
 70
     1
102
RTVSPropertyOp11
 70
     1
102
RTVSPropertyOp12
 70
     1
102
RTVSPropertyOp13
 70
     1
102
RTVSPropertyOp14
 70
     1
102
RTVSPropertyOp15
 70
     1
102
RTVSPropertyOp16
 70
     1
102
RTVSPropertyOp17
 70
     1
102
RTVSPropertyOp18
 70
     1
102
RTVSPropertyOp19
 70
     1
102
RTVSPropertyOp20
 70
     1
102
RTVSPropertyOp21
 70
     1
102
RTVSPropertyOp22
 70
     1
102
RTVSPropertyOp23
 70
     1
102
RTVSPropertyOp24
 70
     1
102
RTVSPropertyOp25
 70
     1
102
RTVSPropertyOp26
 70
     1
102
RTVSPropertyOp27
 70
     1
102
RTVSPropertyOp28
 70
     1
102
RTVSPropertyOp29
 70
     1
102
RTVSPropertyOp30
 70
     1
102
RTVSPropertyOp31
 70
     1
102
RTVSPropertyOp32
 70
     1
  0
XRECORD
  5
6C6
102
{ACAD_REACTORS
330
6C5
102
}
330
6C5
100
AcDbXrecord
280
     1
102
RTVSPropertyOp0
 70
     1
102
RTVSPropertyOp1
 70
     1
102
RTVSPropertyOp2
 70
     1
102
RTVSPropertyOp3
 70
     1
102
RTVSPropertyOp4
 70
     1
102
RTVSPropertyOp5
 70
     1
102
RTVSPropertyOp6
 70
     1
102
RTVSPropertyOp7
 70
     1
102
RTVSPropertyOp8
 70
     1
102
RTVSPropertyOp9
 70
     1
102
RTVSPropertyOp10
 70
     1
102
RTVSPropertyOp11
 70
     1
102
RTVSPropertyOp12
 70
     1
102
RTVSPropertyOp13
 70
     1
102
RTVSPropertyOp14
 70
     1
102
RTVSPropertyOp15
 70
     1
102
RTVSPropertyOp16
 70
     1
102
RTVSPropertyOp17
 70
     1
102
RTVSPropertyOp18
 70
     1
102
RTVSPropertyOp19
 70
     1
102
RTVSPropertyOp20
 70
     1
102
RTVSPropertyOp21
 70
     1
102
RTVSPropertyOp22
 70
     1
102
RTVSPropertyOp23
 70
     1
102
RTVSPropertyOp24
 70
     1
102
RTVSPropertyOp25
 70
     1
102
RTVSPropertyOp26
 70
     1
102
RTVSPropertyOp27
 70
     1
102
RTVSPropertyOp28
 70
     1
102
RTVSPropertyOp29
 70
     1
102
RTVSPropertyOp30
 70
     1
102
RTVSPropertyOp31
 70
     1
102
RTVSPropertyOp32
 70
     1
  0
XRECORD
  5
6CA
102
{ACAD_REACTORS
330
6C9
102
}
330
6C9
100
AcDbXrecord
280
     1
102
RTVSPropertyOp0
 70
     1
102
RTVSPropertyOp1
 70
     1
102
RTVSPropertyOp2
 70
     1
102
RTVSPropertyOp3
 70
     1
102
RTVSPropertyOp4
 70
     1
102
RTVSPropertyOp5
 70
     1
102
RTVSPropertyOp6
 70
     1
102
RTVSPropertyOp7
 70
     1
102
RTVSPropertyOp8
 70
     1
102
RTVSPropertyOp9
 70
     1
102
RTVSPropertyOp10
 70
     1
102
RTVSPropertyOp11
 70
     1
102
RTVSPropertyOp12
 70
     1
102
RTVSPropertyOp13
 70
     1
102
RTVSPropertyOp14
 70
     1
102
RTVSPropertyOp15
 70
     1
102
RTVSPropertyOp16
 70
     1
102
RTVSPropertyOp17
 70
     1
102
RTVSPropertyOp18
 70
     1
102
RTVSPropertyOp19
 70
     1
102
RTVSPropertyOp20
 70
     1
102
RTVSPropertyOp21
 70
     1
102
RTVSPropertyOp22
 70
     1
102
RTVSPropertyOp23
 70
     1
102
RTVSPropertyOp24
 70
     1
102
RTVSPropertyOp25
 70
     1
102
RTVSPropertyOp26
 70
     1
102
RTVSPropertyOp27
 70
     1
102
RTVSPropertyOp28
 70
     1
102
RTVSPropertyOp29
 70
     1
102
RTVSPropertyOp30
 70
     1
102
RTVSPropertyOp31
 70
     1
102
RTVSPropertyOp32
 70
     1
  0
XRECORD
  5
6DA
102
{ACAD_REACTORS
330
6D9
102
}
330
6D9
100
AcDbXrecord
280
     1
102
RTVSPropertyOp0
 70
     0
102
RTVSPropertyOp1
 70
     0
102
RTVSPropertyOp2
 70
     0
102
RTVSPropertyOp3
 70
     0
102
RTVSPropertyOp4
 70
     0
102
RTVSPropertyOp5
 70
     0
102
RTVSPropertyOp6
 70
     0
102
RTVSPropertyOp7
 70
     0
102
RTVSPropertyOp8
 70
     0
102
RTVSPropertyOp9
 70
     0
102
RTVSPropertyOp10
 70
     0
102
RTVSPropertyOp11
 70
     0
102
RTVSPropertyOp12
 70
     0
102
RTVSPropertyOp13
 70
     0
102
RTVSPropertyOp14
 70
     2
102
RTVSPropertyOp15
 70
     0
102
RTVSPropertyOp16
 70
     0
102
RTVSPropertyOp17
 70
     0
102
RTVSPropertyOp18
 70
     0
102
RTVSPropertyOp19
 70
     0
102
RTVSPropertyOp20
 70
     0
102
RTVSPropertyOp21
 70
     0
102
RTVSPropertyOp22
 70
     0
102
RTVSPropertyOp23
 70
     0
102
RTVSPropertyOp24
 70
     0
102
RTVSPropertyOp25
 70
     0
102
RTVSPropertyOp26
 70
     0
102
RTVSPropertyOp27
 70
     0
102
RTVSPropertyOp28
 70
     1
102
RTVSPropertyOp29
 70
     1
102
RTVSPropertyOp30
 70
     1
102
RTVSPropertyOp31
 70
     1
102
RTVSPropertyOp32
 70
     1
  0
XRECORD
  5
6D2
102
{ACAD_REACTORS
330
6D1
102
}
330
6D1
100
AcDbXrecord
280
     1
102
RTVSPropertyOp0
 70
     1
102
RTVSPropertyOp1
 70
     1
102
RTVSPropertyOp2
 70
     1
102
RTVSPropertyOp3
 70
     1
102
RTVSPropertyOp4
 70
     1
102
RTVSPropertyOp5
 70
     1
102
RTVSPropertyOp6
 70
     1
102
RTVSPropertyOp7
 70
     1
102
RTVSPropertyOp8
 70
     1
102
RTVSPropertyOp9
 70
     1
102
RTVSPropertyOp10
 70
     1
102
RTVSPropertyOp11
 70
     1
102
RTVSPropertyOp12
 70
     1
102
RTVSPropertyOp13
 70
     1
102
RTVSPropertyOp14
 70
     1
102
RTVSPropertyOp15
 70
     1
102
RTVSPropertyOp16
 70
     1
102
RTVSPropertyOp17
 70
     1
102
RTVSPropertyOp18
 70
     1
102
RTVSPropertyOp19
 70
     1
102
RTVSPropertyOp20
 70
     1
102
RTVSPropertyOp21
 70
     1
102
RTVSPropertyOp22
 70
     1
102
RTVSPropertyOp23
 70
     1
102
RTVSPropertyOp24
 70
     1
102
RTVSPropertyOp25
 70
     1
102
RTVSPropertyOp26
 70
     1
102
RTVSPropertyOp27
 70
     1
102
RTVSPropertyOp28
 70
     1
102
RTVSPropertyOp29
 70
     1
102
RTVSPropertyOp30
 70
     1
102
RTVSPropertyOp31
 70
     1
102
RTVSPropertyOp32
 70
     1
  0
XRECORD
  5
6B6
102
{ACAD_REACTORS
330
6B5
102
}
330
6B5
100
AcDbXrecord
280
     1
102
RTVSPropertyOp0
 70
     1
102
RTVSPropertyOp1
 70
     1
102
RTVSPropertyOp2
 70
     1
102
RTVSPropertyOp3
 70
     1
102
RTVSPropertyOp4
 70
     1
102
RTVSPropertyOp5
 70
     1
102
RTVSPropertyOp6
 70
     1
102
RTVSPropertyOp7
 70
     1
102
RTVSPropertyOp8
 70
     1
102
RTVSPropertyOp9
 70
     1
102
RTVSPropertyOp10
 70
     1
102
RTVSPropertyOp11
 70
     1
102
RTVSPropertyOp12
 70
     1
102
RTVSPropertyOp13
 70
     1
102
RTVSPropertyOp14
 70
     1
102
RTVSPropertyOp15
 70
     1
102
RTVSPropertyOp16
 70
     1
102
RTVSPropertyOp17
 70
     1
102
RTVSPropertyOp18
 70
     1
102
RTVSPropertyOp19
 70
     1
102
RTVSPropertyOp20
 70
     1
102
RTVSPropertyOp21
 70
     1
102
RTVSPropertyOp22
 70
     1
102
RTVSPropertyOp23
 70
     1
102
RTVSPropertyOp24
 70
     1
102
RTVSPropertyOp25
 70
     1
102
RTVSPropertyOp26
 70
     1
102
RTVSPropertyOp27
 70
     1
102
RTVSPropertyOp28
 70
     1
102
RTVSPropertyOp29
 70
     1
102
RTVSPropertyOp30
 70
     1
102
RTVSPropertyOp31
 70
     1
102
RTVSPropertyOp32
 70
     1
  0
XRECORD
  5
6B8
102
{ACAD_REACTORS
330
6B7
102
}
330
6B7
100
AcDbXrecord
280
     1
102
RTVSPropertyOp0
 70
     1
102
RTVSPropertyOp1
 70
     1
102
RTVSPropertyOp2
 70
     1
102
RTVSPropertyOp3
 70
     1
102
RTVSPropertyOp4
 70
     1
102
RTVSPropertyOp5
 70
     1
102
RTVSPropertyOp6
 70
     1
102
RTVSPropertyOp7
 70
     1
102
RTVSPropertyOp8
 70
     1
102
RTVSPropertyOp9
 70
     1
102
RTVSPropertyOp10
 70
     1
102
RTVSPropertyOp11
 70
     1
102
RTVSPropertyOp12
 70
     1
102
RTVSPropertyOp13
 70
     1
102
RTVSPropertyOp14
 70
     1
102
RTVSPropertyOp15
 70
     1
102
RTVSPropertyOp16
 70
     1
102
RTVSPropertyOp17
 70
     1
102
RTVSPropertyOp18
 70
     1
102
RTVSPropertyOp19
 70
     1
102
RTVSPropertyOp20
 70
     1
102
RTVSPropertyOp21
 70
     1
102
RTVSPropertyOp22
 70
     1
102
RTVSPropertyOp23
 70
     1
102
RTVSPropertyOp24
 70
     1
102
RTVSPropertyOp25
 70
     1
102
RTVSPropertyOp26
 70
     1
102
RTVSPropertyOp27
 70
     1
102
RTVSPropertyOp28
 70
     1
102
RTVSPropertyOp29
 70
     1
102
RTVSPropertyOp30
 70
     1
102
RTVSPropertyOp31
 70
     1
102
RTVSPropertyOp32
 70
     1
  0
XRECORD
  5
6BA
102
{ACAD_REACTORS
330
6B9
102
}
330
6B9
100
AcDbXrecord
280
     1
102
RTVSPropertyOp0
 70
     1
102
RTVSPropertyOp1
 70
     1
102
RTVSPropertyOp2
 70
     1
102
RTVSPropertyOp3
 70
     1
102
RTVSPropertyOp4
 70
     1
102
RTVSPropertyOp5
 70
     1
102
RTVSPropertyOp6
 70
     1
102
RTVSPropertyOp7
 70
     1
102
RTVSPropertyOp8
 70
     1
102
RTVSPropertyOp9
 70
     1
102
RTVSPropertyOp10
 70
     1
102
RTVSPropertyOp11
 70
     1
102
RTVSPropertyOp12
 70
     1
102
RTVSPropertyOp13
 70
     1
102
RTVSPropertyOp14
 70
     1
102
RTVSPropertyOp15
 70
     1
102
RTVSPropertyOp16
 70
     1
102
RTVSPropertyOp17
 70
     1
102
RTVSPropertyOp18
 70
     1
102
RTVSPropertyOp19
 70
     1
102
RTVSPropertyOp20
 70
     1
102
RTVSPropertyOp21
 70
     1
102
RTVSPropertyOp22
 70
     1
102
RTVSPropertyOp23
 70
     1
102
RTVSPropertyOp24
 70
     1
102
RTVSPropertyOp25
 70
     1
102
RTVSPropertyOp26
 70
     1
102
RTVSPropertyOp27
 70
     1
102
RTVSPropertyOp28
 70
     1
102
RTVSPropertyOp29
 70
     1
102
RTVSPropertyOp30
 70
     1
102
RTVSPropertyOp31
 70
     1
102
RTVSPropertyOp32
 70
     1
  0
XRECORD
  5
6BC
102
{ACAD_REACTORS
330
6BB
102
}
330
6BB
100
AcDbXrecord
280
     1
102
RTVSPropertyOp0
 70
     1
102
RTVSPropertyOp1
 70
     1
102
RTVSPropertyOp2
 70
     1
102
RTVSPropertyOp3
 70
     1
102
RTVSPropertyOp4
 70
     1
102
RTVSPropertyOp5
 70
     1
102
RTVSPropertyOp6
 70
     1
102
RTVSPropertyOp7
 70
     1
102
RTVSPropertyOp8
 70
     1
102
RTVSPropertyOp9
 70
     1
102
RTVSPropertyOp10
 70
     1
102
RTVSPropertyOp11
 70
     1
102
RTVSPropertyOp12
 70
     1
102
RTVSPropertyOp13
 70
     1
102
RTVSPropertyOp14
 70
     1
102
RTVSPropertyOp15
 70
     1
102
RTVSPropertyOp16
 70
     1
102
RTVSPropertyOp17
 70
     1
102
RTVSPropertyOp18
 70
     1
102
RTVSPropertyOp19
 70
     1
102
RTVSPropertyOp20
 70
     1
102
RTVSPropertyOp21
 70
     1
102
RTVSPropertyOp22
 70
     1
102
RTVSPropertyOp23
 70
     1
102
RTVSPropertyOp24
 70
     1
102
RTVSPropertyOp25
 70
     1
102
RTVSPropertyOp26
 70
     1
102
RTVSPropertyOp27
 70
     1
102
RTVSPropertyOp28
 70
     1
102
RTVSPropertyOp29
 70
     1
102
RTVSPropertyOp30
 70
     1
102
RTVSPropertyOp31
 70
     1
102
RTVSPropertyOp32
 70
     1
  0
XRECORD
  5
6DE
102
{ACAD_REACTORS
330
6DD
102
}
330
6DD
100
AcDbXrecord
280
     1
102
RTVSPropertyOp0
 70
     1
102
RTVSPropertyOp1
 70
     1
102
RTVSPropertyOp2
 70
     1
102
RTVSPropertyOp3
 70
     1
102
RTVSPropertyOp4
 70
     1
102
RTVSPropertyOp5
 70
     1
102
RTVSPropertyOp6
 70
     1
102
RTVSPropertyOp7
 70
     1
102
RTVSPropertyOp8
 70
     1
102
RTVSPropertyOp9
 70
     1
102
RTVSPropertyOp10
 70
     1
102
RTVSPropertyOp11
 70
     1
102
RTVSPropertyOp12
 70
     1
102
RTVSPropertyOp13
 70
     1
102
RTVSPropertyOp14
 70
     1
102
RTVSPropertyOp15
 70
     1
102
RTVSPropertyOp16
 70
     1
102
RTVSPropertyOp17
 70
     1
102
RTVSPropertyOp18
 70
     1
102
RTVSPropertyOp19
 70
     1
102
RTVSPropertyOp20
 70
     1
102
RTVSPropertyOp21
 70
     1
102
RTVSPropertyOp22
 70
     1
102
RTVSPropertyOp23
 70
     1
102
RTVSPropertyOp24
 70
     1
102
RTVSPropertyOp25
 70
     1
102
RTVSPropertyOp26
 70
     1
102
RTVSPropertyOp27
 70
     1
102
RTVSPropertyOp28
 70
     1
102
RTVSPropertyOp29
 70
     1
102
RTVSPropertyOp30
 70
     1
102
RTVSPropertyOp31
 70
     1
102
RTVSPropertyOp32
 70
     1
  0
XRECORD
  5
6D6
102
{ACAD_REACTORS
330
6D5
102
}
330
6D5
100
AcDbXrecord
280
     1
102
RTVSPropertyOp0
 70
     0
102
RTVSPropertyOp1
 70
     0
102
RTVSPropertyOp2
 70
     0
102
RTVSPropertyOp3
 70
     0
102
RTVSPropertyOp4
 70
     0
102
RTVSPropertyOp5
 70
     0
102
RTVSPropertyOp6
 70
     0
102
RTVSPropertyOp7
 70
     0
102
RTVSPropertyOp8
 70
     0
102
RTVSPropertyOp9
 70
     0
102
RTVSPropertyOp10
 70
     0
102
RTVSPropertyOp11
 70
     0
102
RTVSPropertyOp12
 70
     0
102
RTVSPropertyOp13
 70
     0
102
RTVSPropertyOp14
 70
     2
102
RTVSPropertyOp15
 70
     0
102
RTVSPropertyOp16
 70
     0
102
RTVSPropertyOp17
 70
     0
102
RTVSPropertyOp18
 70
     0
102
RTVSPropertyOp19
 70
     0
102
RTVSPropertyOp20
 70
     0
102
RTVSPropertyOp21
 70
     0
102
RTVSPropertyOp22
 70
     0
102
RTVSPropertyOp23
 70
     0
102
RTVSPropertyOp24
 70
     0
102
RTVSPropertyOp25
 70
     0
102
RTVSPropertyOp26
 70
     0
102
RTVSPropertyOp27
 70
     0
102
RTVSPropertyOp28
 70
     1
102
RTVSPropertyOp29
 70
     1
102
RTVSPropertyOp30
 70
     1
102
RTVSPropertyOp31
 70
     1
102
RTVSPropertyOp32
 70
     1
  0
XRECORD
  5
6D0
102
{ACAD_REACTORS
330
6CF
102
}
330
6CF
100
AcDbXrecord
280
     1
102
RTVSPropertyOp0
 70
     1
102
RTVSPropertyOp1
 70
     1
102
RTVSPropertyOp2
 70
     1
102
RTVSPropertyOp3
 70
     1
102
RTVSPropertyOp4
 70
     1
102
RTVSPropertyOp5
 70
     1
102
RTVSPropertyOp6
 70
     1
102
RTVSPropertyOp7
 70
     1
102
RTVSPropertyOp8
 70
     1
102
RTVSPropertyOp9
 70
     1
102
RTVSPropertyOp10
 70
     1
102
RTVSPropertyOp11
 70
     1
102
RTVSPropertyOp12
 70
     1
102
RTVSPropertyOp13
 70
     1
102
RTVSPropertyOp14
 70
     1
102
RTVSPropertyOp15
 70
     1
102
RTVSPropertyOp16
 70
     1
102
RTVSPropertyOp17
 70
     1
102
RTVSPropertyOp18
 70
     1
102
RTVSPropertyOp19
 70
     1
102
RTVSPropertyOp20
 70
     1
102
RTVSPropertyOp21
 70
     1
102
RTVSPropertyOp22
 70
     1
102
RTVSPropertyOp23
 70
     1
102
RTVSPropertyOp24
 70
     1
102
RTVSPropertyOp25
 70
     1
102
RTVSPropertyOp26
 70
     1
102
RTVSPropertyOp27
 70
     1
102
RTVSPropertyOp28
 70
     1
102
RTVSPropertyOp29
 70
     1
102
RTVSPropertyOp30
 70
     1
102
RTVSPropertyOp31
 70
     1
102
RTVSPropertyOp32
 70
     1
  0
XRECORD
  5
6D8
102
{ACAD_REACTORS
330
6D7
102
}
330
6D7
100
AcDbXrecord
280
     1
102
RTVSPropertyOp0
 70
     0
102
RTVSPropertyOp1
 70
     0
102
RTVSPropertyOp2
 70
     0
102
RTVSPropertyOp3
 70
     0
102
RTVSPropertyOp4
 70
     0
102
RTVSPropertyOp5
 70
     0
102
RTVSPropertyOp6
 70
     0
102
RTVSPropertyOp7
 70
     0
102
RTVSPropertyOp8
 70
     0
102
RTVSPropertyOp9
 70
     0
102
RTVSPropertyOp10
 70
     0
102
RTVSPropertyOp11
 70
     0
102
RTVSPropertyOp12
 70
     0
102
RTVSPropertyOp13
 70
     0
102
RTVSPropertyOp14
 70
     2
102
RTVSPropertyOp15
 70
     0
102
RTVSPropertyOp16
 70
     0
102
RTVSPropertyOp17
 70
     0
102
RTVSPropertyOp18
 70
     0
102
RTVSPropertyOp19
 70
     0
102
RTVSPropertyOp20
 70
     0
102
RTVSPropertyOp21
 70
     0
102
RTVSPropertyOp22
 70
     0
102
RTVSPropertyOp23
 70
     0
102
RTVSPropertyOp24
 70
     0
102
RTVSPropertyOp25
 70
     0
102
RTVSPropertyOp26
 70
     0
102
RTVSPropertyOp27
 70
     0
102
RTVSPropertyOp28
 70
     1
102
RTVSPropertyOp29
 70
     1
102
RTVSPropertyOp30
 70
     1
102
RTVSPropertyOp31
 70
     1
102
RTVSPropertyOp32
 70
     1
  0
XRECORD
  5
6C8
102
{ACAD_REACTORS
330
6C7
102
}
330
6C7
100
AcDbXrecord
280
     1
102
RTVSPropertyOp0
 70
     1
102
RTVSPropertyOp1
 70
     1
102
RTVSPropertyOp2
 70
     1
102
RTVSPropertyOp3
 70
     1
102
RTVSPropertyOp4
 70
     1
102
RTVSPropertyOp5
 70
     1
102
RTVSPropertyOp6
 70
     1
102
RTVSPropertyOp7
 70
     1
102
RTVSPropertyOp8
 70
     1
102
RTVSPropertyOp9
 70
     1
102
RTVSPropertyOp10
 70
     1
102
RTVSPropertyOp11
 70
     1
102
RTVSPropertyOp12
 70
     1
102
RTVSPropertyOp13
 70
     1
102
RTVSPropertyOp14
 70
     1
102
RTVSPropertyOp15
 70
     1
102
RTVSPropertyOp16
 70
     1
102
RTVSPropertyOp17
 70
     1
102
RTVSPropertyOp18
 70
     1
102
RTVSPropertyOp19
 70
     1
102
RTVSPropertyOp20
 70
     1
102
RTVSPropertyOp21
 70
     1
102
RTVSPropertyOp22
 70
     1
102
RTVSPropertyOp23
 70
     1
102
RTVSPropertyOp24
 70
     1
102
RTVSPropertyOp25
 70
     1
102
RTVSPropertyOp26
 70
     1
102
RTVSPropertyOp27
 70
     1
102
RTVSPropertyOp28
 70
     1
102
RTVSPropertyOp29
 70
     1
102
RTVSPropertyOp30
 70
     1
102
RTVSPropertyOp31
 70
     1
102
RTVSPropertyOp32
 70
     1
  0
XRECORD
  5
6E8
102
{ACAD_REACTORS
330
6E7
102
}
330
6E7
100
AcDbXrecord
280
     1
102
RTVSPropertyOp0
 70
     1
102
RTVSPropertyOp1
 70
     1
102
RTVSPropertyOp2
 70
     1
102
RTVSPropertyOp3
 70
     1
102
RTVSPropertyOp4
 70
     1
102
RTVSPropertyOp5
 70
     1
102
RTVSPropertyOp6
 70
     1
102
RTVSPropertyOp7
 70
     1
102
RTVSPropertyOp8
 70
     1
102
RTVSPropertyOp9
 70
     1
102
RTVSPropertyOp10
 70
     1
102
RTVSPropertyOp11
 70
     1
102
RTVSPropertyOp12
 70
     1
102
RTVSPropertyOp13
 70
     1
102
RTVSPropertyOp14
 70
     1
102
RTVSPropertyOp15
 70
     1
102
RTVSPropertyOp16
 70
     1
102
RTVSPropertyOp17
 70
     1
102
RTVSPropertyOp18
 70
     1
102
RTVSPropertyOp19
 70
     1
102
RTVSPropertyOp20
 70
     1
102
RTVSPropertyOp21
 70
     1
102
RTVSPropertyOp22
 70
     1
102
RTVSPropertyOp23
 70
     1
102
RTVSPropertyOp24
 70
     1
102
RTVSPropertyOp25
 70
     1
102
RTVSPropertyOp26
 70
     1
102
RTVSPropertyOp27
 70
     1
102
RTVSPropertyOp28
 70
     1
102
RTVSPropertyOp29
 70
     1
102
RTVSPropertyOp30
 70
     1
102
RTVSPropertyOp31
 70
     1
102
RTVSPropertyOp32
 70
     1
  0
XRECORD
  5
6E6
102
{ACAD_REACTORS
330
6E5
102
}
330
6E5
100
AcDbXrecord
280
     1
102
RTVSPropertyOp0
 70
     1
102
RTVSPropertyOp1
 70
     1
102
RTVSPropertyOp2
 70
     1
102
RTVSPropertyOp3
 70
     1
102
RTVSPropertyOp4
 70
     1
102
RTVSPropertyOp5
 70
     1
102
RTVSPropertyOp6
 70
     1
102
RTVSPropertyOp7
 70
     1
102
RTVSPropertyOp8
 70
     1
102
RTVSPropertyOp9
 70
     1
102
RTVSPropertyOp10
 70
     1
102
RTVSPropertyOp11
 70
     1
102
RTVSPropertyOp12
 70
     1
102
RTVSPropertyOp13
 70
     1
102
RTVSPropertyOp14
 70
     1
102
RTVSPropertyOp15
 70
     1
102
RTVSPropertyOp16
 70
     1
102
RTVSPropertyOp17
 70
     1
102
RTVSPropertyOp18
 70
     1
102
RTVSPropertyOp19
 70
     1
102
RTVSPropertyOp20
 70
     1
102
RTVSPropertyOp21
 70
     1
102
RTVSPropertyOp22
 70
     1
102
RTVSPropertyOp23
 70
     1
102
RTVSPropertyOp24
 70
     1
102
RTVSPropertyOp25
 70
     1
102
RTVSPropertyOp26
 70
     1
102
RTVSPropertyOp27
 70
     1
102
RTVSPropertyOp28
 70
     1
102
RTVSPropertyOp29
 70
     1
102
RTVSPropertyOp30
 70
     1
102
RTVSPropertyOp31
 70
     1
102
RTVSPropertyOp32
 70
     1
  0
XRECORD
  5
6E0
102
{ACAD_REACTORS
330
6DF
102
}
330
6DF
100
AcDbXrecord
280
     1
102
RTVSPropertyOp0
 70
     1
102
RTVSPropertyOp1
 70
     1
102
RTVSPropertyOp2
 70
     1
102
RTVSPropertyOp3
 70
     1
102
RTVSPropertyOp4
 70
     1
102
RTVSPropertyOp5
 70
     1
102
RTVSPropertyOp6
 70
     1
102
RTVSPropertyOp7
 70
     1
102
RTVSPropertyOp8
 70
     1
102
RTVSPropertyOp9
 70
     1
102
RTVSPropertyOp10
 70
     1
102
RTVSPropertyOp11
 70
     1
102
RTVSPropertyOp12
 70
     1
102
RTVSPropertyOp13
 70
     1
102
RTVSPropertyOp14
 70
     1
102
RTVSPropertyOp15
 70
     1
102
RTVSPropertyOp16
 70
     1
102
RTVSPropertyOp17
 70
     1
102
RTVSPropertyOp18
 70
     1
102
RTVSPropertyOp19
 70
     1
102
RTVSPropertyOp20
 70
     1
102
RTVSPropertyOp21
 70
     1
102
RTVSPropertyOp22
 70
     1
102
RTVSPropertyOp23
 70
     1
102
RTVSPropertyOp24
 70
     1
102
RTVSPropertyOp25
 70
     1
102
RTVSPropertyOp26
 70
     1
102
RTVSPropertyOp27
 70
     1
102
RTVSPropertyOp28
 70
     1
102
RTVSPropertyOp29
 70
     1
102
RTVSPropertyOp30
 70
     1
102
RTVSPropertyOp31
 70
     1
102
RTVSPropertyOp32
 70
     1
  0
XRECORD
  5
6E2
102
{ACAD_REACTORS
330
6E1
102
}
330
6E1
100
AcDbXrecord
280
     1
102
RTVSPropertyOp0
 70
     1
102
RTVSPropertyOp1
 70
     1
102
RTVSPropertyOp2
 70
     1
102
RTVSPropertyOp3
 70
     1
102
RTVSPropertyOp4
 70
     1
102
RTVSPropertyOp5
 70
     1
102
RTVSPropertyOp6
 70
     1
102
RTVSPropertyOp7
 70
     1
102
RTVSPropertyOp8
 70
     1
102
RTVSPropertyOp9
 70
     1
102
RTVSPropertyOp10
 70
     1
102
RTVSPropertyOp11
 70
     1
102
RTVSPropertyOp12
 70
     1
102
RTVSPropertyOp13
 70
     1
102
RTVSPropertyOp14
 70
     1
102
RTVSPropertyOp15
 70
     1
102
RTVSPropertyOp16
 70
     1
102
RTVSPropertyOp17
 70
     1
102
RTVSPropertyOp18
 70
     1
102
RTVSPropertyOp19
 70
     1
102
RTVSPropertyOp20
 70
     1
102
RTVSPropertyOp21
 70
     1
102
RTVSPropertyOp22
 70
     1
102
RTVSPropertyOp23
 70
     1
102
RTVSPropertyOp24
 70
     1
102
RTVSPropertyOp25
 70
     1
102
RTVSPropertyOp26
 70
     1
102
RTVSPropertyOp27
 70
     1
102
RTVSPropertyOp28
 70
     1
102
RTVSPropertyOp29
 70
     1
102
RTVSPropertyOp30
 70
     1
102
RTVSPropertyOp31
 70
     1
102
RTVSPropertyOp32
 70
     1
  0
XRECORD
  5
6CE
102
{ACAD_REACTORS
330
6CD
102
}
330
6CD
100
AcDbXrecord
280
     1
102
RTVSPropertyOp0
 70
     1
102
RTVSPropertyOp1
 70
     1
102
RTVSPropertyOp2
 70
     1
102
RTVSPropertyOp3
 70
     1
102
RTVSPropertyOp4
 70
     1
102
RTVSPropertyOp5
 70
     1
102
RTVSPropertyOp6
 70
     1
102
RTVSPropertyOp7
 70
     1
102
RTVSPropertyOp8
 70
     1
102
RTVSPropertyOp9
 70
     1
102
RTVSPropertyOp10
 70
     1
102
RTVSPropertyOp11
 70
     1
102
RTVSPropertyOp12
 70
     1
102
RTVSPropertyOp13
 70
     1
102
RTVSPropertyOp14
 70
     1
102
RTVSPropertyOp15
 70
     1
102
RTVSPropertyOp16
 70
     1
102
RTVSPropertyOp17
 70
     1
102
RTVSPropertyOp18
 70
     1
102
RTVSPropertyOp19
 70
     1
102
RTVSPropertyOp20
 70
     1
102
RTVSPropertyOp21
 70
     1
102
RTVSPropertyOp22
 70
     1
102
RTVSPropertyOp23
 70
     1
102
RTVSPropertyOp24
 70
     1
102
RTVSPropertyOp25
 70
     1
102
RTVSPropertyOp26
 70
     1
102
RTVSPropertyOp27
 70
     1
102
RTVSPropertyOp28
 70
     1
102
RTVSPropertyOp29
 70
     1
102
RTVSPropertyOp30
 70
     1
102
RTVSPropertyOp31
 70
     1
102
RTVSPropertyOp32
 70
     1
  0
XRECORD
  5
6DC
102
{ACAD_REACTORS
330
6DB
102
}
330
6DB
100
AcDbXrecord
280
     1
102
RTVSPropertyOp0
 70
     1
102
RTVSPropertyOp1
 70
     1
102
RTVSPropertyOp2
 70
     1
102
RTVSPropertyOp3
 70
     1
102
RTVSPropertyOp4
 70
     1
102
RTVSPropertyOp5
 70
     1
102
RTVSPropertyOp6
 70
     1
102
RTVSPropertyOp7
 70
     1
102
RTVSPropertyOp8
 70
     1
102
RTVSPropertyOp9
 70
     1
102
RTVSPropertyOp10
 70
     1
102
RTVSPropertyOp11
 70
     1
102
RTVSPropertyOp12
 70
     1
102
RTVSPropertyOp13
 70
     1
102
RTVSPropertyOp14
 70
     1
102
RTVSPropertyOp15
 70
     1
102
RTVSPropertyOp16
 70
     1
102
RTVSPropertyOp17
 70
     1
102
RTVSPropertyOp18
 70
     1
102
RTVSPropertyOp19
 70
     1
102
RTVSPropertyOp20
 70
     1
102
RTVSPropertyOp21
 70
     1
102
RTVSPropertyOp22
 70
     1
102
RTVSPropertyOp23
 70
     1
102
RTVSPropertyOp24
 70
     1
102
RTVSPropertyOp25
 70
     1
102
RTVSPropertyOp26
 70
     1
102
RTVSPropertyOp27
 70
     1
102
RTVSPropertyOp28
 70
     1
102
RTVSPropertyOp29
 70
     1
102
RTVSPropertyOp30
 70
     1
102
RTVSPropertyOp31
 70
     1
102
RTVSPropertyOp32
 70
     1
  0
XRECORD
  5
6E4
102
{ACAD_REACTORS
330
6E3
102
}
330
6E3
100
AcDbXrecord
280
     1
102
RTVSPropertyOp0
 70
     1
102
RTVSPropertyOp1
 70
     1
102
RTVSPropertyOp2
 70
     1
102
RTVSPropertyOp3
 70
     1
102
RTVSPropertyOp4
 70
     1
102
RTVSPropertyOp5
 70
     1
102
RTVSPropertyOp6
 70
     1
102
RTVSPropertyOp7
 70
     1
102
RTVSPropertyOp8
 70
     1
102
RTVSPropertyOp9
 70
     1
102
RTVSPropertyOp10
 70
     1
102
RTVSPropertyOp11
 70
     1
102
RTVSPropertyOp12
 70
     1
102
RTVSPropertyOp13
 70
     1
102
RTVSPropertyOp14
 70
     1
102
RTVSPropertyOp15
 70
     1
102
RTVSPropertyOp16
 70
     1
102
RTVSPropertyOp17
 70
     1
102
RTVSPropertyOp18
 70
     1
102
RTVSPropertyOp19
 70
     1
102
RTVSPropertyOp20
 70
     1
102
RTVSPropertyOp21
 70
     1
102
RTVSPropertyOp22
 70
     1
102
RTVSPropertyOp23
 70
     1
102
RTVSPropertyOp24
 70
     1
102
RTVSPropertyOp25
 70
     1
102
RTVSPropertyOp26
 70
     1
102
RTVSPropertyOp27
 70
     1
102
RTVSPropertyOp28
 70
     1
102
RTVSPropertyOp29
 70
     1
102
RTVSPropertyOp30
 70
     1
102
RTVSPropertyOp31
 70
     1
102
RTVSPropertyOp32
 70
     1
  0
ENDSEC
  0
EOF
