  0
SECTION
  2
HEADER
  9
$ACADVER
  1
AC1015
  9
$ACADMAINTVER
 70
    20
  9
$DWGCODEPAGE
  3
ANSI_1252
  9
$INSBASE
 10
0.0
 20
0.0
 30
0.0
  9
$EXTMIN
 10
916.9743615191178
 20
7.632227200544637
 30
1.749999999999888
  9
$EXTMAX
 10
920.4743615191182
 20
11.13222720054488
 30
37.24999996481006
  9
$LIMMIN
 10
0.0
 20
0.0
  9
$LIMMAX
 10
1.0
 20
1.0
  9
$ORTHOMODE
 70
     0
  9
$REGENMODE
 70
     1
  9
$FILLMODE
 70
     1
  9
$QTEXTMODE
 70
     0
  9
$MIRRTEXT
 70
     1
  9
$LTSCALE
 40
1.0
  9
$ATTMODE
 70
     1
  9
$TEXTSIZE
 40
2.5
  9
$TRACEWID
 40
0.05
  9
$TEXTSTYLE
  7
STANDARD
  9
$CLAYER
  8
0
  9
$CELTYPE
  6
CONTINUOUS
  9
$CECOLOR
 62
   256
  9
$CELTSCALE
 40
1.0
  9
$DISPSILH
 70
     0
  9
$DIMSCALE
 40
1.0
  9
$DIMASZ
 40
0.18
  9
$DIMEXO
 40
0.0625
  9
$DIMDLI
 40
0.38
  9
$DIMRND
 40
0.0
  9
$DIMDLE
 40
0.0
  9
$DIMEXE
 40
0.18
  9
$DIMTP
 40
0.0
  9
$DIMTM
 40
0.0
  9
$DIMTXT
 40
0.18
  9
$DIMCEN
 40
0.09
  9
$DIMTSZ
 40
0.0
  9
$DIMTOL
 70
     0
  9
$DIMLIM
 70
     0
  9
$DIMTIH
 70
     1
  9
$DIMTOH
 70
     1
  9
$DIMSE1
 70
     0
  9
$DIMSE2
 70
     0
  9
$DIMTAD
 70
     0
  9
$DIMZIN
 70
     0
  9
$DIMBLK
  1

  9
$DIMASO
 70
     1
  9
$DIMSHO
 70
     1
  9
$DIMPOST
  1

  9
$DIMAPOST
  1

  9
$DIMALT
 70
     0
  9
$DIMALTD
 70
     2
  9
$DIMALTF
 40
25.4
  9
$DIMLFAC
 40
1.0
  9
$DIMTOFL
 70
     0
  9
$DIMTVP
 40
0.0
  9
$DIMTIX
 70
     0
  9
$DIMSOXD
 70
     0
  9
$DIMSAH
 70
     0
  9
$DIMBLK1
  1

  9
$DIMBLK2
  1

  9
$DIMSTYLE
  2
Standard
  9
$DIMCLRD
 70
     0
  9
$DIMCLRE
 70
     0
  9
$DIMCLRT
 70
     0
  9
$DIMTFAC
 40
1.0
  9
$DIMGAP
 40
0.09
  9
$DIMJUST
 70
     0
  9
$DIMSD1
 70
     0
  9
$DIMSD2
 70
     0
  9
$DIMTOLJ
 70
     1
  9
$DIMTZIN
 70
     0
  9
$DIMALTZ
 70
     0
  9
$DIMALTTZ
 70
     0
  9
$DIMUPT
 70
     0
  9
$DIMDEC
 70
     4
  9
$DIMTDEC
 70
     4
  9
$DIMALTU
 70
     2
  9
$DIMALTTD
 70
     2
  9
$DIMTXSTY
  7
STANDARD
  9
$DIMAUNIT
 70
     0
  9
$DIMADEC
 70
     0
  9
$DIMALTRND
 40
0.0
  9
$DIMAZIN
 70
     0
  9
$DIMDSEP
 70
    46
  9
$DIMATFIT
 70
     3
  9
$DIMFRAC
 70
     0
  9
$DIMLDRBLK
  1

  9
$DIMLUNIT
 70
     2
  9
$DIMLWD
 70
    -2
  9
$DIMLWE
 70
    -2
  9
$DIMTMOVE
 70
     0
  9
$LUNITS
 70
     2
  9
$LUPREC
 70
     2
  9
$SKETCHINC
 40
0.1
  9
$FILLETRAD
 40
0.0
  9
$AUNITS
 70
     0
  9
$AUPREC
 70
     0
  9
$MENU
  1
acad
  9
$ELEVATION
 40
0.0
  9
$PELEVATION
 40
0.0
  9
$THICKNESS
 40
0.0
  9
$LIMCHECK
 70
     0
  9
$CHAMFERA
 40
0.0
  9
$CHAMFERB
 40
0.0
  9
$CHAMFERC
 40
0.0
  9
$CHAMFERD
 40
0.0
  9
$SKPOLY
 70
     0
  9
$TDCREATE
 40
2455131.624363426
  9
$TDUCREATE
 40
2455131.791030093
  9
$TDUPDATE
 40
2455131.635507743
  9
$TDUUPDATE
 40
2455131.802174410
  9
$TDINDWG
 40
0.0095601852
  9
$TDUSRTIMER
 40
0.0000000000
  9
$USRTIMER
 70
     0
  9
$ANGBASE
 50
0.0
  9
$ANGDIR
 70
     0
  9
$PDMODE
 70
     0
  9
$PDSIZE
 40
0.0
  9
$PLINEWID
 40
0.0
  9
$SPLFRAME
 70
     0
  9
$SPLINETYPE
 70
     6
  9
$SPLINESEGS
 70
     8
  9
$HANDSEED
  5
C8B02
  9
$SURFTAB1
 70
     6
  9
$SURFTAB2
 70
     6
  9
$SURFTYPE
 70
     6
  9
$SURFU
 70
     6
  9
$SURFV
 70
     6
  9
$UCSBASE
  2

  9
$UCSNAME
  2

  9
$UCSORG
 10
0.0
 20
0.0
 30
0.0
  9
$UCSXDIR
 10
1.0
 20
0.0
 30
0.0
  9
$UCSYDIR
 10
0.0
 20
0.0
 30
1.0
  9
$UCSORTHOREF
  2

  9
$UCSORTHOVIEW
 70
     3
  9
$UCSORGTOP
 10
0.0
 20
0.0
 30
0.0
  9
$UCSORGBOTTOM
 10
0.0
 20
0.0
 30
0.0
  9
$UCSORGLEFT
 10
0.0
 20
0.0
 30
0.0
  9
$UCSORGRIGHT
 10
0.0
 20
0.0
 30
0.0
  9
$UCSORGFRONT
 10
0.0
 20
0.0
 30
0.0
  9
$UCSORGBACK
 10
0.0
 20
0.0
 30
0.0
  9
$PUCSBASE
  2

  9
$PUCSNAME
  2

  9
$PUCSORG
 10
0.0
 20
0.0
 30
0.0
  9
$PUCSXDIR
 10
1.0
 20
0.0
 30
0.0
  9
$PUCSYDIR
 10
0.0
 20
1.0
 30
0.0
  9
$PUCSORTHOREF
  2

  9
$PUCSORTHOVIEW
 70
     0
  9
$PUCSORGTOP
 10
0.0
 20
0.0
 30
0.0
  9
$PUCSORGBOTTOM
 10
0.0
 20
0.0
 30
0.0
  9
$PUCSORGLEFT
 10
0.0
 20
0.0
 30
0.0
  9
$PUCSORGRIGHT
 10
0.0
 20
0.0
 30
0.0
  9
$PUCSORGFRONT
 10
0.0
 20
0.0
 30
0.0
  9
$PUCSORGBACK
 10
0.0
 20
0.0
 30
0.0
  9
$USERI1
 70
     0
  9
$USERI2
 70
     0
  9
$USERI3
 70
     0
  9
$USERI4
 70
     0
  9
$USERI5
 70
     0
  9
$USERR1
 40
0.0
  9
$USERR2
 40
0.0
  9
$USERR3
 40
0.0
  9
$USERR4
 40
0.0
  9
$USERR5
 40
0.0
  9
$WORLDVIEW
 70
     1
  9
$SHADEDGE
 70
     3
  9
$SHADEDIF
 70
    70
  9
$TILEMODE
 70
     1
  9
$MAXACTVP
 70
    16
  9
$PINSBASE
 10
0.0
 20
0.0
 30
0.0
  9
$PLIMCHECK
 70
     0
  9
$PEXTMIN
 10
1.000000000000000E+20
 20
1.000000000000000E+20
 30
0.0
  9
$PEXTMAX
 10
-1.000000000000000E+20
 20
-1.000000000000000E+20
 30
-1.000000000000000E+20
  9
$PLIMMIN
 10
0.0
 20
0.0
  9
$PLIMMAX
 10
12.0
 20
9.0
  9
$UNITMODE
 70
     0
  9
$VISRETAIN
 70
     0
  9
$PLINEGEN
 70
     0
  9
$PSLTSCALE
 70
     1
  9
$TREEDEPTH
 70
     0
  9
$CMLSTYLE
  2
STANDARD
  9
$CMLJUST
 70
     0
  9
$CMLSCALE
 40
1.0
  9
$PROXYGRAPHICS
 70
     1
  9
$MEASUREMENT
 70
     0
  9
$CELWEIGHT
370
    -1
  9
$ENDCAPS
280
     0
  9
$JOINSTYLE
280
     0
  9
$LWDISPLAY
290
     0
  9
$INSUNITS
 70
     0
  9
$HYPERLINKBASE
  1

  9
$STYLESHEET
  1

  9
$XEDIT
290
     1
  9
$CEPSNTYPE
380
     0
  9
$PSTYLEMODE
290
     1
  9
$FINGERPRINTGUID
  2
{23D2813B-FA2E-468D-BD97-42AAF2435173}
  9
$VERSIONGUID
  2
{1C72905E-93D6-49D6-8EA6-67E21F7F1EA6}
  9
$EXTNAMES
290
     1
  9
$PSVPSCALE
 40
0.0
  9
$OLESTARTUP
290
     0
  0
ENDSEC
  0
SECTION
  2
CLASSES
  0
CLASS
  1
ACDBDICTIONARYWDFLT
  2
AcDbDictionaryWithDefault
  3
ObjectDBX Classes
 90
        0
280
     0
281
     0
  0
CLASS
  1
MATERIAL
  2
AcDbMaterial
  3
ObjectDBX Classes
 90
     1153
280
     0
281
     0
  0
CLASS
  1
VISUALSTYLE
  2
AcDbVisualStyle
  3
ObjectDBX Classes
 90
     4095
280
     0
281
     0
  0
CLASS
  1
TABLESTYLE
  2
AcDbTableStyle
  3
ObjectDBX Classes
 90
     4095
280
     0
281
     0
  0
CLASS
  1
SCALE
  2
AcDbScale
  3
ObjectDBX Classes
 90
     1153
280
     0
281
     0
  0
CLASS
  1
MLEADERSTYLE
  2
AcDbMLeaderStyle
  3
ACDB_MLEADERSTYLE_CLASS
 90
     4095
280
     0
281
     0
  0
CLASS
  1
SORTENTSTABLE
  2
AcDbSortentsTable
  3
ObjectDBX Classes
 90
        0
280
     0
281
     0
  0
CLASS
  1
DICTIONARYVAR
  2
AcDbDictionaryVar
  3
ObjectDBX Classes
 90
        0
280
     0
281
     0
  0
CLASS
  1
ACSH_REVOLVE_CLASS
  2
AcDbShRevolve
  3
ObjectDBX Classes
 90
     1153
280
     0
281
     0
  0
CLASS
  1
ACAD_EVALUATION_GRAPH
  2
AcDbEvalGraph
  3
ObjectDBX Classes
 90
     1153
280
     0
281
     0
  0
CLASS
  1
ACSH_HISTORY_CLASS
  2
AcDbShHistory
  3
ObjectDBX Classes
 90
     1153
280
     0
281
     0
  0
CLASS
  1
ACSH_EXTRUSION_CLASS
  2
AcDbShExtrusion
  3
ObjectDBX Classes
 90
     1153
280
     0
281
     0
  0
CLASS
  1
ACDBPERSSUBENTMANAGER
  2
AcDbPersSubentManager
  3
AcDbPersSubentManager
 90
     1024
280
     0
281
     0
  0
CLASS
  1
ACSH_BOOLEAN_CLASS
  2
AcDbShBoolean
  3
ObjectDBX Classes
 90
     1153
280
     0
281
     0
  0
CLASS
  1
CELLSTYLEMAP
  2
AcDbCellStyleMap
  3
ObjectDBX Classes
 90
     1152
280
     0
281
     0
  0
CLASS
  1
ACDBPLACEHOLDER
  2
AcDbPlaceHolder
  3
ObjectDBX Classes
 90
        0
280
     0
281
     0
  0
CLASS
  1
LAYOUT
  2
AcDbLayout
  3
ObjectDBX Classes
 90
        0
280
     0
281
     0
  0
ENDSEC
  0
SECTION
  2
TABLES
  0
TABLE
  2
VPORT
  5
43F37
330
0
100
AcDbSymbolTable
 70
     1
  0
VPORT
  5
43F38
330
43F37
100
AcDbSymbolTableRecord
100
AcDbViewportTableRecord
  2
*ACTIVE
 70
     0
 10
0.0
 20
0.0
 11
1.0
 21
1.0
 12
918.724361519118
 22
19.49999998240497
 13
0.0
 23
0.0
 14
0.0
 24
0.0
 15
0.0
 25
0.0
 16
0.0
 26
-1.0
 36
0.0
 17
0.0
 27
0.0
 37
0.0
 40
35.71690424158091
 41
1.952089704383282
 42
50.0
 43
0.0
 44
0.0
 50
0.0
 51
0.0
 71
     0
 72
   100
 73
     1
 74
     0
 75
     0
 76
     0
 77
     0
 78
     0
281
     0
 65
     1
110
0.0
120
0.0
130
0.0
111
1.0
121
0.0
131
0.0
112
0.0
122
0.0
132
1.0
 79
     0
146
0.0
  0
ENDTAB
  0
TABLE
  2
LTYPE
  5
E2D0
330
0
100
AcDbSymbolTable
 70
     2
  0
LTYPE
  5
E2D1
330
E2D0
100
AcDbSymbolTableRecord
100
AcDbLinetypeTableRecord
  2
BYBLOCK
 70
     0
  3
  
 72
    65
 73
     0
 40
0.0
  0
LTYPE
  5
E2D2
330
E2D0
100
AcDbSymbolTableRecord
100
AcDbLinetypeTableRecord
  2
BYLAYER
 70
     0
  3
  
 72
    65
 73
     0
 40
0.0
  0
LTYPE
  5
E2D3
330
E2D0
100
AcDbSymbolTableRecord
100
AcDbLinetypeTableRecord
  2
CONTINUOUS
 70
     0
  3
Solid line
 72
    65
 73
     0
 40
0.0
  0
ENDTAB
  0
TABLE
  2
LAYER
  5
6EA9A
330
0
100
AcDbSymbolTable
 70
     2
  0
LAYER
  5
6EA9B
102
{ACAD_XDICTIONARY
360
C8A92
102
}
330
6EA9A
100
AcDbSymbolTableRecord
100
AcDbLayerTableRecord
  2
0
 70
     0
 62
     7
  6
CONTINUOUS
370
    -3
390
C8978
  0
LAYER
  5
C89DB
330
6EA9A
100
AcDbSymbolTableRecord
100
AcDbLayerTableRecord
  2
Defpoints
 70
     0
 62
     7
  6
CONTINUOUS
290
     0
370
    -3
390
C8978
  0
ENDTAB
  0
TABLE
  2
STYLE
  5
822E9
330
0
100
AcDbSymbolTable
 70
     1
  0
STYLE
  5
822EA
330
822E9
100
AcDbSymbolTableRecord
100
AcDbTextStyleTableRecord
  2
STANDARD
 70
     0
 40
0.0
 41
1.0
 50
0.0
 71
     0
 42
2.5
  3
txt
  4

  0
ENDTAB
  0
TABLE
  2
VIEW
  5
56D67
330
0
100
AcDbSymbolTable
 70
     0
  0
ENDTAB
  0
TABLE
  2
UCS
  5
98081
330
0
100
AcDbSymbolTable
 70
     0
  0
ENDTAB
  0
TABLE
  2
APPID
  5
C8975
330
0
100
AcDbSymbolTable
 70
     3
  0
APPID
  5
C8976
330
C8975
100
AcDbSymbolTableRecord
100
AcDbRegAppTableRecord
  2
ACAD
 70
     0
  0
APPID
  5
C8A70
330
C8975
100
AcDbSymbolTableRecord
100
AcDbRegAppTableRecord
  2
ACAD_EXEMPT_FROM_CAD_STANDARDS
 70
     0
  0
APPID
  5
C8AFD
330
C8975
100
AcDbSymbolTableRecord
100
AcDbRegAppTableRecord
  2
ACAD_MLEADERVER
 70
     0
  0
ENDTAB
  0
TABLE
  2
DIMSTYLE
  5
77C04
330
0
100
AcDbSymbolTable
 70
     2
100
AcDbDimStyleTable
 71
     1
340
C89CD
  0
DIMSTYLE
105
C89CD
330
77C04
100
AcDbSymbolTableRecord
100
AcDbDimStyleTableRecord
  2
Standard
 70
     0
340
822EA
  0
ENDTAB
  0
TABLE
  2
BLOCK_RECORD
  5
76217
330
0
100
AcDbSymbolTable
 70
     3
  0
BLOCK_RECORD
  5
76218
102
{ACAD_XDICTIONARY
360
C89FE
102
}
330
76217
100
AcDbSymbolTableRecord
100
AcDbBlockTableRecord
  2
*MODEL_SPACE
340
C89D0
  0
BLOCK_RECORD
  5
76219
330
76217
100
AcDbSymbolTableRecord
100
AcDbBlockTableRecord
  2
*PAPER_SPACE
340
C89D1
  0
BLOCK_RECORD
  5
C89DC
330
76217
100
AcDbSymbolTableRecord
100
AcDbBlockTableRecord
  2
*D0
340
0
  0
BLOCK_RECORD
  5
C89EA
330
76217
100
AcDbSymbolTableRecord
100
AcDbBlockTableRecord
  2
*D1
340
0
  0
ENDTAB
  0
ENDSEC
  0
SECTION
  2
BLOCKS
  0
BLOCK
  5
7621A
330
76218
100
AcDbEntity
  8
0
100
AcDbBlockBegin
  2
*MODEL_SPACE
 70
     0
 10
0.0
 20
0.0
 30
0.0
  3
*MODEL_SPACE
  1

  0
ENDBLK
  5
7621B
330
76218
100
AcDbEntity
  8
0
100
AcDbBlockEnd
  0
BLOCK
  5
7621C
330
76219
100
AcDbEntity
 67
     1
  8
0
100
AcDbBlockBegin
  2
*PAPER_SPACE
 70
     0
 10
0.0
 20
0.0
 30
0.0
  3
*PAPER_SPACE
  1

  0
ENDBLK
  5
7621D
330
76219
100
AcDbEntity
 67
     1
  8
0
100
AcDbBlockEnd
  0
BLOCK
  5
C89DD
330
C89DC
100
AcDbEntity
  8
0
100
AcDbBlockBegin
  2
*D0
 70
     1
 10
0.0
 20
0.0
 30
0.0
  3
*D0
  1

  0
LINE
  5
C89DF
330
C89DC
100
AcDbEntity
  8
0
  6
Continuous
 62
     0
370
    -2
100
AcDbLine
 10
876.8277003511188
 20
-0.0000000000000018
 30
0.0
 11
880.3664513102848
 21
-0.0000000000000028
 31
0.0
  0
LINE
  5
C89E0
330
C89DC
100
AcDbEntity
  8
0
  6
Continuous
 62
     0
370
    -2
100
AcDbLine
 10
876.8277003511188
 20
2.486681178055945
 30
0.0
 11
880.3664513102848
 21
2.486681178055945
 31
0.0
  0
LINE
  5
C89E1
330
C89DC
100
AcDbEntity
  8
0
  6
Continuous
 62
     0
370
    -2
100
AcDbLine
 10
880.1864513102849
 20
0.1799999999999973
 30
0.0
 11
880.1864513102849
 21
1.063340589027971
 31
0.0
  0
LINE
  5
C89E2
330
C89DC
100
AcDbEntity
  8
0
  6
Continuous
 62
     0
370
    -2
100
AcDbLine
 10
880.1864513102849
 20
2.306681178055944
 30
0.0
 11
880.1864513102849
 21
1.423340589027971
 31
0.0
  0
SOLID
  5
C89E3
330
C89DC
100
AcDbEntity
  8
0
  6
Continuous
 62
     0
100
AcDbTrace
 10
880.1564513102848
 20
0.1799999999999973
 30
0.0
 11
880.2164513102848
 21
0.1799999999999972
 31
0.0
 12
880.1864513102849
 22
-0.0000000000000027
 32
0.0
 13
880.1864513102849
 23
-0.0000000000000027
 33
0.0
  0
SOLID
  5
C89E4
330
C89DC
100
AcDbEntity
  8
0
  6
Continuous
 62
     0
100
AcDbTrace
 10
880.1564513102848
 20
2.306681178055944
 30
0.0
 11
880.2164513102848
 21
2.306681178055944
 31
0.0
 12
880.1864513102849
 22
2.486681178055945
 32
0.0
 13
880.1864513102849
 23
2.486681178055945
 33
0.0
  0
MTEXT
  5
C89E5
330
C89DC
100
AcDbEntity
  8
0
  6
Continuous
 62
     0
100
AcDbMText
 10
880.1864513102849
 20
1.243340589028112
 30
0.0
 40
0.18
 41
0.0
 71
     5
 72
     1
  1
\A1;2.4867
 73
     1
 44
1.0
1001
ACAD
1000
MTEXTBEGIN
1070
    73
1070
     1
1070
    44
1040
1.0
1070
    74
1070
     0
1000
MTEXTEND
  0
POINT
  5
C89E6
330
C89DC
100
AcDbEntity
  8
Defpoints
  6
Continuous
 62
     0
100
AcDbPoint
 10
876.7652003511189
 20
-0.0000000000000018
 30
0.0
  0
POINT
  5
C89E7
330
C89DC
100
AcDbEntity
  8
Defpoints
  6
Continuous
 62
     0
100
AcDbPoint
 10
876.7652003511189
 20
2.486681178055945
 30
0.0
  0
POINT
  5
C89E8
330
C89DC
100
AcDbEntity
  8
Defpoints
  6
Continuous
 62
     0
100
AcDbPoint
 10
880.1864513102849
 20
2.486681178055945
 30
0.0
  0
ENDBLK
  5
C89DE
330
C89DC
100
AcDbEntity
  8
0
100
AcDbBlockEnd
  0
BLOCK
  5
C89EB
330
C89EA
100
AcDbEntity
  8
0
100
AcDbBlockBegin
  2
*D1
 70
     1
 10
0.0
 20
0.0
 30
0.0
  3
*D1
  1

  0
LINE
  5
C89ED
330
C89EA
100
AcDbEntity
  8
0
  6
Continuous
 62
     0
370
    -2
100
AcDbLine
 10
876.7652003511189
 20
-0.0625000000000018
 30
0.0
 11
876.7652003511189
 21
-1.860517648052045
 31
0.0
  0
LINE
  5
C89EE
330
C89EA
100
AcDbEntity
  8
0
  6
Continuous
 62
     0
370
    -2
100
AcDbLine
 10
842.2652003863088
 20
-0.0625000000000018
 30
0.0
 11
842.2652003863088
 21
-1.860517648052045
 31
0.0
  0
LINE
  5
C89EF
330
C89EA
100
AcDbEntity
  8
0
  6
Continuous
 62
     0
370
    -2
100
AcDbLine
 10
876.585200351119
 20
-1.680517648052045
 30
0.0
 11
860.1002003687138
 21
-1.680517648052045
 31
0.0
  0
LINE
  5
C89F0
330
C89EA
100
AcDbEntity
  8
0
  6
Continuous
 62
     0
370
    -2
100
AcDbLine
 10
842.4452003863088
 20
-1.680517648052045
 30
0.0
 11
858.9302003687137
 21
-1.680517648052045
 31
0.0
  0
SOLID
  5
C89F1
330
C89EA
100
AcDbEntity
  8
0
  6
Continuous
 62
     0
100
AcDbTrace
 10
876.585200351119
 20
-1.650517648052045
 30
0.0
 11
876.585200351119
 21
-1.710517648052045
 31
0.0
 12
876.7652003511189
 22
-1.680517648052045
 32
0.0
 13
876.7652003511189
 23
-1.680517648052045
 33
0.0
  0
SOLID
  5
C89F2
330
C89EA
100
AcDbEntity
  8
0
  6
Continuous
 62
     0
100
AcDbTrace
 10
842.4452003863088
 20
-1.650517648052045
 30
0.0
 11
842.4452003863088
 21
-1.710517648052045
 31
0.0
 12
842.2652003863088
 22
-1.680517648052045
 32
0.0
 13
842.2652003863088
 23
-1.680517648052045
 33
0.0
  0
MTEXT
  5
C89F3
330
C89EA
100
AcDbEntity
  8
0
  6
Continuous
 62
     0
100
AcDbMText
 10
859.5152003687138
 20
-1.680517648052045
 30
0.0
 40
0.18
 41
0.0
 71
     5
 72
     1
  1
\A1;34.5000
 73
     1
 44
1.0
1001
ACAD
1000
MTEXTBEGIN
1070
    73
1070
     1
1070
    44
1040
1.0
1070
    74
1070
     0
1000
MTEXTEND
  0
POINT
  5
C89F4
330
C89EA
100
AcDbEntity
  8
Defpoints
  6
Continuous
 62
     0
100
AcDbPoint
 10
876.7652003511189
 20
-0.0000000000000018
 30
0.0
  0
POINT
  5
C89F5
330
C89EA
100
AcDbEntity
  8
Defpoints
  6
Continuous
 62
     0
100
AcDbPoint
 10
842.2652003863088
 20
-0.0000000000000018
 30
0.0
  0
POINT
  5
C89F6
330
C89EA
100
AcDbEntity
  8
Defpoints
  6
Continuous
 62
     0
100
AcDbPoint
 10
842.2652003863088
 20
-1.680517648052045
 30
0.0
  0
ENDBLK
  5
C89EC
330
C89EA
100
AcDbEntity
  8
0
100
AcDbBlockEnd
  0
ENDSEC
  0
SECTION
  2
ENTITIES
  0
3DSOLID
  5
C8A87
330
76218
100
AcDbEntity
  8
0
  6
Continuous
100
AcDbModelerGeometry
 70
     1
  1
koo lkn n o         
  1
ni ^ *+0;:,4 ^ *+0\^ [ nf ^ LR mnjqoqoqkmnk QK o  
  1
mjqlffffffffffffff fqfffffffffffffffj:rooh n:rono 
  1
=0;& {rn {n {rn {rn |
  1
3*2/ {rn {rn {m {o |
  1
,7:33 {rn {rn {rn {l {rn {n |
  1
9><: {rn {k {j {m {rn {i 90-(>-; ,6183: |
  1
9><: {rn {h {g {m {rn {f 90-(>-; ,6183: |
  1
300/ {rn {rn {no {l |
  1
/3>1:r,*-9><: {rn fngqhmklinjnfnngom noqinfiikoihimnmi lhqmkfffffikgnoojg nqglifofjlohlljijf:roni o n n o rnqglifofjlohlljijf:roni 90-(>-;@) V V V V |
  1
9><: {rn {nn {nm {m {rn {nl 90-(>-; ,6183: |
  1
300/ {rn {rn {nk {k |
  1
/3>1:r,*-9><: {rn fniqfhklinjnfnngom nnqnlmmmhmoojkkhim liqmkfffffikgoffkj o n o n o rnqglifofjlohlljijf:roni 90-(>-;@) V V V V |
  1
<0:;8: {rn {nj {ni {nh {ng -:):-,:; {j {rn |
  1
9><: {rn {nf {mo {m {rn {mn -:):-,:; ,6183: |
  1
300/ {rn {rn {mm {h |
  1
/3>1:r,*-9><: {rn fmoqkhklinjnfnngom fqlgmmmhmoojkkhini ngqfffffffikgoffkj n o rnqglifofjlohlljijf:roni rnqglifofjlohlljijf:roni o rn 90-(>-;@) V V V V |
  1
<0:;8: {rn {ml {mk {mj {mi 90-(>-; {g {rn |
  1
<0:;8: {rn {mh {no {mg {mf -:):-,:; {j {rn |
  1
<0:;8: {rn {no {mh {lo {ln -:):-,:; {j {rn |
  1
<0:;8: {rn {lm {ll {no {ng 90-(>-; {lk {rn |
  1
:;8: {rn {lj {li {nh {lh 90-(>-; |
  1
9><: {rn {lg {lf {m {rn {mn -:):-,:; ,6183: |
  1
300/ {rn {rn {ko {nn |
  1
/3>1:r,*-9><: {rn fniqfhklinjnfnngom fqlgmmmhmoojkkhini ngqfffffffikgofgln n o rnqglifofjlohlljijf:roni rnqglifofjlohlljijf:roni o rn 90-(>-;@) V V V V |
  1
<0:;8: {rn {kn {km {kl {kk 90-(>-; {nm {rn |
  1
<0:;8: {rn {kj {nk {ki {kh 90-(>-; {g {rn |
  1
<0:;8: {rn {nk {kj {kn {kg 90-(>-; {g {rn |
  1
<0:;8: {rn {kl {kf {nk {mi -:):-,:; {jo {rn |
  1
:;8: {rn {jn {jm {mj {jl 90-(>-; |
  1
<0:;8: {rn {ni {nj {jk {jj -:):-,:; {j {rn |
  1
<0:;8: {rn {ji {jh {nj {mf 90-(>-; {jg {rn |
  1
:;8: {rn {jf {lj {mg {io 90-(>-; |
  1
<0:;8: {rn {in {im {ni {ln 90-(>-; {lf {rn |
  1
:;8: {rn {li {il {lo {ik 90-(>-; |
  1
<0:;8: {rn {ij {nh {im {ii 90-(>-; {lk {rn |
  1
<0:;8: {rn {nh {ij {ji {ih 90-(>-; {lk {rn |
  1
300/ {rn {rn {ij {ig |
  1
):-+:' {rn {ih {if |
  1
):-+:' {rn {ii {ho |
  1
,+->687+r<*-): {rn fnhqgkflinjnfnngom hqilmmmhmoojkkhioh lhqmkfffffikgnoojg rn o nqglifofjlohlljijf:roni V V |
  1
9><: {rn {ig {hn {m {rn {hm 90-(>-; ,6183: |
  1
300/ {rn {rn {hl {nf |
  1
<0:;8: {rn {hk {ki {kf {hj 90-(>-; {mo {rn |
  1
<0:;8: {rn {hi {mm {mk {kg -:):-,:; {nm {rn |
  1
<0:;8: {rn {mm {hi {hh {hg -:):-,:; {nm {rn |
  1
<0:;8: {rn {hf {mj {mm {kk -:):-,:; {jo {rn |
  1
:;8: {rn {go {jn {kl {gn 90-(>-; |
  1
<0:;8: {rn {mk {ml {gm {gl 90-(>-; {g {rn |
  1
<0:;8: {rn {ko {gk {ml {kh -:):-,:; {mo {rn |
  1
:;8: {rn {jm {gj {ml {gi 90-(>-; |
  1
:;8: {rn {gh {jn {mk {gg 90-(>-; |
  1
<0:;8: {rn {mj {hf {ko {hj -:):-,:; {jo {rn |
  1
300/ {rn {gf {hf {fo |
  1
):-+:' {rn {kk {fn |
  1
):-+:' {rn {kh {fm |
  1
61+<*-):r<*-): {rn 90-(>-; $ :'><+<*- 1*-=, m 0/:1 m 
  1
 o m lqjikgiighnlkhihh m 
  1
 fmoqkhklinjnfnngnl nnqnlmmmhmoojkkhim fqlknhnmohjhlnkfll n 
  1
 fngqhmklinjnfnngom nnqnlmmmhmoojkkhim gqhilggffinijkhkoj nqknkmnljimlhmhjkg 
  1
 fniqfhklinjnfnnhfn nnqnlmmmhmoojkkhim fqlknhnmohjhlnkfll n 
  1
 o 
  1
 1*33@,*-9><: 
  1
 1*33@,*-9><: 
  1
 1*33=, 
  1
 1*33=, 
  1
 V V 
  1
 o 
  1
 o 
  1
 o 
  1
 Y n Y o " V V |
  1
<0:;8: {rn {fl {fk {mh {jj 90-(>-; {fj {rn |
  1
:;8: {rn {il {jf {jk {fi 90-(>-; |
  1
<0:;8: {rn {fh {mg {ll {ih -:):-,:; {jg {rn |
  1
<0:;8: {rn {mg {fh {fl {fg 90-(>-; {jg {rn |
  1
300/ {rn {rn {fh {ff |
  1
):-+:' {rn {fg {noo |
  1
,+->687+r<*-): {rn fmoqkhklinjnfnngom noqooofkjilkoglon lhqmkfffffikgnoojg o rn o V V |
  1
<0:;8: {rn {hl {lo {fk {non -:):-,:; {lf {rn |
  1
<0:;8: {rn {lo {hl {lm {ii -:):-,:; {lf {rn |
  1
):-+:' {rn {non {nom |
  1
,+->687+r<*-): {rn fniqfhklinjnfnngom noqooofkjilkoglon lhqmkfffffikgnoojg o n o V V |
  1
<0:;8: {rn {ll {lm {nol {nok 90-(>-; {lk {rn |
  1
:;8: {rn {li {noj {lm {noi 90-(>-; |
  1
:;8: {rn {noh {lj {ll {nog 90-(>-; |
  1
9><: {rn {nof {lk {m {rn {hm 90-(>-; ,6183: |
  1
/061+ {rn fmoqkhklinjnfnngom hqilmmmhmoojkkhini lhqmkfffffikgnoojg |
  1
/061+ {rn fniqfhklinjnfnngom hqilmmmhmoojkkhini lhqmkfffffikgnoojg |
  1
300/ {rn {rn {nno {lg |
  1
/3>1:r,*-9><: {rn fniqfhklinjnfnngom hqilmmmhmoojkkhini nqhkfffffikgoffkkh o rn ro rn o nqglifofjlohlljijf:roni 90-(>-;@) V V V V |
  1
<0:;8: {rn {im {in {nnn {nnm 90-(>-; {lf {rn |
  1
<0:;8: {rn {gk {ko {nnl {nnk -:):-,:; {mo {rn |
  1
:;8: {rn {jm {nnj {kf {nni 90-(>-; |
  1
<0:;8: {rn {km {kn {nnh {nng 90-(>-; {nm {rn |
  1
<0:;8: {rn {nnf {nno {km {hg 90-(>-; {hn {rn |
  1
:;8: {rn {go {nmo {hh {nmn 90-(>-; |
  1
<0:;8: {rn {kf {kl {nno {nmm -:):-,:; {jo {rn |
  1
):-+:' {rn {hg {nml |
  1
61+<*-):r<*-): {rn 90-(>-; $ :'><+<*- 1*-=, m 0/:1 m 
  1
 o m lqjikgiighnlkhihij m 
  1
 fmoqkhklinjnfnngom hqilmmmhmoojkkikin fqlknhnmohjhlnkfll n 
  1
 fmoqkhklinjnfnngom fqlgmmmhmoojkkhini gqhilggffinijkhkoj nqknkmnljimlhmhjkg 
  1
 fmoqkhklinjnfnngom nnqnlmmmhmoojkkghh fqlknhnmohjhlnkfll n 
  1
 o 
  1
 1*33@,*-9><: 
  1
 1*33@,*-9><: 
  1
 1*33=, 
  1
 1*33=, 
  1
 V V 
  1
 o 
  1
 o 
  1
 o 
  1
 Y n Y o " V V |
  1
<0:;8: {rn {nmk {nnh {kj {gl -:):-,:; {nmj {rn |
  1
:;8: {rn {gj {gh {gm {nmi 90-(>-; |
  1
<0:;8: {rn {ki {hk {nmk {nmh 90-(>-; {mo {rn |
  1
):-+:' {rn {nmh {nmg |
  1
,+->687+r<*-): {rn fniqfhklinjnfnnhfn nnqnlmmmhmoojkkhim noqlknhoflgglgmkif nqglifofjlohlljijf:roni o n V V |
  1
):-+:' {rn {nng {nmf |
  1
,+->687+r<*-): {rn fmoqkhklinjnfnngnl nnqnlmmmhmoojkkhim noqlknhoflgglgmkif rnqglifofjlohlljijf:roni o rn V V |
  1
300/ {rn {rn {nlo {fo |
  1
9><: {rn {nln {jo {m {rn {nlm 90-(>-; ,6183: |
  1
/061+ {rn fmoqkhklinjnfnngnl nnqnlmmmhmoojkkhim fqlknhnmohjhlnkfll |
  1
/061+ {rn fniqfhklinjnfnnhfn nnqnlmmmhmoojkkhim fqlknhnmohjhlnkfll |
  1
<0:;8: {rn {nll {jk {jh {fg -:):-,:; {fj {rn |
  1
<0:;8: {rn {jk {nll {in {non 90-(>-; {fj {rn |
  1
300/ {rn {rn {nll {nof |
  1
,+->687+r<*-): {rn fnhqgkflinjnfnngom nnqnlmmmhmoojkkhim lhqmkfffffikgnoojg n o rnqglifofjlohlljijf:roni V V |
  1
<0:;8: {rn {jh {ji {nlk {nlj 90-(>-; {jg {rn |
  1
:;8: {rn {nli {jf {jh {nlh 90-(>-; |
  1
9><: {rn {nlg {jg {m {rn {nl 90-(>-; ,6183: |
  1
/061+ {rn fmoqkhklinjnfnngom nnqnlmmmhmoojkkhim lhqmkfffffikgnoojg |
  1
:;8: {rn {nlf {il {fk {nko 90-(>-; |
  1
/061+ {rn fniqfhklinjnfnngom nnqnlmmmhmoojkkhim lhqmkfffffikgnoojg |
  1
<0:;8: {rn {nnn {nlk {ij {nok -:):-,:; {nkn {rn |
  1
:;8: {rn {noj {noh {nol {nkm 90-(>-; |
  1
):-+:' {rn {ii {nkl |
  1
,+->687+r<*-): {rn fniqfhklinjnfnnhfn hqilmmmhmoojkkhini llqmkffffjnfnfgnmh rnqglifofjlohlljijf:roni o rn V V |
  1
):-+:' {rn {ih {nkk |
  1
,+->687+r<*-): {rn fmoqkhklinjnfnngom hqilmmmhmoojkkhini liqmkfffffikgoffkj o o n V V |
  1
9><: {rn {ff {fj {m {rn {f 90-(>-; ,6183: |
  1
<0:;8: {rn {hh {nnl {hf {nmm 90-(>-; {hn {rn |
  1
<0:;8: {rn {nkj {nol {hl {nnm -:):-,:; {nkn {rn |
  1
:;8: {rn {nlf {noj {nnn {nki 90-(>-; |
  1
<0:;8: {rn {nno {nnf {hk {nnk 90-(>-; {hn {rn |
  1
:;8: {rn {nkh {nnj {nnl {nkg 90-(>-; |
  1
):-+:' {rn {nnk {nkf |
  1
61+<*-):r<*-): {rn 90-(>-; $ :'><+<*- 1*-=, m 0/:1 m 
  1
 o m lqjikgiighnlkhihij m 
  1
 fniqfhklinjnfnngom nnqnlmmmhmoojkkghh fqlknhnmohjhlnkfll n 
  1
 fniqfhklinjnfnngom fqlgmmmhmoojkkhini gqhilggffinijkhkoj nqknkmnljimlhmhjkg 
  1
 fniqfhklinjnfnngom hqilmmmhmoojkkikin fqlknhnmohjhlnkfll n 
  1
 o 
  1
 1*33@,*-9><: 
  1
 1*33@,*-9><: 
  1
 1*33=, 
  1
 1*33=, 
  1
 V V 
  1
 o 
  1
 o 
  1
 o 
  1
 Y n Y o " V V |
  1
<0:;8: {rn {gm {njo {hi {nng -:):-,:; {nmj {rn |
  1
:;8: {rn {gh {nmo {nnh {njn 90-(>-; |
  1
<0:;8: {rn {nnl {hh {njo {njm 90-(>-; {hn {rn |
  1
):-+:' {rn {njm {njl |
  1
,+->687+r<*-): {rn fmoqkhklinjnfnngnl hqilmmmhmoojkkhini noqlknhoflgglgmkif nqglifofjlohlljijf:roni o n V V |
  1
:;8: {rn {nnj {go {hf {njk 90-(>-; |
  1
/061+ {rn fmoqkhklinjnfnngnl hqilmmmhmoojkkhini fqlknhnmohjhlnkfll |
  1
<0:;8: {rn {njo {gm {gk {nmh -:):-,:; {nmj {rn |
  1
300/ {rn {njj {nnh {nji |
  1
61+<*-):r<*-): {rn 90-(>-; $ :'><+<*- 1*-=, m 0/:1 m 
  1
 o m lqjikgijlojgijghki m 
  1
 fniqfhklinjnfnngli nnqnlmmmhmoojkkhim nnqlknhoihonollkkj n 
  1
 fngqhmklinjnfnngom nnqnlmmmhmoojkkhim nnqfnfjmnhhgjkmfjg nqknkmnljimlhllljm 
  1
 fmoqkhklinjnfnnhji nnqnlmmmhmoojkkhim nnqlknhoihonollkkj n 
  1
 o 
  1
 1*33@,*-9><: 
  1
 1*33@,*-9><: 
  1
 1*33=, 
  1
 1*33=, 
  1
 V V 
  1
 o 
  1
 o 
  1
 o 
  1
 Y n Y o " V V |
  1
:;8: {rn {nkh {gj {nmk {njh 90-(>-; |
  1
/061+ {rn fniqfhklinjnfnngom nnqnlmmmhmoojkkhim nnqlknhoihonollkkj |
  1
/061+ {rn fmoqkhklinjnfnngom nnqnlmmmhmoojkkhim nnqlknhoihonollkkj |
  1
<0:;8: {rn {nlo {nlo {njg {njf -:):-,:; {gf {rn |
  1
9><: {rn {nio {nin {m {rn {nim 90-(>-; ,6183: |
  1
<01:r,*-9><: {rn fngqhmklinjnfnngom fqlgmmmhmoojkkhini gqfigngofmfolhffgg rnqglifofjlohlljijf:roni o rn o nqihkfligiiilomkfn o n V V roqfoiogkkilglnokgki oqkmlofigkffnomhfki nqihkfligiiilomkfn 90-(>-; V V V V |
  1
<0:;8: {rn {fk {fl {nkj {nil 90-(>-; {fj {rn |
  1
<0:;8: {rn {nol {nkj {fh {nlj -:):-,:; {nkn {rn |
  1
:;8: {rn {noh {nli {nlk {nik 90-(>-; |
  1
):-+:' {rn {nlj {nij |
  1
,+->687+r<*-): {rn fmoqkhklinjnfnngom nnqnlmmmhmoojkkhim liqmkfffffikgoffkj o o n V V |
  1
9><: {rn {nii {nih {m {rn {nig 90-(>-; ,6183: |
  1
):-+:' {rn {non {nif |
  1
,+->687+r<*-): {rn fniqfhklinjnfnnhfn nnqnlmmmhmoojkkhim llqmkffffjnfnfgnmh nqglifofjlohlljijf:roni o n V V |
  1
300/ {rn {nho {nol {nii |
  1
61+<*-):r<*-): {rn 90-(>-; $ :'><+<*- 1*-=, m 0/:1 m 
  1
 o m lqjikgijkokojjojkj m 
  1
 fniqfhklinjnfnnhfn hqilmmmhmoojkkhini loqmkffffohljginfi n 
  1
 fngqhmklinjnfnngom hqilmmmhmoojkkhini mfqihmngljjkhljjnn nqknkmnljimlhlhkjj 
  1
 fmoqkhklinjnfnngnl hqilmmmhmoojkkhini loqmkffffohljginfi n 
  1
 o 
  1
 1*33@,*-9><: 
  1
 1*33@,*-9><: 
  1
 1*33=, 
  1
 1*33=, 
  1
 V V 
  1
 o 
  1
 o 
  1
 o 
  1
 Y n Y o " V V |
  1
/061+ {rn fniqfhklinjnfnnhfn hqilmmmhmoojkkhini loqmkffffohljginfi |
  1
/061+ {rn fmoqkhklinjnfnngnl hqilmmmhmoojkkhini loqmkffffohljginfi |
  1
<0:;8: {rn {nlk {nnn {nll {nil -:):-,:; {nkn {rn |
  1
61+<*-):r<*-): {rn 90-(>-; $ :'><+<*- 1*-=, m 0/:1 m 
  1
 o m lqjikgijkokojjoj m 
  1
 fniqfhklinjnfnngom nnqnlmmmhmoojkkghl loqmkffffohljginfi n 
  1
 fniqfhklinjnfnngom fqlgmmmhmoojkkhini mfqihmngljjkhljjnn nqknkmnljimlhlhkjj 
  1
 fniqfhklinjnfnngom hqilmmmhmoojkkikfi loqmkffffohljginfi n 
  1
 o 
  1
 1*33@,*-9><: 
  1
 1*33@,*-9><: 
  1
 1*33=, 
  1
 1*33=, 
  1
 V V 
  1
 o 
  1
 o 
  1
 o 
  1
 Y n Y o " V V |
  1
):-+:' {rn {njm {nhn |
  1
,+->687+r<*-): {rn fniqfhklinjnfnnhfn hqilmmmhmoojkkhini noqlknhoflgglgmkif rnqglifofjlohlljijf:roni o rn V V |
  1
/061+ {rn fniqfhklinjnfnnhfn hqilmmmhmoojkkhini fqlknhnmohjhlnkfll |
  1
<0:;8: {rn {nnh {nmk {nnf {njm -:):-,:; {nmj {rn |
  1
61+<*-):r<*-): {rn 90-(>-; $ :'><+<*- 1*-=, m 0/:1 m 
  1
 o m lqjikgijlojgijghlh m 
  1
 fmoqkhklinjnfnngom nnqnlmmmhmoojkklih nnqlknhoihonollkkj n 
  1
 fmoqkhklinjnfnngom fqlgmmmhmoojkkhini nnqfnfjmnhhgjkmfjg nqknkmnljimlhllljm 
  1
 fmoqkhklinjnfnngom hqilmmmhmoojkjnjj nnqlknhoihonollkkj n 
  1
 o 
  1
 1*33@,*-9><: 
  1
 1*33@,*-9><: 
  1
 1*33=, 
  1
 1*33=, 
  1
 V V 
  1
 o 
  1
 o 
  1
 o 
  1
 Y n Y o " V V |
  1
:;8: {rn {nmo {nkh {njo {nhm 90-(>-; |
  1
/061+ {rn fmoqkhklinjnfnngom hqilmmmhmoojkkhini nnqlknhoihonollkkj |
  1
61+<*-):r<*-): {rn 90-(>-; $ :'><+<*- 1*-=, m 0/:1 m 
  1
 o m lqjikgiighnlkhihh m 
  1
 fniqfhklinjnfnnhfn hqilmmmhmoojkkhini fqlknhnmohjhlnkfll n 
  1
 fngqhmklinjnfnngom hqilmmmhmoojkkhini gqhilggffinijkhkoj nqknkmnljimlhmhjkg 
  1
 fmoqkhklinjnfnngnl hqilmmmhmoojkkhini fqlknhnmohjhlnkfll n 
  1
 o 
  1
 1*33@,*-9><: 
  1
 1*33@,*-9><: 
  1
 1*33=, 
  1
 1*33=, 
  1
 V V 
  1
 o 
  1
 o 
  1
 o 
  1
 Y n Y o " V V |
  1
300/ {rn {rn {nhl {nji |
  1
9><: {rn {fo {nmj {m {rn {nhk 90-(>-; ,6183: |
  1
61+<*-):r<*-): {rn 90-(>-; $ :'><+<*- 1*-=, m 0/:1 m 
  1
 o m lqjikgijlojgijghlh m 
  1
 fniqfhklinjnfnngom hqilmmmhmoojkjnjj nnqlknhoihonollkkj n 
  1
 fniqfhklinjnfnngom fqlgmmmhmoojkkhini nnqfnfjmnhhgjkmfjg nqknkmnljimlhllljm 
  1
 fniqfhklinjnfnngom nnqnlmmmhmoojkklih nnqlknhoihonollkkj n 
  1
 o 
  1
 1*33@,*-9><: 
  1
 1*33@,*-9><: 
  1
 1*33=, 
  1
 1*33=, 
  1
 V V 
  1
 o 
  1
 o 
  1
 o 
  1
 Y n Y o " V V |
  1
<0:;8: {rn {njg {njg {nlo {njf 90-(>-; {nhj {rn |
  1
:;8: {rn {nhi {nhi {njg {nhh 90-(>-; |
  1
9><: {rn {rn {nhg {m {rn {nhf 90-(>-; ,6183: |
  1
300/ {rn {nhj {ngo {nln |
  1
<01:r,*-9><: {rn fngqhmklinjnfnngom fqlgmmmhmoojkkhini jqmmihkomjmmnghkih rnqglifofjlohlljijf:roni o rn o oqihnkkkghfjllmkonh o n V V roqoiolmfjnlginkfmhjl oqffgnhgjnjfhijfkmk oqihnkkkghfjllmkonh 90-(>-; V V V V |
  1
:;8: {rn {nli {nlf {nkj {ngn 90-(>-; |
  1
61+<*-):r<*-): {rn 90-(>-; $ :'><+<*- 1*-=, m 0/:1 m 
  1
 o m lqjikgijkokojjoj m 
  1
 fmoqkhklinjnfnngom hqilmmmhmoojkkikfi loqmkffffohljginfi n 
  1
 fmoqkhklinjnfnngom fqlgmmmhmoojkkhini mfqihmngljjkhljjnn nqknkmnljimlhlhkjj 
  1
 fmoqkhklinjnfnngom nnqnlmmmhmoojkkghl loqmkffffohljginfi n 
  1
 o 
  1
 1*33@,*-9><: 
  1
 1*33@,*-9><: 
  1
 1*33=, 
  1
 1*33=, 
  1
 V V 
  1
 o 
  1
 o 
  1
 o 
  1
 Y n Y o " V V |
  1
/061+ {rn fmoqkhklinjnfnngnl nnqnlmmmhmoojkkhim loqmkffffohljginfi |
  1
9><: {rn {ngm {nkn {m {rn {ngl 90-(>-; ,6183: |
  1
300/ {rn {rn {ngk {nlg |
  1
/3>1:r,*-9><: {rn fngqhmklinjnfnngom fqjinhjgifhhmljnji nqhj rnqglifofjlohlljijf:roni o rn rn o nqglifofjlohlljijf:roni 90-(>-;@) V V V V |
  1
/061+ {rn fniqfhklinjnfnnhfn nnqnlmmmhmoojkkhim loqmkffffohljginfi |
  1
300/ {rn {rn {ngj {nii |
  1
/061+ {rn fniqfhklinjnfnngom hqilmmmhmoojkkhini nnqlknhoihonollkkj |
  1
61+<*-):r<*-): {rn 90-(>-; $ :'><+<*- 1*-=, m 0/:1 m 
  1
 o m lqjikgijlojgijghki m 
  1
 fmoqkhklinjnfnnhji hqilmmmhmoojkkhini nnqlknhoihonollkkj n 
  1
 fngqhmklinjnfnngom hqilmmmhmoojkkhini nnqfnfjmnhhgjkmfjg nqknkmnljimlhllljm 
  1
 fniqfhklinjnfnngli hqilmmmhmoojkkhini nnqlknhoihonollkkj n 
  1
 o 
  1
 1*33@,*-9><: 
  1
 1*33@,*-9><: 
  1
 1*33=, 
  1
 1*33=, 
  1
 V V 
  1
 o 
  1
 o 
  1
 o 
  1
 Y n Y o " V V |
  1
<0:;8: {rn {nhl {nhl {ngi {ngh 90-(>-; {njj {rn |
  1
<01:r,*-9><: {rn fngqhmklinjnfnngom fqlgmmmhmoojkkhini nnqhnjmllmfgfimoim rnqglifofjlohlljijf:roni o rn o nqihkfligiiilomkfn o n V V oqfoiogiklfoklomfgg oqkmlofminfgimhkjhh nqihkfligiiilomkfn 90-(>-; V V V V |
  1
300/ {rn {rn {njg {nln |
  1
):-+:' {rn {njf {ngg |
  1
:336/,:r<*-): {rn fngqhmklinjnfnngom fqlgmmmhmoojkkhini gqjfkikfhgmlkkjokl rnqglifofjlohlljijf:roni o rn o oqghkffffffnohkffh o n V V |
  1
300/ {rn {ngf {nfo {nio |
  1
+0-*,r,*-9><: {rn fngqhmklinjnfnngom fqlgmmmhmoojkkhini nqghmnnnfnjngjhifm rnqglifofjlohlljijf:roni o rn oqlkjhhhlingjmolnon oqnmmglmjnfjjfhjomn rn o nqglifofjlohlljijf:roni 90-(>-;@) V V V V |
  1
<0:;8: {rn {ngo {ngo {nfn {nfm -:):-,:; {nin {rn |
  1
61+<*-):r<*-): {rn 90-(>-; $ :'><+<*- 1*-=, m 0/:1 m 
  1
 o m lqjikgijkokojjojkj m 
  1
 fmoqkhklinjnfnngnl nnqnlmmmhmoojkkhim loqmkffffohljginfi n 
  1
 fngqhmklinjnfnngom nnqnlmmmhmoojkkhim mfqihmngljjkhljjnn nqknkmnljimlhlhkjj 
  1
 fniqfhklinjnfnnhfn nnqnlmmmhmoojkkhim loqmkffffohljginfi n 
  1
 o 
  1
 1*33@,*-9><: 
  1
 1*33@,*-9><: 
  1
 1*33=, 
  1
 1*33=, 
  1
 V V 
  1
 o 
  1
 o 
  1
 o 
  1
 Y n Y o " V V |
  1
9><: {rn {nfl {nfk {m {rn {nfj 90-(>-; ,6183: |
  1
<01:r,*-9><: {rn fngqhmklinjnfnngom fqlgmmmhmoojkkhini mfqghikhmnfofgjgjn rnqglifofjlohlljijf:roni o rn o nqihkfligihfgmfifh o n V V roqfoiogilnjnjjfjgfk oqkmlofmggjnhiikljn nqihkfligihfgmfifh 90-(>-; V V V V |
  1
<0:;8: {rn {ngk {ngk {nfo {nfi 90-(>-; {nih {rn |
  1
<0:;8: {rn {ngj {ngj {nfh {nfg -:):-,:; {nho {rn |
  1
<0:;8: {rn {ngi {ngi {nhl {ngh -:):-,:; {nff {rn |
  1
:;8: {rn {moo {moo {nhl {mon 90-(>-; |
  1
/061+ {rn fngqhmklinjnfnngom noqmjhmmhnffijmmin gqjfkikfhgmlkkjokl |
  1
300/ {rn {rn {nfn {nio |
  1
<0:;8: {rn {nfo {nfo {ngk {nfi -:):-,:; {nhg {rn |
  1
<0:;8: {rn {nfn {nfn {ngo {nfm 90-(>-; {ngf {rn |
  1
:;8: {rn {mom {mom {nfn {mol 90-(>-; |
  1
9><: {rn {mok {moj {m {rn {moi 90-(>-; ,6183: |
  1
300/ {rn {moh {mog {ngm |
  1
+0-*,r,*-9><: {rn fngqhmklinjnfnngom fqlgmmmhmoojkkhini mfqlfljihmlnhlkofi rnqglifofjlohlljijf:roni o rn nqmhknofkgnljkggoi roqknlgmjfhgmfjkilgi rn o nqglifofjlohlljijf:roni 90-(>-;@) V V V V |
  1
:;8: {rn {mof {mof {ngk {mno 90-(>-; |
  1
<0:;8: {rn {nfh {nfh {ngj {nfg 90-(>-; {moh {rn |
  1
:;8: {rn {mnn {mnn {nfh {mnm 90-(>-; |
  1
300/ {rn {mnl {ngi {mnk |
  1
):-+:' {rn {ngh {mnj |
  1
:336/,:r<*-): {rn fngqhmklinjnfnngom fqlgmmmhmoojkkhini nmqogghjfgfigfoihf rnqglifofjlohlljijf:roni o rn o oqghkffffffnohkffh o n V V |
  1
):-+:' {rn {nfm {mni |
  1
:336/,:r<*-): {rn fngqhmklinjnfnngom fqlgmmmhmoojkkhini nqgjgglohmmofmfgfm rnqglifofjlohlljijf:roni o rn o oqkihggfhjffjgfgoil o n V V |
  1
9><: {rn {mnh {mng {m {rn {mnf 90-(>-; ,6183: |
  1
300/ {rn {mmo {mmn {nfl |
  1
+0-*,r,*-9><: {rn fngqhmklinjnfnngom fqlgmmmhmoojkkhini miqggfmhnlhhgjhnff rnqglifofjlohlljijf:roni o rn roqgohggimfglggjjkik mqfmhohonjkkfkhomf rn o nqglifofjlohlljijf:roni 90-(>-;@) V V V V |
  1
300/ {rn {rn {nfh {ngm |
  1
<0:;8: {rn {mog {mog {mmm {mml -:):-,:; {nfk {rn |
  1
):-+:' {rn {nfi {mmk |
  1
:336/,:r<*-): {rn fngqhmklinjnfnngom fqlgmmmhmoojkkhini nqhj rnqglifofjlohlljijf:roni o rn o oqljfoimffkljhjofgg o n V V |
  1
):-+:' {rn {nfg {mmj |
  1
:336/,:r<*-): {rn fngqhmklinjnfnngom fqlgmmmhmoojkkhini mfqjomfkjloglgjjoi rnqglifofjlohlljijf:roni o rn o oqghjooooongnmfkmig o n V V |
  1
300/ {rn {rn {mmi {mnk |
  1
9><: {rn {nji {nff {m {rn {mmh 90-(>-; ,6183: |
  1
/061+ {rn fngqhmklinjnfnngom noqmjhmmhnffijmmin nmqogghjfgfigfoihf |
  1
/061+ {rn fngqhmklinjnfnngom fqgjonnifiojolhkmm nqgjgglohmmofmfgfm |
  1
9><: {rn {mmg {mmf {m {rn {mlo 90-(>-; ,6183: |
  1
300/ {rn {mln {mlm {mok |
  1
+0-*,r,*-9><: {rn fngqhmklinjnfnngom fqlgmmmhmoojkkhini mgqkofmoilnihhmmh rnqglifofjlohlljijf:roni o rn nqilghohkgljnofgin oqokigojlkflnnhinkki rn o nqglifofjlohlljijf:roni 90-(>-;@) V V V V |
  1
300/ {rn {rn {mmm {nfl |
  1
<0:;8: {rn {mmn {mmn {mll {mlk -:):-,:; {moj {rn |
  1
<0:;8: {rn {mmm {mmm {mog {mml 90-(>-; {mmo {rn |
  1
:;8: {rn {mlj {mlj {mmm {mli 90-(>-; |
  1
/061+ {rn fngqhmklinjnfnngom fqhknmfonfkfommhnk nqhj |
  1
/061+ {rn fngqhmklinjnfnngom noqmjhmmhmomljhhok mfqjomfkjloglgjjoi |
  1
<0:;8: {rn {mmi {mmi {mlh {mlg 90-(>-; {mnl {rn |
  1
+0-*,r,*-9><: {rn fngqhmklinjnfnngom fqlgmmmhmoojkkhini nmqhhkjfiihojnhmnm rnqglifofjlohlljijf:roni o rn roqognoommkijlmnkmojl nqnhijigokgfnkkhjf rn o nqglifofjlohlljijf:roni 90-(>-;@) V V V V |
  1
9><: {rn {mlf {mko {m {rn {mkn 90-(>-; ,6183: |
  1
300/ {rn {mkm {mkl {mnh |
  1
+0-*,r,*-9><: {rn fngqhmklinjnfnngom fqlgmmmhmoojkkhini mfqfmggfoimihmjlm rnqglifofjlohlljijf:roni o rn roqgohiigiiojfljonmf mqfmihilgnjfnmllgk rn o nqglifofjlohlljijf:roni 90-(>-;@) V V V V |
  1
300/ {rn {rn {mll {mok |
  1
<0:;8: {rn {mlm {mlm {mkk {mkj -:):-,:; {mng {rn |
  1
<0:;8: {rn {mll {mll {mmn {mlk 90-(>-; {mln {rn |
  1
:;8: {rn {mki {mki {mll {mkh 90-(>-; |
  1
):-+:' {rn {mml {mkg |
  1
:336/,:r<*-): {rn fngqhmklinjnfnngom fqlgmmmhmoojkkhini mfqmgkngfhlnhjfmgk rnqglifofjlohlljijf:roni o rn o oqghkfffgklhhmofgmh o n V V |
  1
<0:;8: {rn {mlh {mlh {mmi {mlg -:):-,:; {mkf {rn |
  1
:;8: {rn {mjo {mjo {mmi {mjn 90-(>-; |
  1
9><: {rn {mjm {mjl {m {rn {mjk 90-(>-; ,6183: |
  1
300/ {rn {mjj {mji {mmg |
  1
+0-*,r,*-9><: {rn fngqhmklinjnfnngom fqlgmmmhmoojkkhini mhqkmkgmomihfkmgfn rnqglifofjlohlljijf:roni o rn nqmhkfjknkfmikgngk roqknkilfgmgfjngjmkm rn o nqglifofjlohlljijf:roni 90-(>-;@) V V V V |
  1
300/ {rn {rn {mkk {mnh |
  1
<0:;8: {rn {mkl {mkl {mjh {mjg -:):-,:; {mmf {rn |
  1
<0:;8: {rn {mkk {mkk {mlm {mkj 90-(>-; {mkm {rn |
  1
:;8: {rn {mjf {mjf {mkk {mio 90-(>-; |
  1
):-+:' {rn {mlk {min |
  1
:336/,:r<*-): {rn fngqhmklinjnfnngom fqlgmmmhmoojkkhini mgqklkfhhohfnhfkhj rnqglifofjlohlljijf:roni o rn o nqihhhhflmnjihfmng o n V V |
  1
/061+ {rn fngqhmklinjnfnngom noqmjhmmhokklnigi mfqmgkngfhlnhjfmgk |
  1
300/ {rn {mim {mlh {mil |
  1
):-+:' {rn {mlg {mik |
  1
:336/,:r<*-): {rn fngqhmklinjnfnngom fqlgmmmhmoojkkhini nmqjhjoihnlgfllfki rnqglifofjlohlljijf:roni o rn o nqohgjmliijnomigik o n V V |
  1
9><: {rn {mij {mii {m {rn {mih 90-(>-; ,6183: |
  1
300/ {rn {mig {mif {mlf |
  1
+0-*,r,*-9><: {rn fngqhmklinjnfnngom fqlgmmmhmoojkkhini mkqfmojmgnjflljjok rnqglifofjlohlljijf:roni o rn roqgohggikjmmmmomjok mqfmhohonjkkfkhomf rn o nqglifofjlohlljijf:roni 90-(>-;@) V V V V |
  1
300/ {rn {rn {mjh {mmg |
  1
<0:;8: {rn {mji {mji {mho {mhn -:):-,:; {mko {rn |
  1
<0:;8: {rn {mjh {mjh {mkl {mjg 90-(>-; {mjj {rn |
  1
:;8: {rn {mhm {mhm {mjh {mhl 90-(>-; |
  1
):-+:' {rn {mkj {mhk |
  1
:336/,:r<*-): {rn fngqhmklinjnfnngom fqlgmmmhmoojkkhini mgqlglgjhgjiogolk rnqglifofjlohlljijf:roni o rn o nqihgojkioghjmmlfm o n V V |
  1
/061+ {rn fngqhmklinjnfnngom nnqoioooijmmnnmigl mgqklkfhhohfnhfkhj |
  1
300/ {rn {rn {mhj {mil |
  1
9><: {rn {mnk {mkf {m {rn {mhi 90-(>-; ,6183: |
  1
/061+ {rn fngqhmklinjnfnngom noqkiohjogijikhkkg nmqjhjoihnlgfllfki |
  1
9><: {rn {mhh {mhg {m {rn {mhf 90-(>-; ,6183: |
  1
300/ {rn {mgo {mgn {mjm |
  1
+0-*,r,*-9><: {rn fngqhmklinjnfnngom fqlgmmmhmoojkkhini miqkkokilofgmjojhj rnqglifofjlohlljijf:roni o rn nqilghohlmfihhjnlf oqokigojlkflnnhinkki rn o nqglifofjlohlljijf:roni 90-(>-;@) V V V V |
  1
300/ {rn {rn {mho {mlf |
  1
<0:;8: {rn {mif {mif {mgm {mgl -:):-,:; {mjl {rn |
  1
<0:;8: {rn {mho {mho {mji {mhn 90-(>-; {mig {rn |
  1
:;8: {rn {mgk {mgk {mho {mgj 90-(>-; |
  1
):-+:' {rn {mjg {mgi |
  1
:336/,:r<*-): {rn fngqhmklinjnfnngom fqlgmmmhmoojkkhini mhqjlknfljkfkfjnhn rnqglifofjlohlljijf:roni o rn o oqghkfffjiojkhfnkin o n V V |
  1
/061+ {rn fngqhmklinjnfnngom nnqoiomgngofmfhoon mgqlglgjhgjiogolk |
  1
<0:;8: {rn {mhj {mhj {mgh {mgg 90-(>-; {mim {rn |
  1
+0-*,r,*-9><: {rn fngqhmklinjnfnngom fqlgmmmhmoojkkhini nmqinjokkhkoigifmi rnqglifofjlohlljijf:roni o rn oqgiinkhoimjifghhfj oqmninoijmkjlnfffgi rn o nqglifofjlohlljijf:roni 90-(>-;@) V V V V |
  1
9><: {rn {mgf {mfo {m {rn {mfn 90-(>-; ,6183: |
  1
300/ {rn {mfm {mfl {mij |
  1
+0-*,r,*-9><: {rn fngqhmklinjnfnngom fqlgmmmhmoojkkhini mhqfionkhkogmolimj rnqglifofjlohlljijf:roni o rn roqgohiiggnkkmifhnif mqfmihilgnjfnmllgk rn o nqglifofjlohlljijf:roni 90-(>-;@) V V V V |
  1
300/ {rn {rn {mgm {mjm |
  1
<0:;8: {rn {mgn {mgn {mfk {mfj -:):-,:; {mii {rn |
  1
<0:;8: {rn {mgm {mgm {mif {mgl 90-(>-; {mgo {rn |
  1
:;8: {rn {mfi {mfi {mgm {mfh 90-(>-; |
  1
):-+:' {rn {mhn {mfg |
  1
:336/,:r<*-): {rn fngqhmklinjnfnngom fqlgmmmhmoojkkhini mhqlnjkkijnlmlhjgf rnqglifofjlohlljijf:roni o rn o oqghkfffigfflgimhgh o n V V |
  1
/061+ {rn fngqhmklinjnfnngom noqmjhmmihinofmihi mhqjlknfljkfkfjnhn |
  1
<0:;8: {rn {mgh {mgh {mhj {mgg -:):-,:; {mff {rn |
  1
:;8: {rn {loo {loo {mhj {lon 90-(>-; |
  1
9><: {rn {lom {lol {m {rn {lok 90-(>-; ,6183: |
  1
300/ {rn {loj {loi {mhh |
  1
+0-*,r,*-9><: {rn fngqhmklinjnfnngom fqlgmmmhmoojkkhini mjqkjioinmiflihilg rnqglifofjlohlljijf:roni o rn nqmhknjmfkhgngfmmf roqknlghnlhiliinfggn rn o nqglifofjlohlljijf:roni 90-(>-;@) V V V V |
  1
300/ {rn {rn {mfk {mij |
  1
<0:;8: {rn {mfl {mfl {loh {log -:):-,:; {mhg {rn |
  1
<0:;8: {rn {mfk {mfk {mgn {mfj 90-(>-; {mfm {rn |
  1
:;8: {rn {lof {lof {mfk {lno 90-(>-; |
  1
):-+:' {rn {mgl {lnn |
  1
:336/,:r<*-): {rn fngqhmklinjnfnngom fqlgmmmhmoojkkhini miqkiimllgioijhhg rnqglifofjlohlljijf:roni o rn o nqihhhhfnihhlkkkfi o n V V |
  1
/061+ {rn fngqhmklinjnfnngom noqmjhmmigfokgllgf mhqlnjkkijnlmlhjgf |
  1
300/ {rn {lnm {mgh {lnl |
  1
):-+:' {rn {mgg {lnk |
  1
:336/,:r<*-): {rn fngqhmklinjnfnngom fqlgmmmhmoojkkhini nmqhlihkknghjiglm rnqglifofjlohlljijf:roni o rn o nqokkhmglkjlfnoifi o n V V |
  1
9><: {rn {lnl {lnj {m {rn {lni 90-(>-; ,6183: |
  1
300/ {rn {lnh {lng {mgf |
  1
+0-*,r,*-9><: {rn fngqhmklinjnfnngom fqlgmmmhmoojkkhini mgqkinjhloifniiggf rnqglifofjlohlljijf:roni o rn kqjofiokffjkoomomh rkqhgihkffnilhhljhj rn o nqglifofjlohlljijf:roni 90-(>-;@) V V V V |
  1
300/ {rn {rn {loh {mhh |
  1
<0:;8: {rn {loi {loi {lnf {lmo -:):-,:; {mfo {rn |
  1
<0:;8: {rn {loh {loh {mfl {log 90-(>-; {loj {rn |
  1
:;8: {rn {lmn {lmn {loh {lmm 90-(>-; |
  1
):-+:' {rn {mfj {lml |
  1
:336/,:r<*-): {rn fngqhmklinjnfnngom fqlgmmmhmoojkkhini miqknjnnkilhjjgikj rnqglifofjlohlljijf:roni o rn o nqihgojkkjkfnghih o n V V |
  1
/061+ {rn fngqhmklinjnfnngom nnqoioooiligmhfmnn miqkiimllgioijhhg |
  1
300/ {rn {rn {lmk {lnl |
  1
9><: {rn {mil {mff {m {rn {lmj 90-(>-; ,6183: |
  1
/061+ {rn fngqhmklinjnfnngom noqkmifjjjkjfljgln nmqhlihkknghjiglm |
  1
300/ {rn {lmi {lmh {lom |
  1
<01:r,*-9><: {rn fngqhmklinjnfnngom fqlgmmmhmoojkkhini ngqhgomnjmglhiimnn rnqglifofjlohlljijf:roni o rn o nqmgomjjfokmojfkfi o n V V roqoifjojjllgjoiggimj oqffhjgnjijfhokghfh nqmgomjjfokmojfkfi 90-(>-; V V V V |
  1
300/ {rn {rn {lnf {mgf |
  1
<0:;8: {rn {lng {lng {lmg {lmf -:):-,:; {lol {rn |
  1
<0:;8: {rn {lnf {lnf {loi {lmo 90-(>-; {lnh {rn |
  1
:;8: {rn {llo {llo {lnf {lln 90-(>-; |
  1
):-+:' {rn {log {llm |
  1
:336/,:r<*-): {rn fngqhmklinjnfnngom fqlgmmmhmoojkkhini mjqjijkjollofhlkhi rnqglifofjlohlljijf:roni o rn o oqghkfffkoihnkkkmkl o n V V |
  1
/061+ {rn fngqhmklinjnfnngom nnqoiomgnijjkiljmf miqknjnnkilhjjgikj |
  1
<0:;8: {rn {lmk {lmk {lmh {lll 90-(>-; {lnm {rn |
  1
<01:r,*-9><: {rn fngqhmklinjnfnngom fqlgmmmhmoojkkhini nmqgjomjmnjfgflkkk rnqglifofjlohlljijf:roni o rn o oqfjfgiknhmmkfmgkii o n V V oqjfghfkkgomnljoihf oqgoofomhmmmmkonknj oqfjfgiknhmmkfmgkii 90-(>-; V V V V |
  1
300/ {rn {rn {lmg {lom |
  1
<0:;8: {rn {lmh {lmh {lmk {lll -:):-,:; {lnj {rn |
  1
<0:;8: {rn {lmg {lmg {lng {lmf 90-(>-; {lmi {rn |
  1
:;8: {rn {llk {llk {lmg {llj 90-(>-; |
  1
):-+:' {rn {lmo {lli |
  1
:336/,:r<*-): {rn fngqhmklinjnfnngom fqlgmmmhmoojkkhini mjqlkiiiffkmmggmjg rnqglifofjlohlljijf:roni o rn o oqghjoooomhjgolinnn o n V V |
  1
/061+ {rn fngqhmklinjnfnngom noqmjhmmiiohmjfmok mjqjijkjollofhlkhi |
  1
:;8: {rn {llh {llh {lmk {llg 90-(>-; |
  1
):-+:' {rn {lmf {llf |
  1
:336/,:r<*-): {rn fngqhmklinjnfnngom fqlgmmmhmoojkkhini mkqjfiihokljlnlhk rnqglifofjlohlljijf:roni o rn o nqigjjnngofloklffj o n V V |
  1
/061+ {rn fngqhmklinjnfnngom noqmjhmmhmmgnmjnml mjqlkiiiffkmmggmjg |
  1
):-+:' {rn {lll {lko |
  1
:336/,:r<*-): {rn fngqhmklinjnfnngom fqlgmmmhmoojkkhini nmqfilhionlmmngign rnqglifofjlohlljijf:roni o rn o oqghkffffffnohkffh o n V V |
  1
/061+ {rn fngqhmklinjnfnngom nnqoihhlfoofgkfnin mkqjfiihokljlnlhk |
  1
/061+ {rn fngqhmklinjnfnngom noqmjhmmhnffijmmin nmqfilhionlmmngign |
  0
ENDSEC
  0
SECTION
  2
OBJECTS
  0
DICTIONARY
  5
ABCC
330
0
100
AcDbDictionary
281
     1
  3
ACAD_COLOR
350
C89A6
  3
ACAD_GROUP
350
ABCD
  3
ACAD_LAYOUT
350
C89CE
  3
ACAD_MATERIAL
350
C8979
  3
ACAD_MLEADERSTYLE
350
C89CB
  3
ACAD_MLINESTYLE
350
ABC1B
  3
ACAD_PERSUBENTMGR
350
C8A90
  3
ACAD_PLOTSETTINGS
350
C89CF
  3
ACAD_PLOTSTYLENAME
350
C8977
  3
ACAD_SCALELIST
350
C89A9
  3
ACAD_TABLESTYLE
350
C89A7
  3
ACAD_VISUALSTYLE
350
C8992
  3
ACDB_RECOMPOSE_DATA
350
C8AD1
  3
AcDbVariableDictionary
350
C8A94
  3
DWGPROPS
350
C8AD2
  0
DICTIONARY
  5
C8A92
330
6EA9B
100
AcDbDictionary
280
     1
281
     1
  3
ADSK_XREC_LAYER_RECONCILED
360
C8A93
  0
DICTIONARY
  5
C89FE
330
76218
100
AcDbDictionary
280
     1
281
     1
  3
ACAD_SORTENTS
360
C89FF
  0
DICTIONARY
  5
C89A6
102
{ACAD_REACTORS
330
ABCC
102
}
330
ABCC
100
AcDbDictionary
281
     1
  0
DICTIONARY
  5
ABCD
102
{ACAD_REACTORS
330
ABCC
102
}
330
ABCC
100
AcDbDictionary
281
     1
  0
DICTIONARY
  5
C89CE
102
{ACAD_REACTORS
330
ABCC
102
}
330
ABCC
100
AcDbDictionary
281
     1
  3
Layout1
350
C89D1
  3
Model
350
C89D0
  0
DICTIONARY
  5
C8979
102
{ACAD_REACTORS
330
ABCC
102
}
330
ABCC
100
AcDbDictionary
281
     1
  3
ByBlock
350
C8982
  3
ByLayer
350
C897A
  3
Global
350
C898A
  0
DICTIONARY
  5
C89CB
102
{ACAD_REACTORS
330
ABCC
102
}
330
ABCC
100
AcDbDictionary
281
     1
  3
Standard
350
C89CC
  0
DICTIONARY
  5
ABC1B
102
{ACAD_REACTORS
330
ABCC
102
}
330
ABCC
100
AcDbDictionary
281
     1
  3
STANDARD
350
ABC1C
  0
ACDBPERSSUBENTMANAGER
  5
C8A90
102
{ACAD_REACTORS
330
ABCC
102
}
330
ABCC
100
AcDbPersSubentManager
 90
        2
 90
        0
 90
        2
 90
        2
 90
        0
 90
        0
  0
DICTIONARY
  5
C89CF
102
{ACAD_REACTORS
330
ABCC
102
}
330
ABCC
100
AcDbDictionary
281
     1
  0
ACDBDICTIONARYWDFLT
  5
C8977
102
{ACAD_REACTORS
330
ABCC
102
}
330
ABCC
100
AcDbDictionary
281
     1
  3
Normal
350
C8978
100
AcDbDictionaryWithDefault
340
C8978
  0
DICTIONARY
  5
C89A9
102
{ACAD_REACTORS
330
ABCC
102
}
330
ABCC
100
AcDbDictionary
281
     1
  3
A0
350
C89AA
  3
A1
350
C89AB
  3
A2
350
C89AC
  3
A3
350
C89AD
  3
A4
350
C89AE
  3
A5
350
C89AF
  3
A6
350
C89B0
  3
A7
350
C89B1
  3
A8
350
C89B2
  3
A9
350
C89B3
  3
B0
350
C89B4
  3
B1
350
C89B5
  3
B2
350
C89B6
  3
B3
350
C89B7
  3
B4
350
C89B8
  3
B5
350
C89B9
  3
B6
350
C89BA
  3
B7
350
C89BB
  3
B8
350
C89BC
  3
B9
350
C89BD
  3
C0
350
C89BE
  3
C1
350
C89BF
  3
C2
350
C89C0
  3
C3
350
C89C1
  3
C4
350
C89C2
  3
C5
350
C89C3
  3
C6
350
C89C4
  3
C7
350
C89C5
  3
C8
350
C89C6
  3
C9
350
C89C7
  3
D0
350
C89C8
  3
D1
350
C89C9
  3
D2
350
C89CA
  0
DICTIONARY
  5
C89A7
102
{ACAD_REACTORS
330
ABCC
102
}
330
ABCC
100
AcDbDictionary
281
     1
  3
Standard
350
C89A8
  0
DICTIONARY
  5
C8992
102
{ACAD_REACTORS
330
ABCC
102
}
330
ABCC
100
AcDbDictionary
281
     1
  3
2dWireframe
350
C8998
  3
3D Hidden
350
C899A
  3
3dWireframe
350
C8999
  3
Basic
350
C8997
  3
Brighten
350
C899E
  3
ColorChange
350
C89A2
  3
Conceptual
350
C899B
  3
Dim
350
C899D
  3
EdgeColorOff
350
C89A5
  3
Facepattern
350
C89A1
  3
Flat
350
C8993
  3
FlatWithEdges
350
C8994
  3
Gouraud
350
C8995
  3
GouraudWithEdges
350
C8996
  3
JitterOff
350
C89A3
  3
Linepattern
350
C89A0
  3
OverhangOff
350
C89A4
  3
Realistic
350
C899C
  3
Thicken
350
C899F
  0
XRECORD
  5
C8AD1
102
{ACAD_REACTORS
330
ABCC
102
}
330
ABCC
100
AcDbXrecord
280
     1
 90
        1
330
C89A8
  0
DICTIONARY
  5
C8A94
102
{ACAD_REACTORS
330
ABCC
102
}
330
ABCC
100
AcDbDictionary
281
     1
  3
CANNOSCALE
350
C8A97
  3
CMLEADERSTYLE
350
C8A96
  3
CTABLESTYLE
350
C8A95
  3
DIMASSOC
350
C8A9A
  3
INDEXCTL
350
C8A99
  3
SORTENTS
350
C8A98
  3
XCLIPFRAME
350
C8A9B
  0
XRECORD
  5
C8AD2
102
{ACAD_REACTORS
330
ABCC
102
}
330
ABCC
100
AcDbXrecord
280
     1
  1
DWGPROPS COOKIE
  2

  3

  4

  6

  7

  8
Haden
  9

300
=
301
=
302
=
303
=
304
=
305
=
306
=
307
=
308
=
309
=
 40
0.0095600115740741
 41
2455131.624363426
 42
2455131.635507743
  1

 90
        0
  0
XRECORD
  5
C8A93
102
{ACAD_REACTORS
330
C8A92
102
}
330
C8A92
100
AcDbXrecord
280
     1
290
     1
  0
SORTENTSTABLE
  5
C89FF
102
{ACAD_REACTORS
330
C89FE
102
}
330
C89FE
100
AcDbSortentsTable
330
76218
  0
LAYOUT
  5
C89D1
102
{ACAD_XDICTIONARY
360
C8B00
102
}
102
{ACAD_REACTORS
330
C89CE
102
}
330
C89CE
100
AcDbPlotSettings
  1

  2
QuickBooks PDF Converter
  4

  6

 40
0.0
 41
0.0
 42
0.0
 43
0.0
 44
0.0
 45
0.0
 46
0.0
 47
0.0
 48
0.0
 49
0.0
140
0.0
141
0.0
142
1.0
143
1.0
 70
   688
 72
     0
 73
     0
 74
     5
  7

 75
    16
147
1.0
148
0.0
149
0.0
100
AcDbLayout
  1
Layout1
 70
     1
 71
     1
 10
0.0
 20
0.0
 11
12.0
 21
9.0
 12
0.0
 22
0.0
 32
0.0
 14
1.000000000000000E+20
 24
1.000000000000000E+20
 34
0.0
 15
-1.000000000000000E+20
 25
-1.000000000000000E+20
 35
-1.000000000000000E+20
146
0.0
 13
0.0
 23
0.0
 33
0.0
 16
1.0
 26
0.0
 36
0.0
 17
0.0
 27
1.0
 37
0.0
 76
     0
330
76219
  0
LAYOUT
  5
C89D0
102
{ACAD_XDICTIONARY
360
C8AFE
102
}
102
{ACAD_REACTORS
330
C89CE
102
}
330
C89CE
100
AcDbPlotSettings
  1

  2
QuickBooks PDF Converter
  4

  6

 40
0.0
 41
0.0
 42
0.0
 43
0.0
 44
0.0
 45
0.0
 46
0.0
 47
0.0
 48
0.0
 49
0.0
140
0.0
141
0.0
142
1.0
143
1.0
 70
  1712
 72
     0
 73
     0
 74
     0
  7

 75
     0
147
1.0
148
0.0
149
0.0
100
AcDbLayout
  1
Model
 70
     1
 71
     0
 10
0.0
 20
0.0
 11
12.0
 21
9.0
 12
0.0
 22
0.0
 32
0.0
 14
0.0
 24
0.0
 34
0.0
 15
0.0
 25
0.0
 35
0.0
146
0.0
 13
0.0
 23
0.0
 33
0.0
 16
1.0
 26
0.0
 36
0.0
 17
0.0
 27
1.0
 37
0.0
 76
     0
330
76218
331
43F38
  0
MATERIAL
  5
C8982
102
{ACAD_XDICTIONARY
360
C8983
102
}
102
{ACAD_REACTORS
330
C8979
102
}
330
C8979
100
AcDbMaterial
  1
ByBlock
 72
     0
 43
0.0208333333333333
 43
0.0
 43
0.0
 43
0.0
 43
0.0
 43
0.0208333333333333
 43
0.0
 43
0.0
 43
0.0
 43
0.0
 43
1.0
 43
0.0
 43
0.0
 43
0.0
 43
0.0
 43
1.0
 77
     0
 47
0.0208333333333333
 47
0.0
 47
0.0
 47
0.0
 47
0.0
 47
0.0208333333333333
 47
0.0
 47
0.0
 47
0.0
 47
0.0
 47
1.0
 47
0.0
 47
0.0
 47
0.0
 47
0.0
 47
1.0
171
     0
 49
0.0208333333333333
 49
0.0
 49
0.0
 49
0.0
 49
0.0
 49
0.0208333333333333
 49
0.0
 49
0.0
 49
0.0
 49
0.0
 49
1.0
 49
0.0
 49
0.0
 49
0.0
 49
0.0
 49
1.0
175
     0
142
0.0208333333333333
142
0.0
142
0.0
142
0.0
142
0.0
142
0.0208333333333333
142
0.0
142
0.0
142
0.0
142
0.0
142
1.0
142
0.0
142
0.0
142
0.0
142
0.0
142
1.0
179
     0
144
0.0208333333333333
144
0.0
144
0.0
144
0.0
144
0.0
144
0.0208333333333333
144
0.0
144
0.0
144
0.0
144
0.0
144
1.0
144
0.0
144
0.0
144
0.0
144
0.0
144
1.0
147
0.0208333333333333
147
0.0
147
0.0
147
0.0
147
0.0
147
0.0208333333333333
147
0.0
147
0.0
147
0.0
147
0.0
147
1.0
147
0.0
147
0.0
147
0.0
147
0.0
147
1.0
  0
MATERIAL
  5
C897A
102
{ACAD_XDICTIONARY
360
C897B
102
}
102
{ACAD_REACTORS
330
C8979
102
}
330
C8979
100
AcDbMaterial
  1
ByLayer
 72
     0
 43
0.0208333333333333
 43
0.0
 43
0.0
 43
0.0
 43
0.0
 43
0.0208333333333333
 43
0.0
 43
0.0
 43
0.0
 43
0.0
 43
1.0
 43
0.0
 43
0.0
 43
0.0
 43
0.0
 43
1.0
 77
     0
 47
0.0208333333333333
 47
0.0
 47
0.0
 47
0.0
 47
0.0
 47
0.0208333333333333
 47
0.0
 47
0.0
 47
0.0
 47
0.0
 47
1.0
 47
0.0
 47
0.0
 47
0.0
 47
0.0
 47
1.0
171
     0
 49
0.0208333333333333
 49
0.0
 49
0.0
 49
0.0
 49
0.0
 49
0.0208333333333333
 49
0.0
 49
0.0
 49
0.0
 49
0.0
 49
1.0
 49
0.0
 49
0.0
 49
0.0
 49
0.0
 49
1.0
175
     0
142
0.0208333333333333
142
0.0
142
0.0
142
0.0
142
0.0
142
0.0208333333333333
142
0.0
142
0.0
142
0.0
142
0.0
142
1.0
142
0.0
142
0.0
142
0.0
142
0.0
142
1.0
179
     0
144
0.0208333333333333
144
0.0
144
0.0
144
0.0
144
0.0
144
0.0208333333333333
144
0.0
144
0.0
144
0.0
144
0.0
144
1.0
144
0.0
144
0.0
144
0.0
144
0.0
144
1.0
147
0.0208333333333333
147
0.0
147
0.0
147
0.0
147
0.0
147
0.0208333333333333
147
0.0
147
0.0
147
0.0
147
0.0
147
1.0
147
0.0
147
0.0
147
0.0
147
0.0
147
1.0
  0
MATERIAL
  5
C898A
102
{ACAD_XDICTIONARY
360
C898B
102
}
102
{ACAD_REACTORS
330
C8979
102
}
330
C8979
100
AcDbMaterial
  1
Global
 72
     0
 43
0.0208333333333333
 43
0.0
 43
0.0
 43
0.0
 43
0.0
 43
0.0208333333333333
 43
0.0
 43
0.0
 43
0.0
 43
0.0
 43
1.0
 43
0.0
 43
0.0
 43
0.0
 43
0.0
 43
1.0
 77
     0
 47
0.0208333333333333
 47
0.0
 47
0.0
 47
0.0
 47
0.0
 47
0.0208333333333333
 47
0.0
 47
0.0
 47
0.0
 47
0.0
 47
1.0
 47
0.0
 47
0.0
 47
0.0
 47
0.0
 47
1.0
171
     0
 49
0.0208333333333333
 49
0.0
 49
0.0
 49
0.0
 49
0.0
 49
0.0208333333333333
 49
0.0
 49
0.0
 49
0.0
 49
0.0
 49
1.0
 49
0.0
 49
0.0
 49
0.0
 49
0.0
 49
1.0
175
     0
142
0.0208333333333333
142
0.0
142
0.0
142
0.0
142
0.0
142
0.0208333333333333
142
0.0
142
0.0
142
0.0
142
0.0
142
1.0
142
0.0
142
0.0
142
0.0
142
0.0
142
1.0
179
     0
144
0.0208333333333333
144
0.0
144
0.0
144
0.0
144
0.0
144
0.0208333333333333
144
0.0
144
0.0
144
0.0
144
0.0
144
1.0
144
0.0
144
0.0
144
0.0
144
0.0
144
1.0
147
0.0208333333333333
147
0.0
147
0.0
147
0.0
147
0.0
147
0.0208333333333333
147
0.0
147
0.0
147
0.0
147
0.0
147
1.0
147
0.0
147
0.0
147
0.0
147
0.0
147
1.0
  0
MLEADERSTYLE
  5
C89CC
102
{ACAD_REACTORS
330
C89CB
102
}
330
C89CB
100
AcDbMLeaderStyle
170
     2
171
     1
172
     0
 90
        2
 40
0.0
 41
0.0
173
     1
 91
-1056964608
340
E2D1
 92
       -2
290
     1
 42
0.09
291
     1
 43
0.36
  3
Standard
 44
0.18
300

342
822EA
174
     1
178
     6
175
     1
176
     0
 93
-1056964608
 45
0.18
292
     0
297
     0
 46
0.18
 94
-1056964608
 47
1.0
 49
1.0
140
1.0
293
     1
141
0.0
294
     1
177
     0
142
1.0
295
     0
296
     0
143
0.125
1001
ACAD_MLEADERVER
1070
     2
  0
MLINESTYLE
  5
ABC1C
102
{ACAD_REACTORS
330
ABC1B
102
}
330
ABC1B
100
AcDbMlineStyle
  2
STANDARD
 70
     0
  3

 62
     0
 51
90.0
 52
90.0
 71
     0
  0
ACDBPLACEHOLDER
  5
C8978
102
{ACAD_REACTORS
330
C8977
102
}
330
C8977
  0
SCALE
  5
C89AA
102
{ACAD_REACTORS
330
C89A9
102
}
330
C89A9
100
AcDbScale
 70
     0
300
1:1
140
1.0
141
1.0
290
     1
  0
SCALE
  5
C89AB
102
{ACAD_REACTORS
330
C89A9
102
}
330
C89A9
100
AcDbScale
 70
     0
300
1:2
140
1.0
141
2.0
290
     0
  0
SCALE
  5
C89AC
102
{ACAD_REACTORS
330
C89A9
102
}
330
C89A9
100
AcDbScale
 70
     0
300
1:4
140
1.0
141
4.0
290
     0
  0
SCALE
  5
C89AD
102
{ACAD_REACTORS
330
C89A9
102
}
330
C89A9
100
AcDbScale
 70
     0
300
1:5
140
1.0
141
5.0
290
     0
  0
SCALE
  5
C89AE
102
{ACAD_REACTORS
330
C89A9
102
}
330
C89A9
100
AcDbScale
 70
     0
300
1:8
140
1.0
141
8.0
290
     0
  0
SCALE
  5
C89AF
102
{ACAD_REACTORS
330
C89A9
102
}
330
C89A9
100
AcDbScale
 70
     0
300
1:10
140
1.0
141
10.0
290
     0
  0
SCALE
  5
C89B0
102
{ACAD_REACTORS
330
C89A9
102
}
330
C89A9
100
AcDbScale
 70
     0
300
1:16
140
1.0
141
16.0
290
     0
  0
SCALE
  5
C89B1
102
{ACAD_REACTORS
330
C89A9
102
}
330
C89A9
100
AcDbScale
 70
     0
300
1:20
140
1.0
141
20.0
290
     0
  0
SCALE
  5
C89B2
102
{ACAD_REACTORS
330
C89A9
102
}
330
C89A9
100
AcDbScale
 70
     0
300
1:30
140
1.0
141
30.0
290
     0
  0
SCALE
  5
C89B3
102
{ACAD_REACTORS
330
C89A9
102
}
330
C89A9
100
AcDbScale
 70
     0
300
1:40
140
1.0
141
40.0
290
     0
  0
SCALE
  5
C89B4
102
{ACAD_REACTORS
330
C89A9
102
}
330
C89A9
100
AcDbScale
 70
     0
300
1:50
140
1.0
141
50.0
290
     0
  0
SCALE
  5
C89B5
102
{ACAD_REACTORS
330
C89A9
102
}
330
C89A9
100
AcDbScale
 70
     0
300
1:100
140
1.0
141
100.0
290
     0
  0
SCALE
  5
C89B6
102
{ACAD_REACTORS
330
C89A9
102
}
330
C89A9
100
AcDbScale
 70
     0
300
2:1
140
2.0
141
1.0
290
     0
  0
SCALE
  5
C89B7
102
{ACAD_REACTORS
330
C89A9
102
}
330
C89A9
100
AcDbScale
 70
     0
300
4:1
140
4.0
141
1.0
290
     0
  0
SCALE
  5
C89B8
102
{ACAD_REACTORS
330
C89A9
102
}
330
C89A9
100
AcDbScale
 70
     0
300
8:1
140
8.0
141
1.0
290
     0
  0
SCALE
  5
C89B9
102
{ACAD_REACTORS
330
C89A9
102
}
330
C89A9
100
AcDbScale
 70
     0
300
10:1
140
10.0
141
1.0
290
     0
  0
SCALE
  5
C89BA
102
{ACAD_REACTORS
330
C89A9
102
}
330
C89A9
100
AcDbScale
 70
     0
300
100:1
140
100.0
141
1.0
290
     0
  0
SCALE
  5
C89BB
102
{ACAD_REACTORS
330
C89A9
102
}
330
C89A9
100
AcDbScale
 70
     0
300
1/128" = 1'-0"
140
0.0078125
141
12.0
290
     0
  0
SCALE
  5
C89BC
102
{ACAD_REACTORS
330
C89A9
102
}
330
C89A9
100
AcDbScale
 70
     0
300
1/64" = 1'-0"
140
0.015625
141
12.0
290
     0
  0
SCALE
  5
C89BD
102
{ACAD_REACTORS
330
C89A9
102
}
330
C89A9
100
AcDbScale
 70
     0
300
1/32" = 1'-0"
140
0.03125
141
12.0
290
     0
  0
SCALE
  5
C89BE
102
{ACAD_REACTORS
330
C89A9
102
}
330
C89A9
100
AcDbScale
 70
     0
300
1/16" = 1'-0"
140
0.0625
141
12.0
290
     0
  0
SCALE
  5
C89BF
102
{ACAD_REACTORS
330
C89A9
102
}
330
C89A9
100
AcDbScale
 70
     0
300
3/32" = 1'-0"
140
0.09375
141
12.0
290
     0
  0
SCALE
  5
C89C0
102
{ACAD_REACTORS
330
C89A9
102
}
330
C89A9
100
AcDbScale
 70
     0
300
1/8" = 1'-0"
140
0.125
141
12.0
290
     0
  0
SCALE
  5
C89C1
102
{ACAD_REACTORS
330
C89A9
102
}
330
C89A9
100
AcDbScale
 70
     0
300
3/16" = 1'-0"
140
0.1875
141
12.0
290
     0
  0
SCALE
  5
C89C2
102
{ACAD_REACTORS
330
C89A9
102
}
330
C89A9
100
AcDbScale
 70
     0
300
1/4" = 1'-0"
140
0.25
141
12.0
290
     0
  0
SCALE
  5
C89C3
102
{ACAD_REACTORS
330
C89A9
102
}
330
C89A9
100
AcDbScale
 70
     0
300
3/8" = 1'-0"
140
0.375
141
12.0
290
     0
  0
SCALE
  5
C89C4
102
{ACAD_REACTORS
330
C89A9
102
}
330
C89A9
100
AcDbScale
 70
     0
300
1/2" = 1'-0"
140
0.5
141
12.0
290
     0
  0
SCALE
  5
C89C5
102
{ACAD_REACTORS
330
C89A9
102
}
330
C89A9
100
AcDbScale
 70
     0
300
3/4" = 1'-0"
140
0.75
141
12.0
290
     0
  0
SCALE
  5
C89C6
102
{ACAD_REACTORS
330
C89A9
102
}
330
C89A9
100
AcDbScale
 70
     0
300
1" = 1'-0"
140
1.0
141
12.0
290
     0
  0
SCALE
  5
C89C7
102
{ACAD_REACTORS
330
C89A9
102
}
330
C89A9
100
AcDbScale
 70
     0
300
1-1/2" = 1'-0"
140
1.5
141
12.0
290
     0
  0
SCALE
  5
C89C8
102
{ACAD_REACTORS
330
C89A9
102
}
330
C89A9
100
AcDbScale
 70
     0
300
3" = 1'-0"
140
3.0
141
12.0
290
     0
  0
SCALE
  5
C89C9
102
{ACAD_REACTORS
330
C89A9
102
}
330
C89A9
100
AcDbScale
 70
     0
300
6" = 1'-0"
140
6.0
141
12.0
290
     0
  0
SCALE
  5
C89CA
102
{ACAD_REACTORS
330
C89A9
102
}
330
C89A9
100
AcDbScale
 70
     0
300
1'-0" = 1'-0"
140
12.0
141
12.0
290
     0
  0
TABLESTYLE
  5
C89A8
102
{ACAD_XDICTIONARY
360
C8ACF
102
}
102
{ACAD_REACTORS
330
C89A7
102
}
330
C89A7
100
AcDbTableStyle
  3
Standard
 70
     0
 71
     0
 40
0.06
 41
0.06
280
     0
281
     0
  7
STANDARD
140
0.18
170
     2
 62
     0
 63
     7
283
     0
274
    -2
284
     1
 64
     0
275
    -2
285
     1
 65
     0
276
    -2
286
     1
 66
     0
277
    -2
287
     1
 67
     0
278
    -2
288
     1
 68
     0
279
    -2
289
     1
 69
     0
  7
STANDARD
140
0.25
170
     5
 62
     0
 63
     7
283
     0
274
    -2
284
     1
 64
     0
275
    -2
285
     1
 65
     0
276
    -2
286
     1
 66
     0
277
    -2
287
     1
 67
     0
278
    -2
288
     1
 68
     0
279
    -2
289
     1
 69
     0
  7
STANDARD
140
0.18
170
     5
 62
     0
 63
     7
283
     0
274
    -2
284
     1
 64
     0
275
    -2
285
     1
 65
     0
276
    -2
286
     1
 66
     0
277
    -2
287
     1
 67
     0
278
    -2
288
     1
 68
     0
279
    -2
289
     1
 69
     0
  0
VISUALSTYLE
  5
C8998
102
{ACAD_XDICTIONARY
360
C8AE0
102
}
102
{ACAD_REACTORS
330
C8992
102
}
330
C8992
100
AcDbVisualStyle
  2
2dWireframe
 70
     4
 71
     0
 72
     2
 73
     0
 90
        0
 40
-0.6
 41
-30.0
 62
     5
 63
     7
 74
     1
 91
        4
 64
     7
 65
   257
 75
     1
175
     1
 42
1.0
 92
        0
 66
   257
 43
1.0
 76
     1
 77
     6
 78
     2
 67
     7
 79
     5
170
     0
171
     0
290
     0
174
     0
 93
        1
 44
0.0
173
     0
291
     0
 45
0.0
1001
ACAD
1000
AcDbSavedByObjectVersion
1070
     0
  0
VISUALSTYLE
  5
C899A
102
{ACAD_XDICTIONARY
360
C8AE4
102
}
102
{ACAD_REACTORS
330
C8992
102
}
330
C8992
100
AcDbVisualStyle
  2
3D Hidden
 70
     6
 71
     1
 72
     2
 73
     2
 90
        0
 40
-0.6
 41
-30.0
 62
     5
 63
     7
 74
     2
 91
        2
 64
     7
 65
   257
 75
     2
175
     1
 42
179.0
 92
        0
 66
   257
 43
1.0
 76
     1
 77
     6
 78
     2
 67
     7
 79
     3
170
     0
171
     0
290
     0
174
     0
 93
        1
 44
0.0
173
     0
291
     0
 45
0.0
1001
ACAD
1000
AcDbSavedByObjectVersion
1070
     0
  0
VISUALSTYLE
  5
C8999
102
{ACAD_XDICTIONARY
360
C8AE2
102
}
102
{ACAD_REACTORS
330
C8992
102
}
330
C8992
100
AcDbVisualStyle
  2
3dWireframe
 70
     5
 71
     0
 72
     2
 73
     0
 90
        0
 40
-0.6
 41
-30.0
 62
     5
 63
     7
 74
     1
 91
        4
 64
     7
 65
   257
 75
     1
175
     1
 42
1.0
 92
        0
 66
   257
 43
1.0
 76
     1
 77
     6
 78
     2
 67
     7
 79
     5
170
     0
171
     0
290
     0
174
     0
 93
        1
 44
0.0
173
     0
291
     0
 45
0.0
1001
ACAD
1000
AcDbSavedByObjectVersion
1070
     0
  0
VISUALSTYLE
  5
C8997
102
{ACAD_XDICTIONARY
360
C8ADE
102
}
102
{ACAD_REACTORS
330
C8992
102
}
330
C8992
100
AcDbVisualStyle
  2
Basic
 70
     7
 71
     1
 72
     0
 73
     1
 90
        0
 40
-0.6
 41
-30.0
 62
     5
 63
     7
 74
     0
 91
        4
 64
     7
 65
   257
 75
     1
175
     1
 42
1.0
 92
        8
 66
     7
 43
1.0
 76
     1
 77
     6
 78
     2
 67
     7
 79
     5
170
     0
171
     0
290
     0
174
     0
 93
        1
 44
0.0
173
     0
291
     1
 45
0.0
1001
ACAD
1000
AcDbSavedByObjectVersion
1070
     0
  0
VISUALSTYLE
  5
C899E
102
{ACAD_XDICTIONARY
360
C8AEC
102
}
102
{ACAD_REACTORS
330
C8992
102
}
330
C8992
100
AcDbVisualStyle
  2
Brighten
 70
    12
 71
     2
 72
     2
 73
     0
 90
        0
 40
-0.6
 41
-30.0
 62
     5
 63
     7
 74
     1
 91
        4
 64
     7
 65
   257
 75
     1
175
     1
 42
1.0
 92
        8
 66
     7
 43
1.0
 76
     1
 77
     6
 78
     2
 67
     7
 79
     5
170
     0
171
     0
290
     0
174
     0
 93
        1
 44
50.0
173
     0
291
     1
 45
0.0
1001
ACAD
1000
AcDbSavedByObjectVersion
1070
     0
  0
VISUALSTYLE
  5
C89A2
102
{ACAD_XDICTIONARY
360
C8AF4
102
}
102
{ACAD_REACTORS
330
C8992
102
}
330
C8992
100
AcDbVisualStyle
  2
ColorChange
 70
    16
 71
     2
 72
     2
 73
     3
 90
        0
 40
-0.6
 41
-30.0
 62
     5
 63
     8
 74
     1
 91
        4
 64
     7
 65
   257
 75
     1
175
     1
 42
1.0
 92
        8
 66
     8
 43
1.0
 76
     1
 77
     6
 78
     2
 67
     7
 79
     5
170
     0
171
     0
290
     0
174
     0
 93
        1
 44
0.0
173
     0
291
     1
 45
0.0
1001
ACAD
1000
AcDbSavedByObjectVersion
1070
     0
  0
VISUALSTYLE
  5
C899B
102
{ACAD_XDICTIONARY
360
C8AE6
102
}
102
{ACAD_REACTORS
330
C8992
102
}
330
C8992
100
AcDbVisualStyle
  2
Conceptual
 70
     9
 71
     3
 72
     2
 73
     0
 90
        0
 40
-0.6
 41
-30.0
 62
     5
 63
     7
 74
     2
 91
        2
 64
     7
 65
   257
 75
     1
175
     1
 42
179.0
 92
        8
 66
     7
 43
1.0
 76
     1
 77
     6
 78
     2
 67
     7
 79
     3
170
     0
171
     0
290
     0
174
     0
 93
        1
 44
0.0
173
     0
291
     0
 45
0.0
1001
ACAD
1000
AcDbSavedByObjectVersion
1070
     0
  0
VISUALSTYLE
  5
C899D
102
{ACAD_XDICTIONARY
360
C8AEA
102
}
102
{ACAD_REACTORS
330
C8992
102
}
330
C8992
100
AcDbVisualStyle
  2
Dim
 70
    11
 71
     2
 72
     2
 73
     0
 90
        0
 40
-0.6
 41
-30.0
 62
     5
 63
     7
 74
     1
 91
        4
 64
     7
 65
   257
 75
     1
175
     1
 42
1.0
 92
        8
 66
     7
 43
1.0
 76
     1
 77
     6
 78
     2
 67
     7
 79
     5
170
     0
171
     0
290
     0
174
     0
 93
        1
 44
-50.0
173
     0
291
     1
 45
0.0
1001
ACAD
1000
AcDbSavedByObjectVersion
1070
     0
  0
VISUALSTYLE
  5
C89A5
102
{ACAD_XDICTIONARY
360
C8AFA
102
}
102
{ACAD_REACTORS
330
C8992
102
}
330
C8992
100
AcDbVisualStyle
  2
EdgeColorOff
 70
    22
 71
     2
 72
     2
 73
     0
 90
        0
 40
-0.6
 41
-30.0
 62
     5
 63
     7
 74
     1
 91
        4
 64
     7
 65
   257
 75
     1
175
     1
 42
1.0
 92
        8
 66
     7
 43
1.0
 76
     1
 77
     6
 78
     2
 67
     7
 79
     5
170
     0
171
     0
290
     0
174
     0
 93
        1
 44
0.0
173
     0
291
     1
 45
0.0
1001
ACAD
1000
AcDbSavedByObjectVersion
1070
     0
  0
VISUALSTYLE
  5
C89A1
102
{ACAD_XDICTIONARY
360
C8AF2
102
}
102
{ACAD_REACTORS
330
C8992
102
}
330
C8992
100
AcDbVisualStyle
  2
Facepattern
 70
    15
 71
     2
 72
     2
 73
     0
 90
        0
 40
-0.6
 41
-30.0
 62
     5
 63
     7
 74
     1
 91
        4
 64
     7
 65
   257
 75
     1
175
     1
 42
1.0
 92
        8
 66
     7
 43
1.0
 76
     1
 77
     6
 78
     2
 67
     7
 79
     5
170
     0
171
     0
290
     0
174
     0
 93
        1
 44
0.0
173
     0
291
     1
 45
0.0
1001
ACAD
1000
AcDbSavedByObjectVersion
1070
     0
  0
VISUALSTYLE
  5
C8993
102
{ACAD_XDICTIONARY
360
C8AD6
102
}
102
{ACAD_REACTORS
330
C8992
102
}
330
C8992
100
AcDbVisualStyle
  2
Flat
 70
     0
 71
     2
 72
     1
 73
     1
 90
        2
 40
-0.6
 41
30.0
 62
     5
 63
     7
 74
     0
 91
        4
 64
     7
 65
   257
 75
     1
175
     1
 42
1.0
 92
        8
 66
     7
 43
1.0
 76
     1
 77
     6
 78
     2
 67
     7
 79
     5
170
     0
171
     0
290
     0
174
     0
 93
       13
 44
0.0
173
     0
291
     1
 45
0.0
1001
ACAD
1000
AcDbSavedByObjectVersion
1070
     0
  0
VISUALSTYLE
  5
C8994
102
{ACAD_XDICTIONARY
360
C8AD8
102
}
102
{ACAD_REACTORS
330
C8992
102
}
330
C8992
100
AcDbVisualStyle
  2
FlatWithEdges
 70
     1
 71
     2
 72
     1
 73
     1
 90
        2
 40
-0.6
 41
30.0
 62
     5
 63
     7
 74
     1
 91
        4
 64
     7
 65
   257
 75
     1
175
     1
 42
1.0
 92
        0
 66
   257
 43
1.0
 76
     1
 77
     6
 78
     2
 67
     7
 79
     5
170
     0
171
     0
290
     0
174
     0
 93
       13
 44
0.0
173
     0
291
     1
 45
0.0
1001
ACAD
1000
AcDbSavedByObjectVersion
1070
     0
  0
VISUALSTYLE
  5
C8995
102
{ACAD_XDICTIONARY
360
C8ADA
102
}
102
{ACAD_REACTORS
330
C8992
102
}
330
C8992
100
AcDbVisualStyle
  2
Gouraud
 70
     2
 71
     2
 72
     2
 73
     1
 90
        2
 40
-0.6
 41
30.0
 62
     5
 63
     7
 74
     0
 91
        4
 64
     7
 65
   257
 75
     1
175
     1
 42
1.0
 92
        0
 66
     7
 43
1.0
 76
     1
 77
     6
 78
     2
 67
     7
 79
     5
170
     0
171
     0
290
     0
174
     0
 93
       13
 44
0.0
173
     0
291
     1
 45
0.0
1001
ACAD
1000
AcDbSavedByObjectVersion
1070
     0
  0
VISUALSTYLE
  5
C8996
102
{ACAD_XDICTIONARY
360
C8ADC
102
}
102
{ACAD_REACTORS
330
C8992
102
}
330
C8992
100
AcDbVisualStyle
  2
GouraudWithEdges
 70
     3
 71
     2
 72
     2
 73
     1
 90
        2
 40
-0.6
 41
30.0
 62
     5
 63
     7
 74
     1
 91
        4
 64
     7
 65
   257
 75
     1
175
     1
 42
1.0
 92
        0
 66
   257
 43
1.0
 76
     1
 77
     6
 78
     2
 67
     7
 79
     5
170
     0
171
     0
290
     0
174
     0
 93
       13
 44
0.0
173
     0
291
     1
 45
0.0
1001
ACAD
1000
AcDbSavedByObjectVersion
1070
     0
  0
VISUALSTYLE
  5
C89A3
102
{ACAD_XDICTIONARY
360
C8AF6
102
}
102
{ACAD_REACTORS
330
C8992
102
}
330
C8992
100
AcDbVisualStyle
  2
JitterOff
 70
    20
 71
     2
 72
     2
 73
     0
 90
        0
 40
-0.6
 41
-30.0
 62
     5
 63
     7
 74
     1
 91
        4
 64
     7
 65
   257
 75
     1
175
     1
 42
1.0
 92
       10
 66
     7
 43
1.0
 76
     1
 77
     6
 78
     2
 67
     7
 79
     5
170
     0
171
     0
290
     0
174
     0
 93
        1
 44
0.0
173
     0
291
     1
 45
0.0
1001
ACAD
1000
AcDbSavedByObjectVersion
1070
     0
  0
VISUALSTYLE
  5
C89A0
102
{ACAD_XDICTIONARY
360
C8AF0
102
}
102
{ACAD_REACTORS
330
C8992
102
}
330
C8992
100
AcDbVisualStyle
  2
Linepattern
 70
    14
 71
     2
 72
     2
 73
     0
 90
        0
 40
-0.6
 41
-30.0
 62
     5
 63
     7
 74
     1
 91
        4
 64
     7
 65
   257
 75
     7
175
     7
 42
1.0
 92
        8
 66
     7
 43
1.0
 76
     1
 77
     6
 78
     2
 67
     7
 79
     5
170
     0
171
     0
290
     0
174
     0
 93
        1
 44
0.0
173
     0
291
     1
 45
0.0
1001
ACAD
1000
AcDbSavedByObjectVersion
1070
     0
  0
VISUALSTYLE
  5
C89A4
102
{ACAD_XDICTIONARY
360
C8AF8
102
}
102
{ACAD_REACTORS
330
C8992
102
}
330
C8992
100
AcDbVisualStyle
  2
OverhangOff
 70
    21
 71
     2
 72
     2
 73
     0
 90
        0
 40
-0.6
 41
-30.0
 62
     5
 63
     7
 74
     1
 91
        4
 64
     7
 65
   257
 75
     1
175
     1
 42
1.0
 92
        9
 66
     7
 43
1.0
 76
     1
 77
     6
 78
     2
 67
     7
 79
     5
170
     0
171
     0
290
     0
174
     0
 93
        1
 44
0.0
173
     0
291
     1
 45
0.0
1001
ACAD
1000
AcDbSavedByObjectVersion
1070
     0
  0
VISUALSTYLE
  5
C899C
102
{ACAD_XDICTIONARY
360
C8AE8
102
}
102
{ACAD_REACTORS
330
C8992
102
}
330
C8992
100
AcDbVisualStyle
  2
Realistic
 70
     8
 71
     2
 72
     2
 73
     0
 90
        0
 40
-0.6
 41
-30.0
 62
     5
 63
     7
 74
     1
 91
        0
 64
     7
 65
   257
 75
     1
175
     1
 42
1.0
 92
        8
 66
     8
 43
1.0
 76
     1
 77
     6
 78
     2
 67
     7
 79
     5
170
     0
171
     0
290
     0
174
     0
 93
       13
 44
0.0
173
     0
291
     0
 45
0.0
1001
ACAD
1000
AcDbSavedByObjectVersion
1070
     0
  0
VISUALSTYLE
  5
C899F
102
{ACAD_XDICTIONARY
360
C8AEE
102
}
102
{ACAD_REACTORS
330
C8992
102
}
330
C8992
100
AcDbVisualStyle
  2
Thicken
 70
    13
 71
     2
 72
     2
 73
     0
 90
        0
 40
-0.6
 41
-30.0
 62
     5
 63
     7
 74
     1
 91
        4
 64
     7
 65
   257
 75
     1
175
     1
 42
1.0
 92
       12
 66
     7
 43
1.0
 76
     1
 77
     6
 78
     2
 67
     7
 79
     5
170
     0
171
     0
290
     0
174
     0
 93
        1
 44
0.0
173
     0
291
     1
 45
0.0
1001
ACAD
1000
AcDbSavedByObjectVersion
1070
     0
  0
DICTIONARYVAR
  5
C8A97
102
{ACAD_REACTORS
330
C8A94
102
}
330
C8A94
100
DictionaryVariables
280
     0
  1
1:1
  0
DICTIONARYVAR
  5
C8A96
102
{ACAD_REACTORS
330
C8A94
102
}
330
C8A94
100
DictionaryVariables
280
     0
  1
STANDARD
  0
DICTIONARYVAR
  5
C8A95
102
{ACAD_REACTORS
330
C8A94
102
}
330
C8A94
100
DictionaryVariables
280
     0
  1
STANDARD
  0
DICTIONARYVAR
  5
C8A9A
102
{ACAD_REACTORS
330
C8A94
102
}
330
C8A94
100
DictionaryVariables
280
     0
  1
1
  0
DICTIONARYVAR
  5
C8A99
102
{ACAD_REACTORS
330
C8A94
102
}
330
C8A94
100
DictionaryVariables
280
     0
  1
0
  0
DICTIONARYVAR
  5
C8A98
102
{ACAD_REACTORS
330
C8A94
102
}
330
C8A94
100
DictionaryVariables
280
     0
  1
127
  0
DICTIONARYVAR
  5
C8A9B
102
{ACAD_REACTORS
330
C8A94
102
}
330
C8A94
100
DictionaryVariables
280
     0
  1
2
  0
DICTIONARY
  5
C8B00
330
C89D1
100
AcDbDictionary
280
     1
281
     1
  3
ACAD_XREC_ROUNDTRIP
360
C8B01
  0
DICTIONARY
  5
C8AFE
330
C89D0
100
AcDbDictionary
280
     1
281
     1
  3
ACAD_XREC_ROUNDTRIP
360
C8AFF
  0
DICTIONARY
  5
C8983
330
C8982
100
AcDbDictionary
280
     1
281
     1
  3
ACAD_XREC_ROUNDTRIP
360
C8AD4
  3
BUMPTILE
360
C8985
  3
DIFFUSETILE
360
C8984
  3
OPACITYTILE
360
C8988
  3
REFLECTIONTILE
360
C8987
  3
REFRACTIONTILE
360
C8989
  3
SPECULARTILE
360
C8986
  0
DICTIONARY
  5
C897B
330
C897A
100
AcDbDictionary
280
     1
281
     1
  3
ACAD_XREC_ROUNDTRIP
360
C8AD3
  3
BUMPTILE
360
C897D
  3
DIFFUSETILE
360
C897C
  3
OPACITYTILE
360
C8980
  3
REFLECTIONTILE
360
C897F
  3
REFRACTIONTILE
360
C8981
  3
SPECULARTILE
360
C897E
  0
DICTIONARY
  5
C898B
330
C898A
100
AcDbDictionary
280
     1
281
     1
  3
ACAD_XREC_ROUNDTRIP
360
C8AD5
  3
BUMPTILE
360
C898D
  3
DIFFUSETILE
360
C898C
  3
OPACITYTILE
360
C8990
  3
REFLECTIONTILE
360
C898F
  3
REFRACTIONTILE
360
C8991
  3
SPECULARTILE
360
C898E
  0
DICTIONARY
  5
C8ACF
330
C89A8
100
AcDbDictionary
280
     1
281
     1
  3
ACAD_ROUNDTRIP_2008_TABLESTYLE_CELLSTYLEMAP
360
C8AD0
  3
ACAD_XREC_ROUNDTRIP
360
C8AFC
  0
DICTIONARY
  5
C8AE0
330
C8998
100
AcDbDictionary
280
     1
281
     1
  3
ACAD_XREC_ROUNDTRIP
360
C8AE1
  0
DICTIONARY
  5
C8AE4
330
C899A
100
AcDbDictionary
280
     1
281
     1
  3
ACAD_XREC_ROUNDTRIP
360
C8AE5
  0
DICTIONARY
  5
C8AE2
330
C8999
100
AcDbDictionary
280
     1
281
     1
  3
ACAD_XREC_ROUNDTRIP
360
C8AE3
  0
DICTIONARY
  5
C8ADE
330
C8997
100
AcDbDictionary
280
     1
281
     1
  3
ACAD_XREC_ROUNDTRIP
360
C8ADF
  0
DICTIONARY
  5
C8AEC
330
C899E
100
AcDbDictionary
280
     1
281
     1
  3
ACAD_XREC_ROUNDTRIP
360
C8AED
  0
DICTIONARY
  5
C8AF4
330
C89A2
100
AcDbDictionary
280
     1
281
     1
  3
ACAD_XREC_ROUNDTRIP
360
C8AF5
  0
DICTIONARY
  5
C8AE6
330
C899B
100
AcDbDictionary
280
     1
281
     1
  3
ACAD_XREC_ROUNDTRIP
360
C8AE7
  0
DICTIONARY
  5
C8AEA
330
C899D
100
AcDbDictionary
280
     1
281
     1
  3
ACAD_XREC_ROUNDTRIP
360
C8AEB
  0
DICTIONARY
  5
C8AFA
330
C89A5
100
AcDbDictionary
280
     1
281
     1
  3
ACAD_XREC_ROUNDTRIP
360
C8AFB
  0
DICTIONARY
  5
C8AF2
330
C89A1
100
AcDbDictionary
280
     1
281
     1
  3
ACAD_XREC_ROUNDTRIP
360
C8AF3
  0
DICTIONARY
  5
C8AD6
330
C8993
100
AcDbDictionary
280
     1
281
     1
  3
ACAD_XREC_ROUNDTRIP
360
C8AD7
  0
DICTIONARY
  5
C8AD8
330
C8994
100
AcDbDictionary
280
     1
281
     1
  3
ACAD_XREC_ROUNDTRIP
360
C8AD9
  0
DICTIONARY
  5
C8ADA
330
C8995
100
AcDbDictionary
280
     1
281
     1
  3
ACAD_XREC_ROUNDTRIP
360
C8ADB
  0
DICTIONARY
  5
C8ADC
330
C8996
100
AcDbDictionary
280
     1
281
     1
  3
ACAD_XREC_ROUNDTRIP
360
C8ADD
  0
DICTIONARY
  5
C8AF6
330
C89A3
100
AcDbDictionary
280
     1
281
     1
  3
ACAD_XREC_ROUNDTRIP
360
C8AF7
  0
DICTIONARY
  5
C8AF0
330
C89A0
100
AcDbDictionary
280
     1
281
     1
  3
ACAD_XREC_ROUNDTRIP
360
C8AF1
  0
DICTIONARY
  5
C8AF8
330
C89A4
100
AcDbDictionary
280
     1
281
     1
  3
ACAD_XREC_ROUNDTRIP
360
C8AF9
  0
DICTIONARY
  5
C8AE8
330
C899C
100
AcDbDictionary
280
     1
281
     1
  3
ACAD_XREC_ROUNDTRIP
360
C8AE9
  0
DICTIONARY
  5
C8AEE
330
C899F
100
AcDbDictionary
280
     1
281
     1
  3
ACAD_XREC_ROUNDTRIP
360
C8AEF
  0
XRECORD
  5
C8B01
102
{ACAD_REACTORS
330
C8B00
102
}
330
C8B00
100
AcDbXrecord
280
     1
102
SHADEPLOT
 70
     0
102
SHADEPLOTRESLEVEL
 70
     2
102
SHADEPLOTCUSTOMDPI
 70
   300
  0
XRECORD
  5
C8AFF
102
{ACAD_REACTORS
330
C8AFE
102
}
330
C8AFE
100
AcDbXrecord
280
     1
102
SHADEPLOT
 70
     0
102
SHADEPLOTRESLEVEL
 70
     2
102
SHADEPLOTCUSTOMDPI
 70
   300
  0
XRECORD
  5
C8AD4
102
{ACAD_REACTORS
330
C8983
102
}
330
C8983
100
AcDbXrecord
280
     1
102
MATERIAL
148
0.0
149
0.0
149
0.0
 93
        0
 94
      127
282
     0
 72
     0
 77
     0
171
     0
175
     0
179
     0
273
     0
  0
XRECORD
  5
C8985
102
{ACAD_REACTORS
330
C8983
102
}
330
C8983
100
AcDbXrecord
280
     1
270
     1
271
     1
  0
XRECORD
  5
C8984
102
{ACAD_REACTORS
330
C8983
102
}
330
C8983
100
AcDbXrecord
280
     1
270
     1
271
     1
  0
XRECORD
  5
C8988
102
{ACAD_REACTORS
330
C8983
102
}
330
C8983
100
AcDbXrecord
280
     1
270
     1
271
     1
  0
XRECORD
  5
C8987
102
{ACAD_REACTORS
330
C8983
102
}
330
C8983
100
AcDbXrecord
280
     1
270
     1
271
     1
  0
XRECORD
  5
C8989
102
{ACAD_REACTORS
330
C8983
102
}
330
C8983
100
AcDbXrecord
280
     1
270
     1
271
     1
  0
XRECORD
  5
C8986
102
{ACAD_REACTORS
330
C8983
102
}
330
C8983
100
AcDbXrecord
280
     1
270
     1
271
     1
  0
XRECORD
  5
C8AD3
102
{ACAD_REACTORS
330
C897B
102
}
330
C897B
100
AcDbXrecord
280
     1
102
MATERIAL
148
0.0
149
0.0
149
0.0
 93
        0
 94
      127
282
     0
 72
     0
 77
     0
171
     0
175
     0
179
     0
273
     0
  0
XRECORD
  5
C897D
102
{ACAD_REACTORS
330
C897B
102
}
330
C897B
100
AcDbXrecord
280
     1
270
     1
271
     1
  0
XRECORD
  5
C897C
102
{ACAD_REACTORS
330
C897B
102
}
330
C897B
100
AcDbXrecord
280
     1
270
     1
271
     1
  0
XRECORD
  5
C8980
102
{ACAD_REACTORS
330
C897B
102
}
330
C897B
100
AcDbXrecord
280
     1
270
     1
271
     1
  0
XRECORD
  5
C897F
102
{ACAD_REACTORS
330
C897B
102
}
330
C897B
100
AcDbXrecord
280
     1
270
     1
271
     1
  0
XRECORD
  5
C8981
102
{ACAD_REACTORS
330
C897B
102
}
330
C897B
100
AcDbXrecord
280
     1
270
     1
271
     1
  0
XRECORD
  5
C897E
102
{ACAD_REACTORS
330
C897B
102
}
330
C897B
100
AcDbXrecord
280
     1
270
     1
271
     1
  0
XRECORD
  5
C8AD5
102
{ACAD_REACTORS
330
C898B
102
}
330
C898B
100
AcDbXrecord
280
     1
102
MATERIAL
148
0.0
149
0.0
149
0.0
 93
        0
 94
      127
282
     0
 72
     0
 77
     0
171
     0
175
     0
179
     0
273
     0
  0
XRECORD
  5
C898D
102
{ACAD_REACTORS
330
C898B
102
}
330
C898B
100
AcDbXrecord
280
     1
270
     1
271
     1
  0
XRECORD
  5
C898C
102
{ACAD_REACTORS
330
C898B
102
}
330
C898B
100
AcDbXrecord
280
     1
270
     1
271
     1
  0
XRECORD
  5
C8990
102
{ACAD_REACTORS
330
C898B
102
}
330
C898B
100
AcDbXrecord
280
     1
270
     1
271
     1
  0
XRECORD
  5
C898F
102
{ACAD_REACTORS
330
C898B
102
}
330
C898B
100
AcDbXrecord
280
     1
270
     1
271
     1
  0
XRECORD
  5
C8991
102
{ACAD_REACTORS
330
C898B
102
}
330
C898B
100
AcDbXrecord
280
     1
270
     1
271
     1
  0
XRECORD
  5
C898E
102
{ACAD_REACTORS
330
C898B
102
}
330
C898B
100
AcDbXrecord
280
     1
270
     1
271
     1
  0
CELLSTYLEMAP
  5
C8AD0
102
{ACAD_REACTORS
330
C8ACF
102
}
330
C8ACF
100
AcDbCellStyleMap
 90
        3
300
CELLSTYLE
  1
TABLEFORMAT_BEGIN
 90
        5
170
     1
 91
        0
 92
    32768
 62
   257
 93
        1
300
CONTENTFORMAT
  1
CONTENTFORMAT_BEGIN
 90
        0
 91
        0
 92
      512
 93
        0
300

 40
0.0
140
1.0
 94
        5
 62
     0
340
822EA
144
0.25
309
CONTENTFORMAT_END
171
     0
 94
        0
309
TABLEFORMAT_END
  1
CELLSTYLE_BEGIN
 90
        1
 91
        1
300
_TITLE
309
CELLSTYLE_END
300
CELLSTYLE
  1
TABLEFORMAT_BEGIN
 90
        5
170
     1
 91
        0
 92
        0
 62
   257
 93
        1
300
CONTENTFORMAT
  1
CONTENTFORMAT_BEGIN
 90
        0
 91
        0
 92
      512
 93
        0
300

 40
0.0
140
1.0
 94
        5
 62
     0
340
822EA
144
0.18
309
CONTENTFORMAT_END
171
     0
 94
        0
309
TABLEFORMAT_END
  1
CELLSTYLE_BEGIN
 90
        2
 91
        1
300
_HEADER
309
CELLSTYLE_END
300
CELLSTYLE
  1
TABLEFORMAT_BEGIN
 90
        5
170
     1
 91
        0
 92
        0
 62
   257
 93
        1
300
CONTENTFORMAT
  1
CONTENTFORMAT_BEGIN
 90
        0
 91
        0
 92
      512
 93
        0
300

 40
0.0
140
1.0
 94
        2
 62
     0
340
822EA
144
0.18
309
CONTENTFORMAT_END
171
     0
 94
        0
309
TABLEFORMAT_END
  1
CELLSTYLE_BEGIN
 90
        3
 91
        2
300
_DATA
309
CELLSTYLE_END
  0
XRECORD
  5
C8AFC
102
{ACAD_REACTORS
330
C8ACF
102
}
330
C8ACF
100
AcDbXrecord
280
     1
102
ACAD_ROUNDTRIP_PRE2007_TABLESTYLE
 90
      512
 91
        0
  1

 92
      512
 93
        0
  2

 94
      512
 95
        0
  3

  0
XRECORD
  5
C8AE1
102
{ACAD_REACTORS
330
C8AE0
102
}
330
C8AE0
100
AcDbXrecord
280
     1
102
RTVSPropertyOp0
 70
     1
102
RTVSPropertyOp1
 70
     1
102
RTVSPropertyOp2
 70
     1
102
RTVSPropertyOp3
 70
     1
102
RTVSPropertyOp4
 70
     1
102
RTVSPropertyOp5
 70
     1
102
RTVSPropertyOp6
 70
     1
102
RTVSPropertyOp7
 70
     1
102
RTVSPropertyOp8
 70
     1
102
RTVSPropertyOp9
 70
     1
102
RTVSPropertyOp10
 70
     1
102
RTVSPropertyOp11
 70
     1
102
RTVSPropertyOp12
 70
     1
102
RTVSPropertyOp13
 70
     1
102
RTVSPropertyOp14
 70
     1
102
RTVSPropertyOp15
 70
     1
102
RTVSPropertyOp16
 70
     1
102
RTVSPropertyOp17
 70
     1
102
RTVSPropertyOp18
 70
     1
102
RTVSPropertyOp19
 70
     1
102
RTVSPropertyOp20
 70
     1
102
RTVSPropertyOp21
 70
     1
102
RTVSPropertyOp22
 70
     1
102
RTVSPropertyOp23
 70
     1
102
RTVSPropertyOp24
 70
     1
102
RTVSPropertyOp25
 70
     1
102
RTVSPropertyOp26
 70
     1
102
RTVSPropertyOp27
 70
     1
  0
XRECORD
  5
C8AE5
102
{ACAD_REACTORS
330
C8AE4
102
}
330
C8AE4
100
AcDbXrecord
280
     1
102
RTVSPropertyOp0
 70
     1
102
RTVSPropertyOp1
 70
     1
102
RTVSPropertyOp2
 70
     1
102
RTVSPropertyOp3
 70
     1
102
RTVSPropertyOp4
 70
     1
102
RTVSPropertyOp5
 70
     1
102
RTVSPropertyOp6
 70
     1
102
RTVSPropertyOp7
 70
     1
102
RTVSPropertyOp8
 70
     1
102
RTVSPropertyOp9
 70
     1
102
RTVSPropertyOp10
 70
     1
102
RTVSPropertyOp11
 70
     1
102
RTVSPropertyOp12
 70
     1
102
RTVSPropertyOp13
 70
     1
102
RTVSPropertyOp14
 70
     1
102
RTVSPropertyOp15
 70
     1
102
RTVSPropertyOp16
 70
     1
102
RTVSPropertyOp17
 70
     1
102
RTVSPropertyOp18
 70
     1
102
RTVSPropertyOp19
 70
     1
102
RTVSPropertyOp20
 70
     1
102
RTVSPropertyOp21
 70
     1
102
RTVSPropertyOp22
 70
     1
102
RTVSPropertyOp23
 70
     1
102
RTVSPropertyOp24
 70
     1
102
RTVSPropertyOp25
 70
     1
102
RTVSPropertyOp26
 70
     1
102
RTVSPropertyOp27
 70
     1
  0
XRECORD
  5
C8AE3
102
{ACAD_REACTORS
330
C8AE2
102
}
330
C8AE2
100
AcDbXrecord
280
     1
102
RTVSPropertyOp0
 70
     1
102
RTVSPropertyOp1
 70
     1
102
RTVSPropertyOp2
 70
     1
102
RTVSPropertyOp3
 70
     1
102
RTVSPropertyOp4
 70
     1
102
RTVSPropertyOp5
 70
     1
102
RTVSPropertyOp6
 70
     1
102
RTVSPropertyOp7
 70
     1
102
RTVSPropertyOp8
 70
     1
102
RTVSPropertyOp9
 70
     1
102
RTVSPropertyOp10
 70
     1
102
RTVSPropertyOp11
 70
     1
102
RTVSPropertyOp12
 70
     1
102
RTVSPropertyOp13
 70
     1
102
RTVSPropertyOp14
 70
     1
102
RTVSPropertyOp15
 70
     1
102
RTVSPropertyOp16
 70
     1
102
RTVSPropertyOp17
 70
     1
102
RTVSPropertyOp18
 70
     1
102
RTVSPropertyOp19
 70
     1
102
RTVSPropertyOp20
 70
     1
102
RTVSPropertyOp21
 70
     1
102
RTVSPropertyOp22
 70
     1
102
RTVSPropertyOp23
 70
     1
102
RTVSPropertyOp24
 70
     1
102
RTVSPropertyOp25
 70
     1
102
RTVSPropertyOp26
 70
     1
102
RTVSPropertyOp27
 70
     1
  0
XRECORD
  5
C8ADF
102
{ACAD_REACTORS
330
C8ADE
102
}
330
C8ADE
100
AcDbXrecord
280
     1
102
RTVSPropertyOp0
 70
     1
102
RTVSPropertyOp1
 70
     1
102
RTVSPropertyOp2
 70
     1
102
RTVSPropertyOp3
 70
     1
102
RTVSPropertyOp4
 70
     1
102
RTVSPropertyOp5
 70
     1
102
RTVSPropertyOp6
 70
     1
102
RTVSPropertyOp7
 70
     1
102
RTVSPropertyOp8
 70
     1
102
RTVSPropertyOp9
 70
     1
102
RTVSPropertyOp10
 70
     1
102
RTVSPropertyOp11
 70
     1
102
RTVSPropertyOp12
 70
     1
102
RTVSPropertyOp13
 70
     1
102
RTVSPropertyOp14
 70
     1
102
RTVSPropertyOp15
 70
     1
102
RTVSPropertyOp16
 70
     1
102
RTVSPropertyOp17
 70
     1
102
RTVSPropertyOp18
 70
     1
102
RTVSPropertyOp19
 70
     1
102
RTVSPropertyOp20
 70
     1
102
RTVSPropertyOp21
 70
     1
102
RTVSPropertyOp22
 70
     1
102
RTVSPropertyOp23
 70
     1
102
RTVSPropertyOp24
 70
     1
102
RTVSPropertyOp25
 70
     1
102
RTVSPropertyOp26
 70
     1
102
RTVSPropertyOp27
 70
     1
  0
XRECORD
  5
C8AED
102
{ACAD_REACTORS
330
C8AEC
102
}
330
C8AEC
100
AcDbXrecord
280
     1
102
RTVSPropertyOp0
 70
     1
102
RTVSPropertyOp1
 70
     1
102
RTVSPropertyOp2
 70
     1
102
RTVSPropertyOp3
 70
     1
102
RTVSPropertyOp4
 70
     1
102
RTVSPropertyOp5
 70
     1
102
RTVSPropertyOp6
 70
     1
102
RTVSPropertyOp7
 70
     1
102
RTVSPropertyOp8
 70
     1
102
RTVSPropertyOp9
 70
     1
102
RTVSPropertyOp10
 70
     1
102
RTVSPropertyOp11
 70
     1
102
RTVSPropertyOp12
 70
     1
102
RTVSPropertyOp13
 70
     1
102
RTVSPropertyOp14
 70
     1
102
RTVSPropertyOp15
 70
     1
102
RTVSPropertyOp16
 70
     1
102
RTVSPropertyOp17
 70
     1
102
RTVSPropertyOp18
 70
     1
102
RTVSPropertyOp19
 70
     1
102
RTVSPropertyOp20
 70
     1
102
RTVSPropertyOp21
 70
     1
102
RTVSPropertyOp22
 70
     1
102
RTVSPropertyOp23
 70
     1
102
RTVSPropertyOp24
 70
     1
102
RTVSPropertyOp25
 70
     1
102
RTVSPropertyOp26
 70
     1
102
RTVSPropertyOp27
 70
     1
  0
XRECORD
  5
C8AF5
102
{ACAD_REACTORS
330
C8AF4
102
}
330
C8AF4
100
AcDbXrecord
280
     1
102
RTVSPropertyOp0
 70
     1
102
RTVSPropertyOp1
 70
     1
102
RTVSPropertyOp2
 70
     1
102
RTVSPropertyOp3
 70
     1
102
RTVSPropertyOp4
 70
     1
102
RTVSPropertyOp5
 70
     1
102
RTVSPropertyOp6
 70
     1
102
RTVSPropertyOp7
 70
     1
102
RTVSPropertyOp8
 70
     1
102
RTVSPropertyOp9
 70
     1
102
RTVSPropertyOp10
 70
     1
102
RTVSPropertyOp11
 70
     1
102
RTVSPropertyOp12
 70
     1
102
RTVSPropertyOp13
 70
     1
102
RTVSPropertyOp14
 70
     1
102
RTVSPropertyOp15
 70
     1
102
RTVSPropertyOp16
 70
     1
102
RTVSPropertyOp17
 70
     1
102
RTVSPropertyOp18
 70
     1
102
RTVSPropertyOp19
 70
     1
102
RTVSPropertyOp20
 70
     1
102
RTVSPropertyOp21
 70
     1
102
RTVSPropertyOp22
 70
     1
102
RTVSPropertyOp23
 70
     1
102
RTVSPropertyOp24
 70
     1
102
RTVSPropertyOp25
 70
     1
102
RTVSPropertyOp26
 70
     1
102
RTVSPropertyOp27
 70
     1
  0
XRECORD
  5
C8AE7
102
{ACAD_REACTORS
330
C8AE6
102
}
330
C8AE6
100
AcDbXrecord
280
     1
102
RTVSPropertyOp0
 70
     1
102
RTVSPropertyOp1
 70
     1
102
RTVSPropertyOp2
 70
     1
102
RTVSPropertyOp3
 70
     1
102
RTVSPropertyOp4
 70
     1
102
RTVSPropertyOp5
 70
     1
102
RTVSPropertyOp6
 70
     1
102
RTVSPropertyOp7
 70
     1
102
RTVSPropertyOp8
 70
     1
102
RTVSPropertyOp9
 70
     1
102
RTVSPropertyOp10
 70
     1
102
RTVSPropertyOp11
 70
     1
102
RTVSPropertyOp12
 70
     1
102
RTVSPropertyOp13
 70
     1
102
RTVSPropertyOp14
 70
     1
102
RTVSPropertyOp15
 70
     1
102
RTVSPropertyOp16
 70
     1
102
RTVSPropertyOp17
 70
     1
102
RTVSPropertyOp18
 70
     1
102
RTVSPropertyOp19
 70
     1
102
RTVSPropertyOp20
 70
     1
102
RTVSPropertyOp21
 70
     1
102
RTVSPropertyOp22
 70
     1
102
RTVSPropertyOp23
 70
     1
102
RTVSPropertyOp24
 70
     1
102
RTVSPropertyOp25
 70
     1
102
RTVSPropertyOp26
 70
     1
102
RTVSPropertyOp27
 70
     1
  0
XRECORD
  5
C8AEB
102
{ACAD_REACTORS
330
C8AEA
102
}
330
C8AEA
100
AcDbXrecord
280
     1
102
RTVSPropertyOp0
 70
     1
102
RTVSPropertyOp1
 70
     1
102
RTVSPropertyOp2
 70
     1
102
RTVSPropertyOp3
 70
     1
102
RTVSPropertyOp4
 70
     1
102
RTVSPropertyOp5
 70
     1
102
RTVSPropertyOp6
 70
     1
102
RTVSPropertyOp7
 70
     1
102
RTVSPropertyOp8
 70
     1
102
RTVSPropertyOp9
 70
     1
102
RTVSPropertyOp10
 70
     1
102
RTVSPropertyOp11
 70
     1
102
RTVSPropertyOp12
 70
     1
102
RTVSPropertyOp13
 70
     1
102
RTVSPropertyOp14
 70
     1
102
RTVSPropertyOp15
 70
     1
102
RTVSPropertyOp16
 70
     1
102
RTVSPropertyOp17
 70
     1
102
RTVSPropertyOp18
 70
     1
102
RTVSPropertyOp19
 70
     1
102
RTVSPropertyOp20
 70
     1
102
RTVSPropertyOp21
 70
     1
102
RTVSPropertyOp22
 70
     1
102
RTVSPropertyOp23
 70
     1
102
RTVSPropertyOp24
 70
     1
102
RTVSPropertyOp25
 70
     1
102
RTVSPropertyOp26
 70
     1
102
RTVSPropertyOp27
 70
     1
  0
XRECORD
  5
C8AFB
102
{ACAD_REACTORS
330
C8AFA
102
}
330
C8AFA
100
AcDbXrecord
280
     1
102
RTVSPropertyOp0
 70
     0
102
RTVSPropertyOp1
 70
     0
102
RTVSPropertyOp2
 70
     0
102
RTVSPropertyOp3
 70
     0
102
RTVSPropertyOp4
 70
     0
102
RTVSPropertyOp5
 70
     0
102
RTVSPropertyOp6
 70
     0
102
RTVSPropertyOp7
 70
     0
102
RTVSPropertyOp8
 70
     0
102
RTVSPropertyOp9
 70
     0
102
RTVSPropertyOp10
 70
     0
102
RTVSPropertyOp11
 70
     0
102
RTVSPropertyOp12
 70
     0
102
RTVSPropertyOp13
 70
     0
102
RTVSPropertyOp14
 70
     2
102
RTVSPropertyOp15
 70
     0
102
RTVSPropertyOp16
 70
     0
102
RTVSPropertyOp17
 70
     0
102
RTVSPropertyOp18
 70
     0
102
RTVSPropertyOp19
 70
     0
102
RTVSPropertyOp20
 70
     0
102
RTVSPropertyOp21
 70
     0
102
RTVSPropertyOp22
 70
     0
102
RTVSPropertyOp23
 70
     0
102
RTVSPropertyOp24
 70
     0
102
RTVSPropertyOp25
 70
     0
102
RTVSPropertyOp26
 70
     0
102
RTVSPropertyOp27
 70
     0
  0
XRECORD
  5
C8AF3
102
{ACAD_REACTORS
330
C8AF2
102
}
330
C8AF2
100
AcDbXrecord
280
     1
102
RTVSPropertyOp0
 70
     1
102
RTVSPropertyOp1
 70
     1
102
RTVSPropertyOp2
 70
     1
102
RTVSPropertyOp3
 70
     1
102
RTVSPropertyOp4
 70
     1
102
RTVSPropertyOp5
 70
     1
102
RTVSPropertyOp6
 70
     1
102
RTVSPropertyOp7
 70
     1
102
RTVSPropertyOp8
 70
     1
102
RTVSPropertyOp9
 70
     1
102
RTVSPropertyOp10
 70
     1
102
RTVSPropertyOp11
 70
     1
102
RTVSPropertyOp12
 70
     1
102
RTVSPropertyOp13
 70
     1
102
RTVSPropertyOp14
 70
     1
102
RTVSPropertyOp15
 70
     1
102
RTVSPropertyOp16
 70
     1
102
RTVSPropertyOp17
 70
     1
102
RTVSPropertyOp18
 70
     1
102
RTVSPropertyOp19
 70
     1
102
RTVSPropertyOp20
 70
     1
102
RTVSPropertyOp21
 70
     1
102
RTVSPropertyOp22
 70
     1
102
RTVSPropertyOp23
 70
     1
102
RTVSPropertyOp24
 70
     1
102
RTVSPropertyOp25
 70
     1
102
RTVSPropertyOp26
 70
     1
102
RTVSPropertyOp27
 70
     1
  0
XRECORD
  5
C8AD7
102
{ACAD_REACTORS
330
C8AD6
102
}
330
C8AD6
100
AcDbXrecord
280
     1
102
RTVSPropertyOp0
 70
     1
102
RTVSPropertyOp1
 70
     1
102
RTVSPropertyOp2
 70
     1
102
RTVSPropertyOp3
 70
     1
102
RTVSPropertyOp4
 70
     1
102
RTVSPropertyOp5
 70
     1
102
RTVSPropertyOp6
 70
     1
102
RTVSPropertyOp7
 70
     1
102
RTVSPropertyOp8
 70
     1
102
RTVSPropertyOp9
 70
     1
102
RTVSPropertyOp10
 70
     1
102
RTVSPropertyOp11
 70
     1
102
RTVSPropertyOp12
 70
     1
102
RTVSPropertyOp13
 70
     1
102
RTVSPropertyOp14
 70
     1
102
RTVSPropertyOp15
 70
     1
102
RTVSPropertyOp16
 70
     1
102
RTVSPropertyOp17
 70
     1
102
RTVSPropertyOp18
 70
     1
102
RTVSPropertyOp19
 70
     1
102
RTVSPropertyOp20
 70
     1
102
RTVSPropertyOp21
 70
     1
102
RTVSPropertyOp22
 70
     1
102
RTVSPropertyOp23
 70
     1
102
RTVSPropertyOp24
 70
     1
102
RTVSPropertyOp25
 70
     1
102
RTVSPropertyOp26
 70
     1
102
RTVSPropertyOp27
 70
     1
  0
XRECORD
  5
C8AD9
102
{ACAD_REACTORS
330
C8AD8
102
}
330
C8AD8
100
AcDbXrecord
280
     1
102
RTVSPropertyOp0
 70
     1
102
RTVSPropertyOp1
 70
     1
102
RTVSPropertyOp2
 70
     1
102
RTVSPropertyOp3
 70
     1
102
RTVSPropertyOp4
 70
     1
102
RTVSPropertyOp5
 70
     1
102
RTVSPropertyOp6
 70
     1
102
RTVSPropertyOp7
 70
     1
102
RTVSPropertyOp8
 70
     1
102
RTVSPropertyOp9
 70
     1
102
RTVSPropertyOp10
 70
     1
102
RTVSPropertyOp11
 70
     1
102
RTVSPropertyOp12
 70
     1
102
RTVSPropertyOp13
 70
     1
102
RTVSPropertyOp14
 70
     1
102
RTVSPropertyOp15
 70
     1
102
RTVSPropertyOp16
 70
     1
102
RTVSPropertyOp17
 70
     1
102
RTVSPropertyOp18
 70
     1
102
RTVSPropertyOp19
 70
     1
102
RTVSPropertyOp20
 70
     1
102
RTVSPropertyOp21
 70
     1
102
RTVSPropertyOp22
 70
     1
102
RTVSPropertyOp23
 70
     1
102
RTVSPropertyOp24
 70
     1
102
RTVSPropertyOp25
 70
     1
102
RTVSPropertyOp26
 70
     1
102
RTVSPropertyOp27
 70
     1
  0
XRECORD
  5
C8ADB
102
{ACAD_REACTORS
330
C8ADA
102
}
330
C8ADA
100
AcDbXrecord
280
     1
102
RTVSPropertyOp0
 70
     1
102
RTVSPropertyOp1
 70
     1
102
RTVSPropertyOp2
 70
     1
102
RTVSPropertyOp3
 70
     1
102
RTVSPropertyOp4
 70
     1
102
RTVSPropertyOp5
 70
     1
102
RTVSPropertyOp6
 70
     1
102
RTVSPropertyOp7
 70
     1
102
RTVSPropertyOp8
 70
     1
102
RTVSPropertyOp9
 70
     1
102
RTVSPropertyOp10
 70
     1
102
RTVSPropertyOp11
 70
     1
102
RTVSPropertyOp12
 70
     1
102
RTVSPropertyOp13
 70
     1
102
RTVSPropertyOp14
 70
     1
102
RTVSPropertyOp15
 70
     1
102
RTVSPropertyOp16
 70
     1
102
RTVSPropertyOp17
 70
     1
102
RTVSPropertyOp18
 70
     1
102
RTVSPropertyOp19
 70
     1
102
RTVSPropertyOp20
 70
     1
102
RTVSPropertyOp21
 70
     1
102
RTVSPropertyOp22
 70
     1
102
RTVSPropertyOp23
 70
     1
102
RTVSPropertyOp24
 70
     1
102
RTVSPropertyOp25
 70
     1
102
RTVSPropertyOp26
 70
     1
102
RTVSPropertyOp27
 70
     1
  0
XRECORD
  5
C8ADD
102
{ACAD_REACTORS
330
C8ADC
102
}
330
C8ADC
100
AcDbXrecord
280
     1
102
RTVSPropertyOp0
 70
     1
102
RTVSPropertyOp1
 70
     1
102
RTVSPropertyOp2
 70
     1
102
RTVSPropertyOp3
 70
     1
102
RTVSPropertyOp4
 70
     1
102
RTVSPropertyOp5
 70
     1
102
RTVSPropertyOp6
 70
     1
102
RTVSPropertyOp7
 70
     1
102
RTVSPropertyOp8
 70
     1
102
RTVSPropertyOp9
 70
     1
102
RTVSPropertyOp10
 70
     1
102
RTVSPropertyOp11
 70
     1
102
RTVSPropertyOp12
 70
     1
102
RTVSPropertyOp13
 70
     1
102
RTVSPropertyOp14
 70
     1
102
RTVSPropertyOp15
 70
     1
102
RTVSPropertyOp16
 70
     1
102
RTVSPropertyOp17
 70
     1
102
RTVSPropertyOp18
 70
     1
102
RTVSPropertyOp19
 70
     1
102
RTVSPropertyOp20
 70
     1
102
RTVSPropertyOp21
 70
     1
102
RTVSPropertyOp22
 70
     1
102
RTVSPropertyOp23
 70
     1
102
RTVSPropertyOp24
 70
     1
102
RTVSPropertyOp25
 70
     1
102
RTVSPropertyOp26
 70
     1
102
RTVSPropertyOp27
 70
     1
  0
XRECORD
  5
C8AF7
102
{ACAD_REACTORS
330
C8AF6
102
}
330
C8AF6
100
AcDbXrecord
280
     1
102
RTVSPropertyOp0
 70
     0
102
RTVSPropertyOp1
 70
     0
102
RTVSPropertyOp2
 70
     0
102
RTVSPropertyOp3
 70
     0
102
RTVSPropertyOp4
 70
     0
102
RTVSPropertyOp5
 70
     0
102
RTVSPropertyOp6
 70
     0
102
RTVSPropertyOp7
 70
     0
102
RTVSPropertyOp8
 70
     0
102
RTVSPropertyOp9
 70
     0
102
RTVSPropertyOp10
 70
     0
102
RTVSPropertyOp11
 70
     0
102
RTVSPropertyOp12
 70
     0
102
RTVSPropertyOp13
 70
     0
102
RTVSPropertyOp14
 70
     2
102
RTVSPropertyOp15
 70
     0
102
RTVSPropertyOp16
 70
     0
102
RTVSPropertyOp17
 70
     0
102
RTVSPropertyOp18
 70
     0
102
RTVSPropertyOp19
 70
     0
102
RTVSPropertyOp20
 70
     0
102
RTVSPropertyOp21
 70
     0
102
RTVSPropertyOp22
 70
     0
102
RTVSPropertyOp23
 70
     0
102
RTVSPropertyOp24
 70
     0
102
RTVSPropertyOp25
 70
     0
102
RTVSPropertyOp26
 70
     0
102
RTVSPropertyOp27
 70
     0
  0
XRECORD
  5
C8AF1
102
{ACAD_REACTORS
330
C8AF0
102
}
330
C8AF0
100
AcDbXrecord
280
     1
102
RTVSPropertyOp0
 70
     1
102
RTVSPropertyOp1
 70
     1
102
RTVSPropertyOp2
 70
     1
102
RTVSPropertyOp3
 70
     1
102
RTVSPropertyOp4
 70
     1
102
RTVSPropertyOp5
 70
     1
102
RTVSPropertyOp6
 70
     1
102
RTVSPropertyOp7
 70
     1
102
RTVSPropertyOp8
 70
     1
102
RTVSPropertyOp9
 70
     1
102
RTVSPropertyOp10
 70
     1
102
RTVSPropertyOp11
 70
     1
102
RTVSPropertyOp12
 70
     1
102
RTVSPropertyOp13
 70
     1
102
RTVSPropertyOp14
 70
     1
102
RTVSPropertyOp15
 70
     1
102
RTVSPropertyOp16
 70
     1
102
RTVSPropertyOp17
 70
     1
102
RTVSPropertyOp18
 70
     1
102
RTVSPropertyOp19
 70
     1
102
RTVSPropertyOp20
 70
     1
102
RTVSPropertyOp21
 70
     1
102
RTVSPropertyOp22
 70
     1
102
RTVSPropertyOp23
 70
     1
102
RTVSPropertyOp24
 70
     1
102
RTVSPropertyOp25
 70
     1
102
RTVSPropertyOp26
 70
     1
102
RTVSPropertyOp27
 70
     1
  0
XRECORD
  5
C8AF9
102
{ACAD_REACTORS
330
C8AF8
102
}
330
C8AF8
100
AcDbXrecord
280
     1
102
RTVSPropertyOp0
 70
     0
102
RTVSPropertyOp1
 70
     0
102
RTVSPropertyOp2
 70
     0
102
RTVSPropertyOp3
 70
     0
102
RTVSPropertyOp4
 70
     0
102
RTVSPropertyOp5
 70
     0
102
RTVSPropertyOp6
 70
     0
102
RTVSPropertyOp7
 70
     0
102
RTVSPropertyOp8
 70
     0
102
RTVSPropertyOp9
 70
     0
102
RTVSPropertyOp10
 70
     0
102
RTVSPropertyOp11
 70
     0
102
RTVSPropertyOp12
 70
     0
102
RTVSPropertyOp13
 70
     0
102
RTVSPropertyOp14
 70
     2
102
RTVSPropertyOp15
 70
     0
102
RTVSPropertyOp16
 70
     0
102
RTVSPropertyOp17
 70
     0
102
RTVSPropertyOp18
 70
     0
102
RTVSPropertyOp19
 70
     0
102
RTVSPropertyOp20
 70
     0
102
RTVSPropertyOp21
 70
     0
102
RTVSPropertyOp22
 70
     0
102
RTVSPropertyOp23
 70
     0
102
RTVSPropertyOp24
 70
     0
102
RTVSPropertyOp25
 70
     0
102
RTVSPropertyOp26
 70
     0
102
RTVSPropertyOp27
 70
     0
  0
XRECORD
  5
C8AE9
102
{ACAD_REACTORS
330
C8AE8
102
}
330
C8AE8
100
AcDbXrecord
280
     1
102
RTVSPropertyOp0
 70
     1
102
RTVSPropertyOp1
 70
     1
102
RTVSPropertyOp2
 70
     1
102
RTVSPropertyOp3
 70
     1
102
RTVSPropertyOp4
 70
     1
102
RTVSPropertyOp5
 70
     1
102
RTVSPropertyOp6
 70
     1
102
RTVSPropertyOp7
 70
     1
102
RTVSPropertyOp8
 70
     1
102
RTVSPropertyOp9
 70
     1
102
RTVSPropertyOp10
 70
     1
102
RTVSPropertyOp11
 70
     1
102
RTVSPropertyOp12
 70
     1
102
RTVSPropertyOp13
 70
     1
102
RTVSPropertyOp14
 70
     1
102
RTVSPropertyOp15
 70
     1
102
RTVSPropertyOp16
 70
     1
102
RTVSPropertyOp17
 70
     1
102
RTVSPropertyOp18
 70
     1
102
RTVSPropertyOp19
 70
     1
102
RTVSPropertyOp20
 70
     1
102
RTVSPropertyOp21
 70
     1
102
RTVSPropertyOp22
 70
     1
102
RTVSPropertyOp23
 70
     1
102
RTVSPropertyOp24
 70
     1
102
RTVSPropertyOp25
 70
     1
102
RTVSPropertyOp26
 70
     1
102
RTVSPropertyOp27
 70
     1
  0
XRECORD
  5
C8AEF
102
{ACAD_REACTORS
330
C8AEE
102
}
330
C8AEE
100
AcDbXrecord
280
     1
102
RTVSPropertyOp0
 70
     1
102
RTVSPropertyOp1
 70
     1
102
RTVSPropertyOp2
 70
     1
102
RTVSPropertyOp3
 70
     1
102
RTVSPropertyOp4
 70
     1
102
RTVSPropertyOp5
 70
     1
102
RTVSPropertyOp6
 70
     1
102
RTVSPropertyOp7
 70
     1
102
RTVSPropertyOp8
 70
     1
102
RTVSPropertyOp9
 70
     1
102
RTVSPropertyOp10
 70
     1
102
RTVSPropertyOp11
 70
     1
102
RTVSPropertyOp12
 70
     1
102
RTVSPropertyOp13
 70
     1
102
RTVSPropertyOp14
 70
     1
102
RTVSPropertyOp15
 70
     1
102
RTVSPropertyOp16
 70
     1
102
RTVSPropertyOp17
 70
     1
102
RTVSPropertyOp18
 70
     1
102
RTVSPropertyOp19
 70
     1
102
RTVSPropertyOp20
 70
     1
102
RTVSPropertyOp21
 70
     1
102
RTVSPropertyOp22
 70
     1
102
RTVSPropertyOp23
 70
     1
102
RTVSPropertyOp24
 70
     1
102
RTVSPropertyOp25
 70
     1
102
RTVSPropertyOp26
 70
     1
102
RTVSPropertyOp27
 70
     1
  0
ENDSEC
  0
EOF
