  0
SECTION
  2
HEADER
  9
$ACADVER
  1
AC1024
  9
$ACADMAINTVER
 70
    37
  9
$DWGCODEPAGE
  3
ANSI_1252
  9
$LASTSAVEDBY
  1
ethan.lord
  9
$INSBASE
 10
0.0
 20
0.0
 30
0.0
  9
$EXTMIN
 10
-50.35654209937454
 20
-3.660892344861191
 30
-0.2467696638953232
  9
$EXTMAX
 10
25.14717096353732
 20
3.660892344861188
 30
46.11198075035986
  9
$LIMMIN
 10
0.0
 20
0.0
  9
$LIMMAX
 10
1.0
 20
1.0
  9
$ORTHOMODE
 70
     0
  9
$REGENMODE
 70
     1
  9
$FILLMODE
 70
     1
  9
$QTEXTMODE
 70
     0
  9
$MIRRTEXT
 70
     1
  9
$LTSCALE
 40
1.0
  9
$ATTMODE
 70
     1
  9
$TEXTSIZE
 40
2.5
  9
$TRACEWID
 40
0.05
  9
$TEXTSTYLE
  7
STANDARD
  9
$CLAYER
  8
0
  9
$CELTYPE
  6
CONTINUOUS
  9
$CECOLOR
 62
   256
  9
$CELTSCALE
 40
1.0
  9
$DISPSILH
 70
     0
  9
$DIMSCALE
 40
1.0
  9
$DIMASZ
 40
0.18
  9
$DIMEXO
 40
0.0625
  9
$DIMDLI
 40
0.38
  9
$DIMRND
 40
0.0
  9
$DIMDLE
 40
0.0
  9
$DIMEXE
 40
0.18
  9
$DIMTP
 40
0.0
  9
$DIMTM
 40
0.0
  9
$DIMTXT
 40
0.18
  9
$DIMCEN
 40
0.09
  9
$DIMTSZ
 40
0.0
  9
$DIMTOL
 70
     0
  9
$DIMLIM
 70
     0
  9
$DIMTIH
 70
     1
  9
$DIMTOH
 70
     1
  9
$DIMSE1
 70
     0
  9
$DIMSE2
 70
     0
  9
$DIMTAD
 70
     0
  9
$DIMZIN
 70
     0
  9
$DIMBLK
  1

  9
$DIMASO
 70
     1
  9
$DIMSHO
 70
     1
  9
$DIMPOST
  1

  9
$DIMAPOST
  1

  9
$DIMALT
 70
     0
  9
$DIMALTD
 70
     2
  9
$DIMALTF
 40
25.4
  9
$DIMLFAC
 40
1.0
  9
$DIMTOFL
 70
     0
  9
$DIMTVP
 40
0.0
  9
$DIMTIX
 70
     0
  9
$DIMSOXD
 70
     0
  9
$DIMSAH
 70
     0
  9
$DIMBLK1
  1

  9
$DIMBLK2
  1

  9
$DIMSTYLE
  2
Standard
  9
$DIMCLRD
 70
     0
  9
$DIMCLRE
 70
     0
  9
$DIMCLRT
 70
     0
  9
$DIMTFAC
 40
1.0
  9
$DIMGAP
 40
0.09
  9
$DIMJUST
 70
     0
  9
$DIMSD1
 70
     0
  9
$DIMSD2
 70
     0
  9
$DIMTOLJ
 70
     1
  9
$DIMTZIN
 70
     0
  9
$DIMALTZ
 70
     0
  9
$DIMALTTZ
 70
     0
  9
$DIMUPT
 70
     0
  9
$DIMDEC
 70
     4
  9
$DIMTDEC
 70
     4
  9
$DIMALTU
 70
     2
  9
$DIMALTTD
 70
     2
  9
$DIMTXSTY
  7
STANDARD
  9
$DIMAUNIT
 70
     0
  9
$DIMADEC
 70
     0
  9
$DIMALTRND
 40
0.0
  9
$DIMAZIN
 70
     0
  9
$DIMDSEP
 70
    46
  9
$DIMATFIT
 70
     3
  9
$DIMFRAC
 70
     0
  9
$DIMLDRBLK
  1

  9
$DIMLUNIT
 70
     2
  9
$DIMLWD
 70
    -2
  9
$DIMLWE
 70
    -2
  9
$DIMTMOVE
 70
     0
  9
$DIMFXL
 40
1.0
  9
$DIMFXLON
 70
     0
  9
$DIMJOGANG
 40
0.7853981633974483
  9
$DIMTFILL
 70
     0
  9
$DIMTFILLCLR
 70
     0
  9
$DIMARCSYM
 70
     0
  9
$DIMLTYPE
  6

  9
$DIMLTEX1
  6

  9
$DIMLTEX2
  6

  9
$DIMTXTDIRECTION
 70
     0
  9
$LUNITS
 70
     2
  9
$LUPREC
 70
     2
  9
$SKETCHINC
 40
0.1
  9
$FILLETRAD
 40
0.0
  9
$AUNITS
 70
     0
  9
$AUPREC
 70
     0
  9
$MENU
  1
acad
  9
$ELEVATION
 40
0.0
  9
$PELEVATION
 40
0.0
  9
$THICKNESS
 40
0.0
  9
$LIMCHECK
 70
     0
  9
$CHAMFERA
 40
0.0
  9
$CHAMFERB
 40
0.0
  9
$CHAMFERC
 40
0.0
  9
$CHAMFERD
 40
0.0
  9
$SKPOLY
 70
     0
  9
$TDCREATE
 40
2455131.583125000
  9
$TDUCREATE
 40
2455131.791458334
  9
$TDUPDATE
 40
2458800.461600348
  9
$TDUUPDATE
 40
2458800.669933681
  9
$TDINDWG
 40
0.0051701968
  9
$TDUSRTIMER
 40
0.0000000000
  9
$USRTIMER
 70
     0
  9
$ANGBASE
 50
0.0
  9
$ANGDIR
 70
     0
  9
$PDMODE
 70
     0
  9
$PDSIZE
 40
0.0
  9
$PLINEWID
 40
0.0
  9
$SPLFRAME
 70
     0
  9
$SPLINETYPE
 70
     6
  9
$SPLINESEGS
 70
     8
  9
$HANDSEED
  5
D2D22
  9
$SURFTAB1
 70
     6
  9
$SURFTAB2
 70
     6
  9
$SURFTYPE
 70
     6
  9
$SURFU
 70
     6
  9
$SURFV
 70
     6
  9
$UCSBASE
  2

  9
$UCSNAME
  2

  9
$UCSORG
 10
0.0
 20
0.0
 30
0.0
  9
$UCSXDIR
 10
1.0
 20
0.0
 30
0.0
  9
$UCSYDIR
 10
0.0
 20
0.0
 30
1.0
  9
$UCSORTHOREF
  2

  9
$UCSORTHOVIEW
 70
     3
  9
$UCSORGTOP
 10
0.0
 20
0.0
 30
0.0
  9
$UCSORGBOTTOM
 10
0.0
 20
0.0
 30
0.0
  9
$UCSORGLEFT
 10
0.0
 20
0.0
 30
0.0
  9
$UCSORGRIGHT
 10
0.0
 20
0.0
 30
0.0
  9
$UCSORGFRONT
 10
0.0
 20
0.0
 30
0.0
  9
$UCSORGBACK
 10
0.0
 20
0.0
 30
0.0
  9
$PUCSBASE
  2

  9
$PUCSNAME
  2

  9
$PUCSORG
 10
0.0
 20
0.0
 30
0.0
  9
$PUCSXDIR
 10
1.0
 20
0.0
 30
0.0
  9
$PUCSYDIR
 10
0.0
 20
1.0
 30
0.0
  9
$PUCSORTHOREF
  2

  9
$PUCSORTHOVIEW
 70
     0
  9
$PUCSORGTOP
 10
0.0
 20
0.0
 30
0.0
  9
$PUCSORGBOTTOM
 10
0.0
 20
0.0
 30
0.0
  9
$PUCSORGLEFT
 10
0.0
 20
0.0
 30
0.0
  9
$PUCSORGRIGHT
 10
0.0
 20
0.0
 30
0.0
  9
$PUCSORGFRONT
 10
0.0
 20
0.0
 30
0.0
  9
$PUCSORGBACK
 10
0.0
 20
0.0
 30
0.0
  9
$USERI1
 70
     0
  9
$USERI2
 70
     0
  9
$USERI3
 70
     0
  9
$USERI4
 70
     0
  9
$USERI5
 70
     0
  9
$USERR1
 40
0.0
  9
$USERR2
 40
0.0
  9
$USERR3
 40
0.0
  9
$USERR4
 40
0.0
  9
$USERR5
 40
0.0
  9
$WORLDVIEW
 70
     1
  9
$SHADEDGE
 70
     3
  9
$SHADEDIF
 70
    70
  9
$TILEMODE
 70
     1
  9
$MAXACTVP
 70
    16
  9
$PINSBASE
 10
0.0
 20
0.0
 30
0.0
  9
$PLIMCHECK
 70
     0
  9
$PEXTMIN
 10
1.000000000000000E+20
 20
1.000000000000000E+20
 30
0.0
  9
$PEXTMAX
 10
-1.000000000000000E+20
 20
-1.000000000000000E+20
 30
-1.000000000000000E+20
  9
$PLIMMIN
 10
0.0
 20
0.0
  9
$PLIMMAX
 10
12.0
 20
9.0
  9
$UNITMODE
 70
     0
  9
$VISRETAIN
 70
     0
  9
$PLINEGEN
 70
     0
  9
$PSLTSCALE
 70
     1
  9
$TREEDEPTH
 70
     0
  9
$CMLSTYLE
  2
STANDARD
  9
$CMLJUST
 70
     0
  9
$CMLSCALE
 40
1.0
  9
$PROXYGRAPHICS
 70
     1
  9
$MEASUREMENT
 70
     0
  9
$CELWEIGHT
370
    -1
  9
$ENDCAPS
280
     0
  9
$JOINSTYLE
280
     0
  9
$LWDISPLAY
290
     0
  9
$INSUNITS
 70
     0
  9
$HYPERLINKBASE
  1

  9
$STYLESHEET
  1

  9
$XEDIT
290
     1
  9
$CEPSNTYPE
380
     0
  9
$PSTYLEMODE
290
     1
  9
$FINGERPRINTGUID
  2
{C0947F96-0719-4A5A-B8A4-D861CDB796C3}
  9
$VERSIONGUID
  2
{73486E4C-2EB7-4F17-B5C0-4F8AC70C4708}
  9
$EXTNAMES
290
     1
  9
$PSVPSCALE
 40
0.0
  9
$OLESTARTUP
290
     0
  9
$SORTENTS
280
   127
  9
$INDEXCTL
280
     0
  9
$HIDETEXT
280
     0
  9
$XCLIPFRAME
280
     2
  9
$HALOGAP
280
     0
  9
$OBSCOLOR
 70
   257
  9
$OBSLTYPE
280
     0
  9
$INTERSECTIONDISPLAY
280
     0
  9
$INTERSECTIONCOLOR
 70
   257
  9
$DIMASSOC
280
     1
  9
$PROJECTNAME
  1

  9
$CAMERADISPLAY
290
     0
  9
$LENSLENGTH
 40
50.0
  9
$CAMERAHEIGHT
 40
0.0
  9
$STEPSPERSEC
 40
2.0
  9
$STEPSIZE
 40
6.0
  9
$3DDWFPREC
 40
2.0
  9
$PSOLWIDTH
 40
0.25
  9
$PSOLHEIGHT
 40
4.0
  9
$LOFTANG1
 40
1.570796326794896
  9
$LOFTANG2
 40
1.570796326794896
  9
$LOFTMAG1
 40
0.0
  9
$LOFTMAG2
 40
0.0
  9
$LOFTPARAM
 70
     7
  9
$LOFTNORMALS
280
     1
  9
$LATITUDE
 40
37.795
  9
$LONGITUDE
 40
-122.394
  9
$NORTHDIRECTION
 40
0.0
  9
$TIMEZONE
 70
 -8000
  9
$LIGHTGLYPHDISPLAY
280
     1
  9
$TILEMODELIGHTSYNCH
280
     1
  9
$CMATERIAL
347
D29D1
  9
$SOLIDHIST
280
     1
  9
$SHOWHIST
280
     1
  9
$DWFFRAME
280
     2
  9
$DGNFRAME
280
     0
  9
$REALWORLDSCALE
290
     1
  9
$INTERFERECOLOR
 62
     1
  9
$INTERFEREOBJVS
345
D29F3
  9
$INTERFEREVPVS
346
D2AA5
  9
$CSHADOW
280
     0
  9
$SHADOWPLANELOCATION
 40
0.0
  0
ENDSEC
  0
SECTION
  2
CLASSES
  0
CLASS
  1
ACDBDICTIONARYWDFLT
  2
AcDbDictionaryWithDefault
  3
ObjectDBX Classes
 90
        0
 91
        1
280
     0
281
     0
  0
CLASS
  1
MATERIAL
  2
AcDbMaterial
  3
ObjectDBX Classes
 90
     1153
 91
        3
280
     0
281
     0
  0
CLASS
  1
VISUALSTYLE
  2
AcDbVisualStyle
  3
ObjectDBX Classes
 90
     4095
 91
       26
280
     0
281
     0
  0
CLASS
  1
TABLESTYLE
  2
AcDbTableStyle
  3
ObjectDBX Classes
 90
     4095
 91
        1
280
     0
281
     0
  0
CLASS
  1
SCALE
  2
AcDbScale
  3
ObjectDBX Classes
 90
     1153
 91
       33
280
     0
281
     0
  0
CLASS
  1
MLEADERSTYLE
  2
AcDbMLeaderStyle
  3
ACDB_MLEADERSTYLE_CLASS
 90
     4095
 91
        1
280
     0
281
     0
  0
CLASS
  1
SORTENTSTABLE
  2
AcDbSortentsTable
  3
ObjectDBX Classes
 90
        0
 91
        1
280
     0
281
     0
  0
CLASS
  1
ACSH_EXTRUSION_CLASS
  2
AcDbShExtrusion
  3
ObjectDBX Classes
 90
     1153
 91
        1
280
     0
281
     0
  0
CLASS
  1
ACAD_EVALUATION_GRAPH
  2
AcDbEvalGraph
  3
ObjectDBX Classes
 90
     1153
 91
        2
280
     0
281
     0
  0
CLASS
  1
ACSH_HISTORY_CLASS
  2
AcDbShHistory
  3
ObjectDBX Classes
 90
     1153
 91
        2
280
     0
281
     0
  0
CLASS
  1
ACSH_REVOLVE_CLASS
  2
AcDbShRevolve
  3
ObjectDBX Classes
 90
     1153
 91
        1
280
     0
281
     0
  0
CLASS
  1
ACDBPERSSUBENTMANAGER
  2
AcDbPersSubentManager
  3
AcDbPersSubentManager
 90
     1024
 91
        1
280
     0
281
     0
  0
CLASS
  1
ACSH_BOOLEAN_CLASS
  2
AcDbShBoolean
  3
ObjectDBX Classes
 90
     1153
 91
        1
280
     0
281
     0
  0
CLASS
  1
DICTIONARYVAR
  2
AcDbDictionaryVar
  3
ObjectDBX Classes
 90
        0
 91
       11
280
     0
281
     0
  0
CLASS
  1
CELLSTYLEMAP
  2
AcDbCellStyleMap
  3
ObjectDBX Classes
 90
     1152
 91
        2
280
     0
281
     0
  0
CLASS
  1
ACDBASSOCPERSSUBENTMANAGER
  2
AcDbAssocPersSubentManager
  3
ObjectDBX Classes
 90
     1024
 91
        1
280
     0
281
     0
  0
CLASS
  1
AEC_REFEDIT_STATUS_TRACKER
  2
AecDbRefEditStatusTracker
  3
AecArchBase60|Product Desc: Autodesk Architectural Desktop 2007 |Company: Autodesk,Inc. |WEB Address: www.autodesk.com
 90
      129
 91
        1
280
     0
281
     0
  0
CLASS
  1
NPOCOLLECTION
  2
AcDbImpNonPersistentObjectsCollection
  3
ObjectDBX Classes
 90
     1153
 91
        1
280
     0
281
     0
  0
CLASS
  1
SOLID_BACKGROUND
  2
AcDbSolidBackground
  3
SCENEOE
 90
     4095
 91
        1
280
     0
281
     0
  0
ENDSEC
  0
SECTION
  2
TABLES
  0
TABLE
  2
VPORT
  5
94055
330
0
100
AcDbSymbolTable
 70
     1
  0
VPORT
  5
94056
330
94055
100
AcDbSymbolTableRecord
100
AcDbViewportTableRecord
  2
*ACTIVE
 70
     0
 10
0.0
 20
0.0
 11
1.0
 21
1.0
 12
-1.789846743372891
 22
15.71057645364891
 13
0.0
 23
0.0
 14
0.0
 24
0.0
 15
0.0
 25
0.0
 16
0.0000000000000275
 26
-125.3988166144567
 36
0.0
 17
5.986278618676145
 27
-1.75
 37
1.66412268096586
 40
43.05781415432738
 41
2.820564516129032
 42
50.0
 43
0.0
 44
0.0
 50
0.0
 51
0.0000000000000127
 71
     0
 72
   100
 73
     1
 74
     0
 75
     0
 76
     0
 77
     0
 78
     0
281
     0
 65
     1
110
0.0
120
0.0
130
0.0
111
1.0
121
0.0
131
0.0
112
0.0
122
0.0
132
1.0
 79
     0
146
0.0
348
D29EF
 60
     3
 61
     5
292
     1
282
     1
141
0.0
142
0.0
 63
   250
421
  3355443
  0
ENDTAB
  0
TABLE
  2
LTYPE
  5
1FA8E
330
0
100
AcDbSymbolTable
 70
     2
  0
LTYPE
  5
1FA8F
330
1FA8E
100
AcDbSymbolTableRecord
100
AcDbLinetypeTableRecord
  2
BYBLOCK
 70
     0
  3
  
 72
    65
 73
     0
 40
0.0
  0
LTYPE
  5
1FA90
330
1FA8E
100
AcDbSymbolTableRecord
100
AcDbLinetypeTableRecord
  2
BYLAYER
 70
     0
  3
  
 72
    65
 73
     0
 40
0.0
  0
LTYPE
  5
1FA91
330
1FA8E
100
AcDbSymbolTableRecord
100
AcDbLinetypeTableRecord
  2
CONTINUOUS
 70
     0
  3
Solid line
 72
    65
 73
     0
 40
0.0
  0
ENDTAB
  0
TABLE
  2
LAYER
  5
889A2
102
{ACAD_XDICTIONARY
360
D2AED
102
}
330
0
100
AcDbSymbolTable
 70
     2
  0
LAYER
  5
889A3
102
{ACAD_XDICTIONARY
360
D2A66
102
}
330
889A2
100
AcDbSymbolTableRecord
100
AcDbLayerTableRecord
  2
0
 70
     0
 62
     7
  6
CONTINUOUS
370
    -3
390
D29CF
347
D29E1
  0
LAYER
  5
D2AE7
330
889A2
100
AcDbSymbolTableRecord
100
AcDbLayerTableRecord
  2
Defpoints
 70
     0
 62
     7
  6
CONTINUOUS
290
     0
370
    -3
390
D29CF
347
D29E1
  0
ENDTAB
  0
TABLE
  2
STYLE
  5
C397C
330
0
100
AcDbSymbolTable
 70
     1
  0
STYLE
  5
C397D
330
C397C
100
AcDbSymbolTableRecord
100
AcDbTextStyleTableRecord
  2
STANDARD
 70
     0
 40
0.0
 41
1.0
 50
0.0
 71
     0
 42
2.5
  3
txt
  4

  0
ENDTAB
  0
TABLE
  2
VIEW
  5
129F0
330
0
100
AcDbSymbolTable
 70
     0
  0
ENDTAB
  0
TABLE
  2
UCS
  5
AFB7E
330
0
100
AcDbSymbolTable
 70
     0
  0
ENDTAB
  0
TABLE
  2
APPID
  5
D67D
330
0
100
AcDbSymbolTable
 70
     7
  0
APPID
  5
D67E
330
D67D
100
AcDbSymbolTableRecord
100
AcDbRegAppTableRecord
  2
ACAD
 70
     0
  0
APPID
  5
D2A9E
330
D67D
100
AcDbSymbolTableRecord
100
AcDbRegAppTableRecord
  2
ACAD_MLEADERVER
 70
     0
  0
APPID
  5
D2AE9
330
D67D
100
AcDbSymbolTableRecord
100
AcDbRegAppTableRecord
  2
ACAD_DSTYLE_DIMJOGGED_JOGANGLE_SYMBOL
 70
     0
  0
APPID
  5
D2AEA
330
D67D
100
AcDbSymbolTableRecord
100
AcDbRegAppTableRecord
  2
ACAD_DSTYLE_DIMJAG
 70
     0
  0
APPID
  5
D2AEB
330
D67D
100
AcDbSymbolTableRecord
100
AcDbRegAppTableRecord
  2
ACAD_DSTYLE_DIMTALN
 70
     0
  0
APPID
  5
D2AEC
330
D67D
100
AcDbSymbolTableRecord
100
AcDbRegAppTableRecord
  2
ACAD_PSEXT
 70
     0
  0
APPID
  5
D2CFD
330
D67D
100
AcDbSymbolTableRecord
100
AcDbRegAppTableRecord
  2
ACAD_EXEMPT_FROM_CAD_STANDARDS
 70
     0
  0
ENDTAB
  0
TABLE
  2
DIMSTYLE
  5
BF5D6
330
0
100
AcDbSymbolTable
 70
     3
100
AcDbDimStyleTable
 71
     1
340
D2A24
  0
DIMSTYLE
105
D2A24
330
BF5D6
100
AcDbSymbolTableRecord
100
AcDbDimStyleTableRecord
  2
Standard
 70
     0
340
C397D
  0
DIMSTYLE
105
D2AE8
102
{ACAD_REACTORS
330
D2B26
330
D2B27
330
D2B28
102
}
330
BF5D6
100
AcDbSymbolTableRecord
100
AcDbDimStyleTableRecord
  2
OWP Standard
 70
     0
  3
"
 40
3.0
 41
0.2
 42
0.1
 49
0.18
140
0.2
277
     5
340
C397D
342
D2AAF
1001
ACAD_DSTYLE_DIMJOGGED_JOGANGLE_SYMBOL
1070
   384
1040
0.7853981633974483
1001
ACAD_DSTYLE_DIMJAG
1070
   388
1040
1.5
1001
ACAD_DSTYLE_DIMTALN
1070
   392
1070
     0
  0
ENDTAB
  0
TABLE
  2
BLOCK_RECORD
  5
D29B5
330
0
100
AcDbSymbolTable
 70
    20
  0
BLOCK_RECORD
  5
D29B6
102
{ACAD_XDICTIONARY
360
D2A33
102
}
330
D29B5
100
AcDbSymbolTableRecord
100
AcDbBlockTableRecord
  2
*MODEL_SPACE
340
D2A27
 70
     0
280
     1
281
     0
  0
BLOCK_RECORD
  5
D29B7
330
D29B5
100
AcDbSymbolTableRecord
100
AcDbBlockTableRecord
  2
*PAPER_SPACE
340
D2A28
 70
     0
280
     1
281
     0
  0
BLOCK_RECORD
  5
D2AAF
330
D29B5
100
AcDbSymbolTableRecord
100
AcDbBlockTableRecord
  2
_ArchTick
340
0
102
{BLKREFS
331
D2AB9
331
D2ABA
331
D2AC6
331
D2AC7
331
D2AE0
331
D2AE1
331
D2AD3
331
D2AD4
331
D2BAE
331
D2BAF
331
D2BB8
331
D2BB9
331
D2BC2
331
D2BC3
331
D2BCE
331
D2BCF
331
D2BDB
331
D2BDC
331
D2BE8
331
D2BE9
331
D2BF5
331
D2BF6
331
D2CE0
331
D2CE1
331
D2CEA
331
D2CEB
331
D2CF4
331
D2CF5
102
}
 70
     0
280
     1
281
     0
  0
BLOCK_RECORD
  5
D2AB3
330
D29B5
100
AcDbSymbolTableRecord
100
AcDbBlockTableRecord
  2
*D1
340
0
 70
     0
280
     1
281
     0
  0
BLOCK_RECORD
  5
D2AC0
330
D29B5
100
AcDbSymbolTableRecord
100
AcDbBlockTableRecord
  2
*D2
340
0
 70
     0
280
     1
281
     0
  0
BLOCK_RECORD
  5
D2ACD
330
D29B5
100
AcDbSymbolTableRecord
100
AcDbBlockTableRecord
  2
*D3
340
0
 70
     0
280
     1
281
     0
  0
BLOCK_RECORD
  5
D2ADA
330
D29B5
100
AcDbSymbolTableRecord
100
AcDbBlockTableRecord
  2
*D4
340
0
 70
     0
280
     1
281
     0
  0
BLOCK_RECORD
  5
D2B6C
330
D29B5
100
AcDbSymbolTableRecord
100
AcDbBlockTableRecord
  2
*D6
340
0
 70
     0
280
     1
281
     0
  0
BLOCK_RECORD
  5
D2B79
330
D29B5
100
AcDbSymbolTableRecord
100
AcDbBlockTableRecord
  2
*D7
340
0
 70
     0
280
     1
281
     0
  0
BLOCK_RECORD
  5
D2B86
330
D29B5
100
AcDbSymbolTableRecord
100
AcDbBlockTableRecord
  2
*D8
340
0
 70
     0
280
     1
281
     0
  0
BLOCK_RECORD
  5
D2B93
330
D29B5
100
AcDbSymbolTableRecord
100
AcDbBlockTableRecord
  2
*D9
340
0
 70
     0
280
     1
281
     0
  0
BLOCK_RECORD
  5
D2BC8
330
D29B5
100
AcDbSymbolTableRecord
100
AcDbBlockTableRecord
  2
*D10
340
0
 70
     0
280
     1
281
     0
  0
BLOCK_RECORD
  5
D2BD5
330
D29B5
100
AcDbSymbolTableRecord
100
AcDbBlockTableRecord
  2
*D11
340
0
 70
     0
280
     1
281
     0
  0
BLOCK_RECORD
  5
D2BE2
330
D29B5
100
AcDbSymbolTableRecord
100
AcDbBlockTableRecord
  2
*D12
340
0
 70
     0
280
     1
281
     0
  0
BLOCK_RECORD
  5
D2BEF
330
D29B5
100
AcDbSymbolTableRecord
100
AcDbBlockTableRecord
  2
*D13
340
0
 70
     0
280
     1
281
     0
  0
BLOCK_RECORD
  5
D2C76
330
D29B5
100
AcDbSymbolTableRecord
100
AcDbBlockTableRecord
  2
*D15
340
0
 70
     0
280
     1
281
     0
  0
BLOCK_RECORD
  5
D2C83
330
D29B5
100
AcDbSymbolTableRecord
100
AcDbBlockTableRecord
  2
*D16
340
0
 70
     0
280
     1
281
     0
  0
BLOCK_RECORD
  5
D2C90
330
D29B5
100
AcDbSymbolTableRecord
100
AcDbBlockTableRecord
  2
*D17
340
0
 70
     0
280
     1
281
     0
  0
BLOCK_RECORD
  5
D2C9D
330
D29B5
100
AcDbSymbolTableRecord
100
AcDbBlockTableRecord
  2
*D18
340
0
 70
     0
280
     1
281
     0
  0
ENDTAB
  0
ENDSEC
  0
SECTION
  2
BLOCKS
  0
BLOCK
  5
D29B8
330
D29B6
100
AcDbEntity
  8
0
100
AcDbBlockBegin
  2
*MODEL_SPACE
 70
     0
 10
0.0
 20
0.0
 30
0.0
  3
*MODEL_SPACE
  1

  0
ENDBLK
  5
D29B9
330
D29B6
100
AcDbEntity
  8
0
100
AcDbBlockEnd
  0
BLOCK
  5
D29BA
330
D29B7
100
AcDbEntity
 67
     1
  8
0
100
AcDbBlockBegin
  2
*PAPER_SPACE
 70
     0
 10
0.0
 20
0.0
 30
0.0
  3
*PAPER_SPACE
  1

  0
ENDBLK
  5
D29BB
330
D29B7
100
AcDbEntity
 67
     1
  8
0
100
AcDbBlockEnd
  0
BLOCK
  5
D2AB0
330
D2AAF
100
AcDbEntity
  8
0
100
AcDbBlockBegin
  2
_ArchTick
 70
     0
 10
0.0
 20
0.0
 30
0.0
  3
_ArchTick
  1

  0
LWPOLYLINE
  5
D2AB1
330
D2AAF
100
AcDbEntity
  8
0
 62
     0
100
AcDbPolyline
 90
        2
 70
     0
 43
0.15
 10
-0.5
 20
-0.5
 10
0.5
 20
0.5
  0
ENDBLK
  5
D2AB2
330
D2AAF
100
AcDbEntity
  8
0
100
AcDbBlockEnd
  0
BLOCK
  5
D2AB4
330
D2AB3
100
AcDbEntity
  8
0
100
AcDbBlockBegin
  2
*D1
 70
     1
 10
0.0
 20
0.0
 30
0.0
  3
*D1
  1

  0
LINE
  5
D2AB5
330
D2AB3
100
AcDbEntity
  8
0
  6
Continuous
 62
     0
440
 16777216
370
    -2
100
AcDbLine
 10
21.35235462502819
 20
44.18750013470906
 30
0.0
 11
21.35235462502819
 21
45.51860093016981
 31
0.0
  0
LINE
  5
D2AB6
330
D2AB3
100
AcDbEntity
  8
0
  6
Continuous
 62
     0
440
 16777216
370
    -2
100
AcDbLine
 10
24.85235462502819
 20
44.18750013470906
 30
0.0
 11
24.85235462502819
 21
45.51860093016981
 31
0.0
  0
LINE
  5
D2AB7
330
D2AB3
100
AcDbEntity
  8
0
  6
Continuous
 62
     0
440
 16777216
370
    -2
100
AcDbLine
 10
21.35235462502819
 20
44.97860093016979
 30
0.0
 11
22.20235462502819
 21
44.97860093016979
 31
0.0
  0
LINE
  5
D2AB8
330
D2AB3
100
AcDbEntity
  8
0
  6
Continuous
 62
     0
440
 16777216
370
    -2
100
AcDbLine
 10
24.85235462502819
 20
44.97860093016979
 30
0.0
 11
24.00235462502819
 21
44.97860093016979
 31
0.0
  0
INSERT
  5
D2AB9
330
D2AB3
100
AcDbEntity
  8
0
  6
Continuous
 62
     0
440
 16777216
370
    -2
100
AcDbBlockReference
  2
_ArchTick
 10
21.35235462502819
 20
44.97860093016979
 30
0.0
 41
0.5400000000000002
 42
0.5400000000000002
 43
0.5400000000000002
 50
180.0
  0
INSERT
  5
D2ABA
330
D2AB3
100
AcDbEntity
  8
0
  6
Continuous
 62
     0
440
 16777216
370
    -2
100
AcDbBlockReference
  2
_ArchTick
 10
24.85235462502819
 20
44.97860093016979
 30
0.0
 41
0.5400000000000002
 42
0.5400000000000002
 43
0.5400000000000002
  0
MTEXT
  5
D2ABB
330
D2AB3
100
AcDbEntity
  8
0
  6
Continuous
 62
     0
440
 16777216
100
AcDbMText
 10
23.10235462502819
 20
44.97860093016979
 30
0.0
 40
0.5400000000000002
 41
0.0
 46
0.0
 71
     5
 72
     1
  1
\A1;3{\H1.000000x;\S1/2;}"
 73
     1
 44
1.0
  0
POINT
  5
D2ABC
330
D2AB3
100
AcDbEntity
  8
Defpoints
  6
Continuous
 62
     0
440
 16777216
100
AcDbPoint
 10
21.35235462502819
 20
44.00000013470906
 30
0.0
  0
POINT
  5
D2ABD
330
D2AB3
100
AcDbEntity
  8
Defpoints
  6
Continuous
 62
     0
440
 16777216
100
AcDbPoint
 10
24.85235462502819
 20
44.00000013470906
 30
0.0
  0
POINT
  5
D2ABE
330
D2AB3
100
AcDbEntity
  8
Defpoints
  6
Continuous
 62
     0
440
 16777216
100
AcDbPoint
 10
24.85235462502819
 20
44.97860093016979
 30
0.0
  0
ENDBLK
  5
D2ABF
330
D2AB3
100
AcDbEntity
  8
0
100
AcDbBlockEnd
  0
BLOCK
  5
D2AC1
330
D2AC0
100
AcDbEntity
  8
0
100
AcDbBlockBegin
  2
*D2
 70
     1
 10
0.0
 20
0.0
 30
0.0
  3
*D2
  1

  0
LINE
  5
D2AC2
330
D2AC0
100
AcDbEntity
  8
0
 62
     0
440
 16777216
370
    -2
100
AcDbLine
 10
25.40235462502819
 20
44.00000013470906
 30
0.0
 11
27.01968884863861
 21
44.00000013470906
 31
0.0
  0
LINE
  5
D2AC3
330
D2AC0
100
AcDbEntity
  8
0
 62
     0
440
 16777216
370
    -2
100
AcDbLine
 10
25.1523546250282
 20
38.62500458507888
 30
0.0
 11
27.0196888486386
 21
38.62500458507888
 31
0.0
  0
LINE
  5
D2AC4
330
D2AC0
100
AcDbEntity
  8
0
 62
     0
440
 16777216
370
    -2
100
AcDbLine
 10
26.47968884863861
 20
44.00000013470906
 30
0.0
 11
26.47968884863861
 21
42.28250235989396
 31
0.0
  0
LINE
  5
D2AC5
330
D2AC0
100
AcDbEntity
  8
0
 62
     0
440
 16777216
370
    -2
100
AcDbLine
 10
26.4796888486386
 20
38.62500458507888
 30
0.0
 11
26.47968884863861
 21
40.34250235989397
 31
0.0
  0
INSERT
  5
D2AC6
330
D2AC0
100
AcDbEntity
  8
0
 62
     0
440
 16777216
370
    -2
100
AcDbBlockReference
  2
_ArchTick
 10
26.47968884863861
 20
44.00000013470906
 30
0.0
 41
0.6000000000000001
 42
0.6000000000000001
 43
0.6000000000000001
 50
90.0
  0
INSERT
  5
D2AC7
330
D2AC0
100
AcDbEntity
  8
0
 62
     0
440
 16777216
370
    -2
100
AcDbBlockReference
  2
_ArchTick
 10
26.4796888486386
 20
38.62500458507888
 30
0.0
 41
0.6000000000000001
 42
0.6000000000000001
 43
0.6000000000000001
 50
270.0
  0
MTEXT
  5
D2AC8
330
D2AC0
100
AcDbEntity
  8
0
 62
     0
440
 16777216
100
AcDbMText
 10
26.4796888486386
 20
41.31250235989397
 30
0.0
 40
0.6000000000000001
 41
0.0
 46
0.0
 71
     5
 72
     1
  1
\A1;5{\H1.000000x;\S3/8;}"
 73
     1
 44
1.0
  0
POINT
  5
D2AC9
330
D2AC0
100
AcDbEntity
  8
Defpoints
 62
     0
440
 16777216
100
AcDbPoint
 10
25.10235462502819
 20
44.00000013470906
 30
0.0
  0
POINT
  5
D2ACA
330
D2AC0
100
AcDbEntity
  8
Defpoints
 62
     0
440
 16777216
100
AcDbPoint
 10
24.85235462502819
 20
38.62500458507888
 30
0.0
  0
POINT
  5
D2ACB
330
D2AC0
100
AcDbEntity
  8
Defpoints
 62
     0
440
 16777216
100
AcDbPoint
 10
26.4796888486386
 20
38.62500458507888
 30
0.0
  0
ENDBLK
  5
D2ACC
330
D2AC0
100
AcDbEntity
  8
0
100
AcDbBlockEnd
  0
BLOCK
  5
D2ACE
330
D2ACD
100
AcDbEntity
  8
0
100
AcDbBlockBegin
  2
*D3
 70
     1
 10
0.0
 20
0.0
 30
0.0
  3
*D3
  1

  0
LINE
  5
D2ACF
330
D2ACD
100
AcDbEntity
  8
0
 62
     0
440
 16777216
370
    -2
100
AcDbLine
 10
25.15235462502818
 20
9.500000134709059
 30
0.0
 11
27.0196888486386
 21
9.500000134709059
 31
0.0
  0
LINE
  5
D2AD0
330
D2ACD
100
AcDbEntity
  8
0
 62
     0
440
 16777216
370
    -2
100
AcDbLine
 10
25.15235462502818
 20
14.87529667736623
 30
0.0
 11
27.0196888486386
 21
14.87529667736623
 31
0.0
  0
LINE
  5
D2AD1
330
D2ACD
100
AcDbEntity
  8
0
 62
     0
440
 16777216
370
    -2
100
AcDbLine
 10
26.4796888486386
 20
9.500000134709059
 30
0.0
 11
26.4796888486386
 21
11.21764840603764
 31
0.0
  0
LINE
  5
D2AD2
330
D2ACD
100
AcDbEntity
  8
0
 62
     0
440
 16777216
370
    -2
100
AcDbLine
 10
26.4796888486386
 20
14.87529667736623
 30
0.0
 11
26.4796888486386
 21
13.15764840603764
 31
0.0
  0
INSERT
  5
D2AD3
330
D2ACD
100
AcDbEntity
  8
0
 62
     0
440
 16777216
370
    -2
100
AcDbBlockReference
  2
_ArchTick
 10
26.4796888486386
 20
9.500000134709059
 30
0.0
 41
0.6000000000000001
 42
0.6000000000000001
 43
0.6000000000000001
 50
270.0
  0
INSERT
  5
D2AD4
330
D2ACD
100
AcDbEntity
  8
0
 62
     0
440
 16777216
370
    -2
100
AcDbBlockReference
  2
_ArchTick
 10
26.4796888486386
 20
14.87529667736623
 30
0.0
 41
0.6000000000000001
 42
0.6000000000000001
 43
0.6000000000000001
 50
90.0
  0
MTEXT
  5
D2AD5
330
D2ACD
100
AcDbEntity
  8
0
 62
     0
440
 16777216
100
AcDbMText
 10
26.4796888486386
 20
12.18764840603765
 30
0.0
 40
0.6000000000000001
 41
0.0
 46
0.0
 71
     5
 72
     1
  1
\A1;5{\H1.000000x;\S3/8;}"
 73
     1
 44
1.0
  0
POINT
  5
D2AD6
330
D2ACD
100
AcDbEntity
  8
Defpoints
 62
     0
440
 16777216
100
AcDbPoint
 10
24.85235462502818
 20
9.500000134709059
 30
0.0
  0
POINT
  5
D2AD7
330
D2ACD
100
AcDbEntity
  8
Defpoints
 62
     0
440
 16777216
100
AcDbPoint
 10
24.85235462502818
 20
14.87529667736623
 30
0.0
  0
POINT
  5
D2AD8
330
D2ACD
100
AcDbEntity
  8
Defpoints
 62
     0
440
 16777216
100
AcDbPoint
 10
26.4796888486386
 20
14.87529667736623
 30
0.0
  0
ENDBLK
  5
D2AD9
330
D2ACD
100
AcDbEntity
  8
0
100
AcDbBlockEnd
  0
BLOCK
  5
D2ADB
330
D2ADA
100
AcDbEntity
  8
0
100
AcDbBlockBegin
  2
*D4
 70
     1
 10
0.0
 20
0.0
 30
0.0
  3
*D4
  1

  0
LINE
  5
D2ADC
330
D2ADA
100
AcDbEntity
  8
0
 62
     0
440
 16777216
370
    -2
100
AcDbLine
 10
21.05235462502818
 20
9.500000134709059
 30
0.0
 11
18.44860121029888
 21
9.500000134709059
 31
0.0
  0
LINE
  5
D2ADD
330
D2ADA
100
AcDbEntity
  8
0
 62
     0
440
 16777216
370
    -2
100
AcDbLine
 10
21.05235462502819
 20
44.00000013470906
 30
0.0
 11
18.44860121029889
 21
44.00000013470906
 31
0.0
  0
LINE
  5
D2ADE
330
D2ADA
100
AcDbEntity
  8
0
 62
     0
440
 16777216
370
    -2
100
AcDbLine
 10
18.98860121029888
 20
9.500000134709059
 30
0.0
 11
18.98860121029889
 21
25.78000013470907
 31
0.0
  0
LINE
  5
D2ADF
330
D2ADA
100
AcDbEntity
  8
0
 62
     0
440
 16777216
370
    -2
100
AcDbLine
 10
18.98860121029889
 20
44.00000013470906
 30
0.0
 11
18.98860121029889
 21
27.72000013470906
 31
0.0
  0
INSERT
  5
D2AE0
330
D2ADA
100
AcDbEntity
  8
0
 62
     0
440
 16777216
370
    -2
100
AcDbBlockReference
  2
_ArchTick
 10
18.98860121029888
 20
9.500000134709059
 30
0.0
 41
0.6000000000000001
 42
0.6000000000000001
 43
0.6000000000000001
 50
270.0
  0
INSERT
  5
D2AE1
330
D2ADA
100
AcDbEntity
  8
0
 62
     0
440
 16777216
370
    -2
100
AcDbBlockReference
  2
_ArchTick
 10
18.98860121029889
 20
44.00000013470906
 30
0.0
 41
0.6000000000000001
 42
0.6000000000000001
 43
0.6000000000000001
 50
90.0
  0
MTEXT
  5
D2AE2
330
D2ADA
100
AcDbEntity
  8
0
 62
     0
440
 16777216
100
AcDbMText
 10
18.98860121029888
 20
26.75000013470907
 30
0.0
 40
0.6000000000000001
 41
0.0
 46
0.0
 71
     5
 72
     1
  1
\A1;34{\H1.000000x;\S1/2;}"
 73
     1
 44
1.0
  0
POINT
  5
D2AE3
330
D2ADA
100
AcDbEntity
  8
Defpoints
 62
     0
440
 16777216
100
AcDbPoint
 10
21.35235462502818
 20
9.500000134709059
 30
0.0
  0
POINT
  5
D2AE4
330
D2ADA
100
AcDbEntity
  8
Defpoints
 62
     0
440
 16777216
100
AcDbPoint
 10
21.35235462502819
 20
44.00000013470906
 30
0.0
  0
POINT
  5
D2AE5
330
D2ADA
100
AcDbEntity
  8
Defpoints
 62
     0
440
 16777216
100
AcDbPoint
 10
18.98860121029889
 20
44.00000013470906
 30
0.0
  0
ENDBLK
  5
D2AE6
330
D2ADA
100
AcDbEntity
  8
0
100
AcDbBlockEnd
  0
BLOCK
  5
D2B6D
330
D2B6C
100
AcDbEntity
  8
0
100
AcDbBlockBegin
  2
*D6
 70
     1
 10
0.0
 20
0.0
 30
0.0
  3
*D6
  1

  0
LINE
  5
D2BA0
330
D2B6C
100
AcDbEntity
  8
0
  6
Continuous
 62
     0
440
 16777216
370
    -2
100
AcDbLine
 10
72.79217000908769
 20
38.39078077379728
 30
0.0
 11
72.79217000908769
 21
39.48688156925801
 31
0.0
  0
LINE
  5
D2BA1
330
D2B6C
100
AcDbEntity
  8
0
  6
Continuous
 62
     0
440
 16777216
370
    -2
100
AcDbLine
 10
76.2921700090877
 20
38.39078077379728
 30
0.0
 11
76.2921700090877
 21
39.48688156925801
 31
0.0
  0
LINE
  5
D2BA2
330
D2B6C
100
AcDbEntity
  8
0
  6
Continuous
 62
     0
440
 16777216
370
    -2
100
AcDbLine
 10
72.9721700090877
 20
39.30688156925801
 30
0.0
 11
74.04717000908769
 21
39.30688156925801
 31
0.0
  0
LINE
  5
D2BA3
330
D2B6C
100
AcDbEntity
  8
0
  6
Continuous
 62
     0
440
 16777216
370
    -2
100
AcDbLine
 10
76.11217000908769
 20
39.30688156925801
 30
0.0
 11
75.0371700090877
 21
39.30688156925801
 31
0.0
  0
SOLID
  5
D2BA4
330
D2B6C
100
AcDbEntity
  8
0
  6
Continuous
 62
     0
440
 16777216
100
AcDbTrace
 10
72.9721700090877
 20
39.33688156925801
 30
0.0
 11
72.9721700090877
 21
39.27688156925801
 31
0.0
 12
72.79217000908769
 22
39.30688156925801
 32
0.0
 13
72.79217000908769
 23
39.30688156925801
 33
0.0
  0
SOLID
  5
D2BA5
330
D2B6C
100
AcDbEntity
  8
0
  6
Continuous
 62
     0
440
 16777216
100
AcDbTrace
 10
76.11217000908769
 20
39.33688156925801
 30
0.0
 11
76.11217000908769
 21
39.27688156925801
 31
0.0
 12
76.2921700090877
 22
39.30688156925801
 32
0.0
 13
76.2921700090877
 23
39.30688156925801
 33
0.0
  0
MTEXT
  5
D2BA6
330
D2B6C
100
AcDbEntity
  8
0
  6
Continuous
 62
     0
440
 16777216
100
AcDbMText
 10
74.54217000908769
 20
39.30688156925801
 30
0.0
 40
0.18
 41
0.0
 46
0.0
 71
     5
 72
     1
  1
\A1;3.5000
 73
     1
 44
1.0
  0
POINT
  5
D2BA7
330
D2B6C
100
AcDbEntity
  8
Defpoints
  6
Continuous
 62
     0
440
 16777216
100
AcDbPoint
 10
72.79217000908769
 20
38.32828077379728
 30
0.0
  0
POINT
  5
D2BA8
330
D2B6C
100
AcDbEntity
  8
Defpoints
  6
Continuous
 62
     0
440
 16777216
100
AcDbPoint
 10
76.2921700090877
 20
38.32828077379728
 30
0.0
  0
POINT
  5
D2BA9
330
D2B6C
100
AcDbEntity
  8
Defpoints
  6
Continuous
 62
     0
440
 16777216
100
AcDbPoint
 10
76.2921700090877
 20
39.30688156925801
 30
0.0
  0
ENDBLK
  5
D2B6E
330
D2B6C
100
AcDbEntity
  8
0
100
AcDbBlockEnd
  0
BLOCK
  5
D2B7A
330
D2B79
100
AcDbEntity
  8
0
100
AcDbBlockBegin
  2
*D7
 70
     1
 10
0.0
 20
0.0
 30
0.0
  3
*D7
  1

  0
LINE
  5
D2BAA
330
D2B79
100
AcDbEntity
  8
0
 62
     0
440
 16777216
370
    -2
100
AcDbLine
 10
76.8421700090877
 20
38.32828077379728
 30
0.0
 11
78.45950423269811
 21
38.32828077379728
 31
0.0
  0
LINE
  5
D2BAB
330
D2B79
100
AcDbEntity
  8
0
 62
     0
440
 16777216
370
    -2
100
AcDbLine
 10
76.59217000908769
 20
32.9532852241671
 30
0.0
 11
78.45950423269811
 21
32.9532852241671
 31
0.0
  0
LINE
  5
D2BAC
330
D2B79
100
AcDbEntity
  8
0
 62
     0
440
 16777216
370
    -2
100
AcDbLine
 10
77.9195042326981
 20
38.32828077379728
 30
0.0
 11
77.9195042326981
 21
36.61078299898219
 31
0.0
  0
LINE
  5
D2BAD
330
D2B79
100
AcDbEntity
  8
0
 62
     0
440
 16777216
370
    -2
100
AcDbLine
 10
77.9195042326981
 20
32.9532852241671
 30
0.0
 11
77.9195042326981
 21
34.67078299898219
 31
0.0
  0
INSERT
  5
D2BAE
330
D2B79
100
AcDbEntity
  8
0
 62
     0
440
 16777216
370
    -2
100
AcDbBlockReference
  2
_ArchTick
 10
77.9195042326981
 20
38.32828077379728
 30
0.0
 41
0.6000000000000001
 42
0.6000000000000001
 43
0.6000000000000001
 50
90.0
  0
INSERT
  5
D2BAF
330
D2B79
100
AcDbEntity
  8
0
 62
     0
440
 16777216
370
    -2
100
AcDbBlockReference
  2
_ArchTick
 10
77.9195042326981
 20
32.9532852241671
 30
0.0
 41
0.6000000000000001
 42
0.6000000000000001
 43
0.6000000000000001
 50
270.0
  0
MTEXT
  5
D2BB0
330
D2B79
100
AcDbEntity
  8
0
 62
     0
440
 16777216
100
AcDbMText
 10
77.91950423269809
 20
35.6407829989822
 30
0.0
 40
0.6000000000000001
 41
0.0
 46
0.0
 71
     5
 72
     1
  1
\A1;5{\H1.000000x;\S3/8;}"
 73
     1
 44
1.0
  0
POINT
  5
D2BB1
330
D2B79
100
AcDbEntity
  8
Defpoints
 62
     0
440
 16777216
100
AcDbPoint
 10
76.54217000908769
 20
38.32828077379728
 30
0.0
  0
POINT
  5
D2BB2
330
D2B79
100
AcDbEntity
  8
Defpoints
 62
     0
440
 16777216
100
AcDbPoint
 10
76.2921700090877
 20
32.9532852241671
 30
0.0
  0
POINT
  5
D2BB3
330
D2B79
100
AcDbEntity
  8
Defpoints
 62
     0
440
 16777216
100
AcDbPoint
 10
77.9195042326981
 20
32.9532852241671
 30
0.0
  0
ENDBLK
  5
D2B7B
330
D2B79
100
AcDbEntity
  8
0
100
AcDbBlockEnd
  0
BLOCK
  5
D2B87
330
D2B86
100
AcDbEntity
  8
0
100
AcDbBlockBegin
  2
*D8
 70
     1
 10
0.0
 20
0.0
 30
0.0
  3
*D8
  1

  0
LINE
  5
D2BB4
330
D2B86
100
AcDbEntity
  8
0
 62
     0
440
 16777216
370
    -2
100
AcDbLine
 10
76.59217000908768
 20
3.828280773797279
 30
0.0
 11
78.45950423269811
 21
3.828280773797279
 31
0.0
  0
LINE
  5
D2BB5
330
D2B86
100
AcDbEntity
  8
0
 62
     0
440
 16777216
370
    -2
100
AcDbLine
 10
76.59217000908768
 20
9.203577316454451
 30
0.0
 11
78.45950423269811
 21
9.203577316454451
 31
0.0
  0
LINE
  5
D2BB6
330
D2B86
100
AcDbEntity
  8
0
 62
     0
440
 16777216
370
    -2
100
AcDbLine
 10
77.9195042326981
 20
3.828280773797279
 30
0.0
 11
77.9195042326981
 21
5.545929045125866
 31
0.0
  0
LINE
  5
D2BB7
330
D2B86
100
AcDbEntity
  8
0
 62
     0
440
 16777216
370
    -2
100
AcDbLine
 10
77.9195042326981
 20
9.203577316454451
 30
0.0
 11
77.9195042326981
 21
7.485929045125866
 31
0.0
  0
INSERT
  5
D2BB8
330
D2B86
100
AcDbEntity
  8
0
 62
     0
440
 16777216
370
    -2
100
AcDbBlockReference
  2
_ArchTick
 10
77.9195042326981
 20
3.828280773797279
 30
0.0
 41
0.6000000000000001
 42
0.6000000000000001
 43
0.6000000000000001
 50
270.0
  0
INSERT
  5
D2BB9
330
D2B86
100
AcDbEntity
  8
0
 62
     0
440
 16777216
370
    -2
100
AcDbBlockReference
  2
_ArchTick
 10
77.9195042326981
 20
9.203577316454451
 30
0.0
 41
0.6000000000000001
 42
0.6000000000000001
 43
0.6000000000000001
 50
90.0
  0
MTEXT
  5
D2BBA
330
D2B86
100
AcDbEntity
  8
0
 62
     0
440
 16777216
100
AcDbMText
 10
77.9195042326981
 20
6.515929045125878
 30
0.0
 40
0.6000000000000001
 41
0.0
 46
0.0
 71
     5
 72
     1
  1
\A1;5{\H1.000000x;\S3/8;}"
 73
     1
 44
1.0
  0
POINT
  5
D2BBB
330
D2B86
100
AcDbEntity
  8
Defpoints
 62
     0
440
 16777216
100
AcDbPoint
 10
76.29217000908768
 20
3.828280773797279
 30
0.0
  0
POINT
  5
D2BBC
330
D2B86
100
AcDbEntity
  8
Defpoints
 62
     0
440
 16777216
100
AcDbPoint
 10
76.29217000908768
 20
9.203577316454451
 30
0.0
  0
POINT
  5
D2BBD
330
D2B86
100
AcDbEntity
  8
Defpoints
 62
     0
440
 16777216
100
AcDbPoint
 10
77.9195042326981
 20
9.203577316454451
 30
0.0
  0
ENDBLK
  5
D2B88
330
D2B86
100
AcDbEntity
  8
0
100
AcDbBlockEnd
  0
BLOCK
  5
D2B94
330
D2B93
100
AcDbEntity
  8
0
100
AcDbBlockBegin
  2
*D9
 70
     1
 10
0.0
 20
0.0
 30
0.0
  3
*D9
  1

  0
LINE
  5
D2BBE
330
D2B93
100
AcDbEntity
  8
0
 62
     0
440
 16777216
370
    -2
100
AcDbLine
 10
72.49217000908768
 20
3.828280773797279
 30
0.0
 11
69.88841659435838
 21
3.82828077379728
 31
0.0
  0
LINE
  5
D2BBF
330
D2B93
100
AcDbEntity
  8
0
 62
     0
440
 16777216
370
    -2
100
AcDbLine
 10
72.4921700090877
 20
38.32828077379728
 30
0.0
 11
69.88841659435839
 21
38.32828077379728
 31
0.0
  0
LINE
  5
D2BC0
330
D2B93
100
AcDbEntity
  8
0
 62
     0
440
 16777216
370
    -2
100
AcDbLine
 10
70.42841659435838
 20
3.82828077379728
 30
0.0
 11
70.42841659435838
 21
20.10828077379728
 31
0.0
  0
LINE
  5
D2BC1
330
D2B93
100
AcDbEntity
  8
0
 62
     0
440
 16777216
370
    -2
100
AcDbLine
 10
70.4284165943584
 20
38.32828077379728
 30
0.0
 11
70.42841659435838
 21
22.04828077379728
 31
0.0
  0
INSERT
  5
D2BC2
330
D2B93
100
AcDbEntity
  8
0
 62
     0
440
 16777216
370
    -2
100
AcDbBlockReference
  2
_ArchTick
 10
70.42841659435838
 20
3.82828077379728
 30
0.0
 41
0.6000000000000001
 42
0.6000000000000001
 43
0.6000000000000001
 50
270.0
  0
INSERT
  5
D2BC3
330
D2B93
100
AcDbEntity
  8
0
 62
     0
440
 16777216
370
    -2
100
AcDbBlockReference
  2
_ArchTick
 10
70.4284165943584
 20
38.32828077379728
 30
0.0
 41
0.6000000000000001
 42
0.6000000000000001
 43
0.6000000000000001
 50
90.0
  0
MTEXT
  5
D2BC4
330
D2B93
100
AcDbEntity
  8
0
 62
     0
440
 16777216
100
AcDbMText
 10
70.42841659435838
 20
21.07828077379729
 30
0.0
 40
0.6000000000000001
 41
0.0
 46
0.0
 71
     5
 72
     1
  1
\A1;34{\H1.000000x;\S1/2;}"
 73
     1
 44
1.0
  0
POINT
  5
D2BC5
330
D2B93
100
AcDbEntity
  8
Defpoints
 62
     0
440
 16777216
100
AcDbPoint
 10
72.79217000908769
 20
3.828280773797279
 30
0.0
  0
POINT
  5
D2BC6
330
D2B93
100
AcDbEntity
  8
Defpoints
 62
     0
440
 16777216
100
AcDbPoint
 10
72.79217000908769
 20
38.32828077379728
 30
0.0
  0
POINT
  5
D2BC7
330
D2B93
100
AcDbEntity
  8
Defpoints
 62
     0
440
 16777216
100
AcDbPoint
 10
70.4284165943584
 20
38.32828077379728
 30
0.0
  0
ENDBLK
  5
D2B95
330
D2B93
100
AcDbEntity
  8
0
100
AcDbBlockEnd
  0
BLOCK
  5
D2BC9
330
D2BC8
100
AcDbEntity
  8
0
100
AcDbBlockBegin
  2
*D10
 70
     1
 10
0.0
 20
0.0
 30
0.0
  3
*D10
  1

  0
LINE
  5
D2BCA
330
D2BC8
100
AcDbEntity
  8
0
  6
Continuous
 62
     0
440
 16777216
370
    -2
100
AcDbLine
 10
21.35235462502819
 20
44.18750013470906
 30
0.0
 11
21.35235462502819
 21
45.51860093016981
 31
0.0
  0
LINE
  5
D2BCB
330
D2BC8
100
AcDbEntity
  8
0
  6
Continuous
 62
     0
440
 16777216
370
    -2
100
AcDbLine
 10
24.85235462502819
 20
44.18750013470906
 30
0.0
 11
24.85235462502819
 21
45.51860093016981
 31
0.0
  0
LINE
  5
D2BCC
330
D2BC8
100
AcDbEntity
  8
0
  6
Continuous
 62
     0
440
 16777216
370
    -2
100
AcDbLine
 10
21.35235462502819
 20
44.97860093016979
 30
0.0
 11
22.20235462502819
 21
44.97860093016979
 31
0.0
  0
LINE
  5
D2BCD
330
D2BC8
100
AcDbEntity
  8
0
  6
Continuous
 62
     0
440
 16777216
370
    -2
100
AcDbLine
 10
24.85235462502819
 20
44.97860093016979
 30
0.0
 11
24.00235462502819
 21
44.97860093016979
 31
0.0
  0
INSERT
  5
D2BCE
330
D2BC8
100
AcDbEntity
  8
0
  6
Continuous
 62
     0
440
 16777216
370
    -2
100
AcDbBlockReference
  2
_ArchTick
 10
21.35235462502819
 20
44.97860093016979
 30
0.0
 41
0.5400000000000002
 42
0.5400000000000002
 43
0.5400000000000002
 50
180.0
  0
INSERT
  5
D2BCF
330
D2BC8
100
AcDbEntity
  8
0
  6
Continuous
 62
     0
440
 16777216
370
    -2
100
AcDbBlockReference
  2
_ArchTick
 10
24.85235462502819
 20
44.97860093016979
 30
0.0
 41
0.5400000000000002
 42
0.5400000000000002
 43
0.5400000000000002
  0
MTEXT
  5
D2BD0
330
D2BC8
100
AcDbEntity
  8
0
  6
Continuous
 62
     0
440
 16777216
100
AcDbMText
 10
23.10235462502819
 20
44.97860093016979
 30
0.0
 40
0.5400000000000002
 41
0.0
 46
0.0
 71
     5
 72
     1
  1
\A1;3{\H1.000000x;\S1/2;}"
 73
     1
 44
1.0
  0
POINT
  5
D2BD1
330
D2BC8
100
AcDbEntity
  8
Defpoints
  6
Continuous
 62
     0
440
 16777216
100
AcDbPoint
 10
21.35235462502819
 20
44.00000013470906
 30
0.0
  0
POINT
  5
D2BD2
330
D2BC8
100
AcDbEntity
  8
Defpoints
  6
Continuous
 62
     0
440
 16777216
100
AcDbPoint
 10
24.85235462502819
 20
44.00000013470906
 30
0.0
  0
POINT
  5
D2BD3
330
D2BC8
100
AcDbEntity
  8
Defpoints
  6
Continuous
 62
     0
440
 16777216
100
AcDbPoint
 10
24.85235462502819
 20
44.97860093016979
 30
0.0
  0
ENDBLK
  5
D2BD4
330
D2BC8
100
AcDbEntity
  8
0
100
AcDbBlockEnd
  0
BLOCK
  5
D2BD6
330
D2BD5
100
AcDbEntity
  8
0
100
AcDbBlockBegin
  2
*D11
 70
     1
 10
0.0
 20
0.0
 30
0.0
  3
*D11
  1

  0
LINE
  5
D2BD7
330
D2BD5
100
AcDbEntity
  8
0
 62
     0
440
 16777216
370
    -2
100
AcDbLine
 10
25.40235462502819
 20
44.00000013470906
 30
0.0
 11
27.01968884863861
 21
44.00000013470906
 31
0.0
  0
LINE
  5
D2BD8
330
D2BD5
100
AcDbEntity
  8
0
 62
     0
440
 16777216
370
    -2
100
AcDbLine
 10
25.1523546250282
 20
38.62500458507888
 30
0.0
 11
27.0196888486386
 21
38.62500458507888
 31
0.0
  0
LINE
  5
D2BD9
330
D2BD5
100
AcDbEntity
  8
0
 62
     0
440
 16777216
370
    -2
100
AcDbLine
 10
26.47968884863861
 20
44.00000013470906
 30
0.0
 11
26.47968884863861
 21
42.28250235989396
 31
0.0
  0
LINE
  5
D2BDA
330
D2BD5
100
AcDbEntity
  8
0
 62
     0
440
 16777216
370
    -2
100
AcDbLine
 10
26.4796888486386
 20
38.62500458507888
 30
0.0
 11
26.47968884863861
 21
40.34250235989397
 31
0.0
  0
INSERT
  5
D2BDB
330
D2BD5
100
AcDbEntity
  8
0
 62
     0
440
 16777216
370
    -2
100
AcDbBlockReference
  2
_ArchTick
 10
26.47968884863861
 20
44.00000013470906
 30
0.0
 41
0.6000000000000001
 42
0.6000000000000001
 43
0.6000000000000001
 50
90.0
  0
INSERT
  5
D2BDC
330
D2BD5
100
AcDbEntity
  8
0
 62
     0
440
 16777216
370
    -2
100
AcDbBlockReference
  2
_ArchTick
 10
26.4796888486386
 20
38.62500458507888
 30
0.0
 41
0.6000000000000001
 42
0.6000000000000001
 43
0.6000000000000001
 50
270.0
  0
MTEXT
  5
D2BDD
330
D2BD5
100
AcDbEntity
  8
0
 62
     0
440
 16777216
100
AcDbMText
 10
26.4796888486386
 20
41.31250235989397
 30
0.0
 40
0.6000000000000001
 41
0.0
 46
0.0
 71
     5
 72
     1
  1
\A1;5{\H1.000000x;\S3/8;}"
 73
     1
 44
1.0
  0
POINT
  5
D2BDE
330
D2BD5
100
AcDbEntity
  8
Defpoints
 62
     0
440
 16777216
100
AcDbPoint
 10
25.10235462502819
 20
44.00000013470906
 30
0.0
  0
POINT
  5
D2BDF
330
D2BD5
100
AcDbEntity
  8
Defpoints
 62
     0
440
 16777216
100
AcDbPoint
 10
24.85235462502819
 20
38.62500458507888
 30
0.0
  0
POINT
  5
D2BE0
330
D2BD5
100
AcDbEntity
  8
Defpoints
 62
     0
440
 16777216
100
AcDbPoint
 10
26.4796888486386
 20
38.62500458507888
 30
0.0
  0
ENDBLK
  5
D2BE1
330
D2BD5
100
AcDbEntity
  8
0
100
AcDbBlockEnd
  0
BLOCK
  5
D2BE3
330
D2BE2
100
AcDbEntity
  8
0
100
AcDbBlockBegin
  2
*D12
 70
     1
 10
0.0
 20
0.0
 30
0.0
  3
*D12
  1

  0
LINE
  5
D2BE4
330
D2BE2
100
AcDbEntity
  8
0
 62
     0
440
 16777216
370
    -2
100
AcDbLine
 10
25.15235462502818
 20
9.500000134709059
 30
0.0
 11
27.0196888486386
 21
9.500000134709059
 31
0.0
  0
LINE
  5
D2BE5
330
D2BE2
100
AcDbEntity
  8
0
 62
     0
440
 16777216
370
    -2
100
AcDbLine
 10
25.15235462502818
 20
14.87529667736623
 30
0.0
 11
27.0196888486386
 21
14.87529667736623
 31
0.0
  0
LINE
  5
D2BE6
330
D2BE2
100
AcDbEntity
  8
0
 62
     0
440
 16777216
370
    -2
100
AcDbLine
 10
26.4796888486386
 20
9.500000134709059
 30
0.0
 11
26.4796888486386
 21
11.21764840603764
 31
0.0
  0
LINE
  5
D2BE7
330
D2BE2
100
AcDbEntity
  8
0
 62
     0
440
 16777216
370
    -2
100
AcDbLine
 10
26.4796888486386
 20
14.87529667736623
 30
0.0
 11
26.4796888486386
 21
13.15764840603764
 31
0.0
  0
INSERT
  5
D2BE8
330
D2BE2
100
AcDbEntity
  8
0
 62
     0
440
 16777216
370
    -2
100
AcDbBlockReference
  2
_ArchTick
 10
26.4796888486386
 20
9.500000134709059
 30
0.0
 41
0.6000000000000001
 42
0.6000000000000001
 43
0.6000000000000001
 50
270.0
  0
INSERT
  5
D2BE9
330
D2BE2
100
AcDbEntity
  8
0
 62
     0
440
 16777216
370
    -2
100
AcDbBlockReference
  2
_ArchTick
 10
26.4796888486386
 20
14.87529667736623
 30
0.0
 41
0.6000000000000001
 42
0.6000000000000001
 43
0.6000000000000001
 50
90.0
  0
MTEXT
  5
D2BEA
330
D2BE2
100
AcDbEntity
  8
0
 62
     0
440
 16777216
100
AcDbMText
 10
26.4796888486386
 20
12.18764840603765
 30
0.0
 40
0.6000000000000001
 41
0.0
 46
0.0
 71
     5
 72
     1
  1
\A1;5{\H1.000000x;\S3/8;}"
 73
     1
 44
1.0
  0
POINT
  5
D2BEB
330
D2BE2
100
AcDbEntity
  8
Defpoints
 62
     0
440
 16777216
100
AcDbPoint
 10
24.85235462502818
 20
9.500000134709059
 30
0.0
  0
POINT
  5
D2BEC
330
D2BE2
100
AcDbEntity
  8
Defpoints
 62
     0
440
 16777216
100
AcDbPoint
 10
24.85235462502818
 20
14.87529667736623
 30
0.0
  0
POINT
  5
D2BED
330
D2BE2
100
AcDbEntity
  8
Defpoints
 62
     0
440
 16777216
100
AcDbPoint
 10
26.4796888486386
 20
14.87529667736623
 30
0.0
  0
ENDBLK
  5
D2BEE
330
D2BE2
100
AcDbEntity
  8
0
100
AcDbBlockEnd
  0
BLOCK
  5
D2BF0
330
D2BEF
100
AcDbEntity
  8
0
100
AcDbBlockBegin
  2
*D13
 70
     1
 10
0.0
 20
0.0
 30
0.0
  3
*D13
  1

  0
LINE
  5
D2BF1
330
D2BEF
100
AcDbEntity
  8
0
 62
     0
440
 16777216
370
    -2
100
AcDbLine
 10
21.05235462502818
 20
9.500000134709059
 30
0.0
 11
18.44860121029888
 21
9.500000134709059
 31
0.0
  0
LINE
  5
D2BF2
330
D2BEF
100
AcDbEntity
  8
0
 62
     0
440
 16777216
370
    -2
100
AcDbLine
 10
21.05235462502819
 20
44.00000013470906
 30
0.0
 11
18.44860121029889
 21
44.00000013470906
 31
0.0
  0
LINE
  5
D2BF3
330
D2BEF
100
AcDbEntity
  8
0
 62
     0
440
 16777216
370
    -2
100
AcDbLine
 10
18.98860121029888
 20
9.500000134709059
 30
0.0
 11
18.98860121029889
 21
25.78000013470907
 31
0.0
  0
LINE
  5
D2BF4
330
D2BEF
100
AcDbEntity
  8
0
 62
     0
440
 16777216
370
    -2
100
AcDbLine
 10
18.98860121029889
 20
44.00000013470906
 30
0.0
 11
18.98860121029889
 21
27.72000013470906
 31
0.0
  0
INSERT
  5
D2BF5
330
D2BEF
100
AcDbEntity
  8
0
 62
     0
440
 16777216
370
    -2
100
AcDbBlockReference
  2
_ArchTick
 10
18.98860121029888
 20
9.500000134709059
 30
0.0
 41
0.6000000000000001
 42
0.6000000000000001
 43
0.6000000000000001
 50
270.0
  0
INSERT
  5
D2BF6
330
D2BEF
100
AcDbEntity
  8
0
 62
     0
440
 16777216
370
    -2
100
AcDbBlockReference
  2
_ArchTick
 10
18.98860121029889
 20
44.00000013470906
 30
0.0
 41
0.6000000000000001
 42
0.6000000000000001
 43
0.6000000000000001
 50
90.0
  0
MTEXT
  5
D2BF7
330
D2BEF
100
AcDbEntity
  8
0
 62
     0
440
 16777216
100
AcDbMText
 10
18.98860121029888
 20
26.75000013470907
 30
0.0
 40
0.6000000000000001
 41
0.0
 46
0.0
 71
     5
 72
     1
  1
\A1;34{\H1.000000x;\S1/2;}"
 73
     1
 44
1.0
  0
POINT
  5
D2BF8
330
D2BEF
100
AcDbEntity
  8
Defpoints
 62
     0
440
 16777216
100
AcDbPoint
 10
21.35235462502818
 20
9.500000134709059
 30
0.0
  0
POINT
  5
D2BF9
330
D2BEF
100
AcDbEntity
  8
Defpoints
 62
     0
440
 16777216
100
AcDbPoint
 10
21.35235462502819
 20
44.00000013470906
 30
0.0
  0
POINT
  5
D2BFA
330
D2BEF
100
AcDbEntity
  8
Defpoints
 62
     0
440
 16777216
100
AcDbPoint
 10
18.98860121029889
 20
44.00000013470906
 30
0.0
  0
ENDBLK
  5
D2BFB
330
D2BEF
100
AcDbEntity
  8
0
100
AcDbBlockEnd
  0
BLOCK
  5
D2C77
330
D2C76
100
AcDbEntity
  8
0
100
AcDbBlockBegin
  2
*D15
 70
     1
 10
0.0
 20
0.0
 30
0.0
  3
*D15
  1

  0
LINE
  5
D2CD2
330
D2C76
100
AcDbEntity
  8
0
  6
Continuous
 62
     0
440
 16777216
370
    -2
100
AcDbLine
 10
118.9540564751857
 20
36.33790046495326
 30
0.0
 11
117.857955679725
 21
36.33790046495326
 31
0.0
  0
LINE
  5
D2CD3
330
D2C76
100
AcDbEntity
  8
0
  6
Continuous
 62
     0
440
 16777216
370
    -2
100
AcDbLine
 10
118.9540564751857
 20
39.83790046495327
 30
0.0
 11
117.857955679725
 21
39.83790046495327
 31
0.0
  0
LINE
  5
D2CD4
330
D2C76
100
AcDbEntity
  8
0
  6
Continuous
 62
     0
440
 16777216
370
    -2
100
AcDbLine
 10
118.037955679725
 20
36.51790046495327
 30
0.0
 11
118.037955679725
 21
37.90790046495327
 31
0.0
  0
LINE
  5
D2CD5
330
D2C76
100
AcDbEntity
  8
0
  6
Continuous
 62
     0
440
 16777216
370
    -2
100
AcDbLine
 10
118.037955679725
 20
39.65790046495327
 30
0.0
 11
118.037955679725
 21
38.26790046495327
 31
0.0
  0
SOLID
  5
D2CD6
330
D2C76
100
AcDbEntity
  8
0
  6
Continuous
 62
     0
440
 16777216
100
AcDbTrace
 10
118.007955679725
 20
36.51790046495327
 30
0.0
 11
118.067955679725
 21
36.51790046495327
 31
0.0
 12
118.037955679725
 22
36.33790046495326
 32
0.0
 13
118.037955679725
 23
36.33790046495326
 33
0.0
  0
SOLID
  5
D2CD7
330
D2C76
100
AcDbEntity
  8
0
  6
Continuous
 62
     0
440
 16777216
100
AcDbTrace
 10
118.007955679725
 20
39.65790046495327
 30
0.0
 11
118.067955679725
 21
39.65790046495327
 31
0.0
 12
118.037955679725
 22
39.83790046495327
 32
0.0
 13
118.037955679725
 23
39.83790046495327
 33
0.0
  0
MTEXT
  5
D2CD8
330
D2C76
100
AcDbEntity
  8
0
  6
Continuous
 62
     0
440
 16777216
100
AcDbMText
 10
118.037955679725
 20
38.08790046495328
 30
0.0
 40
0.18
 41
0.0
 46
0.0
 71
     5
 72
     1
  1
\A1;3.5000
 73
     1
 44
1.0
  0
POINT
  5
D2CD9
330
D2C76
100
AcDbEntity
  8
Defpoints
  6
Continuous
 62
     0
440
 16777216
100
AcDbPoint
 10
119.0165564751857
 20
36.33790046495326
 30
0.0
  0
POINT
  5
D2CDA
330
D2C76
100
AcDbEntity
  8
Defpoints
  6
Continuous
 62
     0
440
 16777216
100
AcDbPoint
 10
119.0165564751857
 20
39.83790046495327
 30
0.0
  0
POINT
  5
D2CDB
330
D2C76
100
AcDbEntity
  8
Defpoints
  6
Continuous
 62
     0
440
 16777216
100
AcDbPoint
 10
118.037955679725
 20
39.83790046495327
 30
0.0
  0
ENDBLK
  5
D2C78
330
D2C76
100
AcDbEntity
  8
0
100
AcDbBlockEnd
  0
BLOCK
  5
D2C84
330
D2C83
100
AcDbEntity
  8
0
100
AcDbBlockBegin
  2
*D16
 70
     1
 10
0.0
 20
0.0
 30
0.0
  3
*D16
  1

  0
LINE
  5
D2CDC
330
D2C83
100
AcDbEntity
  8
0
 62
     0
440
 16777216
370
    -2
100
AcDbLine
 10
119.0165564751857
 20
40.38790046495326
 30
0.0
 11
119.0165564751857
 21
42.00523468856366
 31
0.0
  0
LINE
  5
D2CDD
330
D2C83
100
AcDbEntity
  8
0
 62
     0
440
 16777216
370
    -2
100
AcDbLine
 10
124.3915520248159
 20
40.13790046495326
 30
0.0
 11
124.3915520248159
 21
42.00523468856366
 31
0.0
  0
LINE
  5
D2CDE
330
D2C83
100
AcDbEntity
  8
0
 62
     0
440
 16777216
370
    -2
100
AcDbLine
 10
119.0165564751857
 20
41.46523468856367
 30
0.0
 11
120.7340542500008
 21
41.46523468856367
 31
0.0
  0
LINE
  5
D2CDF
330
D2C83
100
AcDbEntity
  8
0
 62
     0
440
 16777216
370
    -2
100
AcDbLine
 10
124.3915520248159
 20
41.46523468856367
 30
0.0
 11
122.6740542500008
 21
41.46523468856367
 31
0.0
  0
INSERT
  5
D2CE0
330
D2C83
100
AcDbEntity
  8
0
 62
     0
440
 16777216
370
    -2
100
AcDbBlockReference
  2
_ArchTick
 10
119.0165564751857
 20
41.46523468856367
 30
0.0
 41
0.6000000000000001
 42
0.6000000000000001
 43
0.6000000000000001
 50
180.0
  0
INSERT
  5
D2CE1
330
D2C83
100
AcDbEntity
  8
0
 62
     0
440
 16777216
370
    -2
100
AcDbBlockReference
  2
_ArchTick
 10
124.3915520248159
 20
41.46523468856367
 30
0.0
 41
0.6000000000000001
 42
0.6000000000000001
 43
0.6000000000000001
  0
MTEXT
  5
D2CE2
330
D2C83
100
AcDbEntity
  8
0
 62
     0
440
 16777216
100
AcDbMText
 10
121.7040542500008
 20
41.46523468856367
 30
0.0
 40
0.6000000000000001
 41
0.0
 46
0.0
 71
     5
 72
     1
  1
\A1;5{\H1.000000x;\S3/8;}"
 73
     1
 44
1.0
  0
POINT
  5
D2CE3
330
D2C83
100
AcDbEntity
  8
Defpoints
 62
     0
440
 16777216
100
AcDbPoint
 10
119.0165564751857
 20
40.08790046495326
 30
0.0
  0
POINT
  5
D2CE4
330
D2C83
100
AcDbEntity
  8
Defpoints
 62
     0
440
 16777216
100
AcDbPoint
 10
124.3915520248159
 20
39.83790046495327
 30
0.0
  0
POINT
  5
D2CE5
330
D2C83
100
AcDbEntity
  8
Defpoints
 62
     0
440
 16777216
100
AcDbPoint
 10
124.3915520248159
 20
41.46523468856367
 30
0.0
  0
ENDBLK
  5
D2C85
330
D2C83
100
AcDbEntity
  8
0
100
AcDbBlockEnd
  0
BLOCK
  5
D2C91
330
D2C90
100
AcDbEntity
  8
0
100
AcDbBlockBegin
  2
*D17
 70
     1
 10
0.0
 20
0.0
 30
0.0
  3
*D17
  1

  0
LINE
  5
D2CE6
330
D2C90
100
AcDbEntity
  8
0
 62
     0
440
 16777216
370
    -2
100
AcDbLine
 10
153.5165564751858
 20
40.13790046495325
 30
0.0
 11
153.5165564751858
 21
42.00523468856366
 31
0.0
  0
LINE
  5
D2CE7
330
D2C90
100
AcDbEntity
  8
0
 62
     0
440
 16777216
370
    -2
100
AcDbLine
 10
148.1412599325286
 20
40.13790046495325
 30
0.0
 11
148.1412599325286
 21
42.00523468856366
 31
0.0
  0
LINE
  5
D2CE8
330
D2C90
100
AcDbEntity
  8
0
 62
     0
440
 16777216
370
    -2
100
AcDbLine
 10
153.5165564751858
 20
41.46523468856367
 30
0.0
 11
151.7989082038571
 21
41.46523468856367
 31
0.0
  0
LINE
  5
D2CE9
330
D2C90
100
AcDbEntity
  8
0
 62
     0
440
 16777216
370
    -2
100
AcDbLine
 10
148.1412599325286
 20
41.46523468856367
 30
0.0
 11
149.8589082038571
 21
41.46523468856367
 31
0.0
  0
INSERT
  5
D2CEA
330
D2C90
100
AcDbEntity
  8
0
 62
     0
440
 16777216
370
    -2
100
AcDbBlockReference
  2
_ArchTick
 10
153.5165564751858
 20
41.46523468856367
 30
0.0
 41
0.6000000000000001
 42
0.6000000000000001
 43
0.6000000000000001
  0
INSERT
  5
D2CEB
330
D2C90
100
AcDbEntity
  8
0
 62
     0
440
 16777216
370
    -2
100
AcDbBlockReference
  2
_ArchTick
 10
148.1412599325286
 20
41.46523468856367
 30
0.0
 41
0.6000000000000001
 42
0.6000000000000001
 43
0.6000000000000001
 50
180.0
  0
MTEXT
  5
D2CEC
330
D2C90
100
AcDbEntity
  8
0
 62
     0
440
 16777216
100
AcDbMText
 10
150.8289082038571
 20
41.46523468856367
 30
0.0
 40
0.6000000000000001
 41
0.0
 46
0.0
 71
     5
 72
     1
  1
\A1;5{\H1.000000x;\S3/8;}"
 73
     1
 44
1.0
  0
POINT
  5
D2CED
330
D2C90
100
AcDbEntity
  8
Defpoints
 62
     0
440
 16777216
100
AcDbPoint
 10
153.5165564751858
 20
39.83790046495325
 30
0.0
  0
POINT
  5
D2CEE
330
D2C90
100
AcDbEntity
  8
Defpoints
 62
     0
440
 16777216
100
AcDbPoint
 10
148.1412599325286
 20
39.83790046495325
 30
0.0
  0
POINT
  5
D2CEF
330
D2C90
100
AcDbEntity
  8
Defpoints
 62
     0
440
 16777216
100
AcDbPoint
 10
148.1412599325286
 20
41.46523468856367
 30
0.0
  0
ENDBLK
  5
D2C92
330
D2C90
100
AcDbEntity
  8
0
100
AcDbBlockEnd
  0
BLOCK
  5
D2C9E
330
D2C9D
100
AcDbEntity
  8
0
100
AcDbBlockBegin
  2
*D18
 70
     1
 10
0.0
 20
0.0
 30
0.0
  3
*D18
  1

  0
LINE
  5
D2CF0
330
D2C9D
100
AcDbEntity
  8
0
 62
     0
440
 16777216
370
    -2
100
AcDbLine
 10
153.5165564751858
 20
36.03790046495325
 30
0.0
 11
153.5165564751858
 21
33.43414705022397
 31
0.0
  0
LINE
  5
D2CF1
330
D2C9D
100
AcDbEntity
  8
0
 62
     0
440
 16777216
370
    -2
100
AcDbLine
 10
119.0165564751857
 20
36.03790046495327
 30
0.0
 11
119.0165564751857
 21
33.43414705022397
 31
0.0
  0
LINE
  5
D2CF2
330
D2C9D
100
AcDbEntity
  8
0
 62
     0
440
 16777216
370
    -2
100
AcDbLine
 10
153.5165564751858
 20
33.97414705022396
 30
0.0
 11
137.5365564751858
 21
33.97414705022396
 31
0.0
  0
LINE
  5
D2CF3
330
D2C9D
100
AcDbEntity
  8
0
 62
     0
440
 16777216
370
    -2
100
AcDbLine
 10
119.0165564751857
 20
33.97414705022396
 30
0.0
 11
134.9965564751858
 21
33.97414705022396
 31
0.0
  0
INSERT
  5
D2CF4
330
D2C9D
100
AcDbEntity
  8
0
 62
     0
440
 16777216
370
    -2
100
AcDbBlockReference
  2
_ArchTick
 10
153.5165564751858
 20
33.97414705022396
 30
0.0
 41
0.6000000000000001
 42
0.6000000000000001
 43
0.6000000000000001
  0
INSERT
  5
D2CF5
330
D2C9D
100
AcDbEntity
  8
0
 62
     0
440
 16777216
370
    -2
100
AcDbBlockReference
  2
_ArchTick
 10
119.0165564751857
 20
33.97414705022396
 30
0.0
 41
0.6000000000000001
 42
0.6000000000000001
 43
0.6000000000000001
 50
180.0
  0
MTEXT
  5
D2CF6
330
D2C9D
100
AcDbEntity
  8
0
 62
     0
440
 16777216
100
AcDbMText
 10
136.2665564751857
 20
33.97414705022396
 30
0.0
 40
0.6000000000000001
 41
0.0
 46
0.0
 71
     5
 72
     1
  1
\A1;34{\H1.000000x;\S1/2;}"
 73
     1
 44
1.0
  0
POINT
  5
D2CF7
330
D2C9D
100
AcDbEntity
  8
Defpoints
 62
     0
440
 16777216
100
AcDbPoint
 10
153.5165564751858
 20
36.33790046495325
 30
0.0
  0
POINT
  5
D2CF8
330
D2C9D
100
AcDbEntity
  8
Defpoints
 62
     0
440
 16777216
100
AcDbPoint
 10
119.0165564751857
 20
36.33790046495326
 30
0.0
  0
POINT
  5
D2CF9
330
D2C9D
100
AcDbEntity
  8
Defpoints
 62
     0
440
 16777216
100
AcDbPoint
 10
119.0165564751857
 20
33.97414705022396
 30
0.0
  0
ENDBLK
  5
D2C9F
330
D2C9D
100
AcDbEntity
  8
0
100
AcDbBlockEnd
  0
ENDSEC
  0
SECTION
  2
ENTITIES
  0
3DSOLID
  5
D2D0F
330
D29B6
100
AcDbEntity
  8
0
  6
Continuous
100
AcDbModelerGeometry
 70
     1
  1
mnjoo lfn m mk         
  1
ni ^ *+0;:,4 ^ *+0\^ [ nf ^ LR mniqoqoqkjon QK o  
  1
mjqlffffffffffffff fqfffffffffffffffj:rooh n:rono 
  1
>,27:>;:- {rn rn _nm mniqoqoqkjon |
  1
=0;& {m rn {rn {l {rn {rn |
  1
-:9@)+r:&:r>++-6= {rn rn {rn {rn {n {k {j |
  1
3*2/ {i rn {rn {rn {h {n |
  3
:&:@-:961:2:1+ {rn rn _j 8-6;  n _l +-6 n _k ,*-9 o _l >;5 o _k 8->; o _f /0,+<7:<4 o _k <>3< n _k <01) o _k ,+03 oqonhkmgjoinijhkmghk _k 1+03 lo _k ;,63 o _g 93>+1:,, o _h /6'>-:> o _k 72>' o _i 8-6;>- o _j 28-6; looo _j *8-6; o _j )8-6; o _no :1;@96:3;,
  1
 |
  1
):-+:'@+:2/3>+: {rn rn l o n g |
  1
-:9@)+r:&:r>++-6= {rn rn {rn {rn {l {k {j |
  1
,7:33 {g rn {rn {rn {rn {f {rn {l |
  1
-:9@)+r:&:r>++-6= {rn rn {rn {rn {h {k {j |
  1
9><: {no rn {rn {nn {nm {h {rn {nl 90-(>-; ,6183: |
  1
92:,7r:&:r>++-6= {rn rn {nk {rn {f |
  1
9><: {nj rn {rn {ni {nh {h {rn {nl 90-(>-; ,6183: |
  1
300/ {rn rn {rn {rn {ng {f |
  1
/3>1:r,*-9><: {rn rn {rn nqhjoooooooooooohn lqj lkqkffffffffffffjh n o rnqglifofjlohlljijf:roni rnqglifofjlohlljijf:roni o rn 90-(>-;@) V V V V |
  1
-:9@)+r:&:r>++-6= {rn rn {nf {no {f {k {j |
  1
92:,7r:&:r>++-6= {rn rn {mo {rn {nn |
  1
9><: {mn rn {rn {mm {ml {h {rn {mk -:):-,:; ,6183: |
  1
300/ {rn rn {rn {rn {mj {nn |
  1
<0:;8: {rn rn {rn {mi {mh {mg {mf 90-(>-; {nm {rn |
  1
/:-,*=:1+r><>;L036;W6,+0-&r>++-6= {rn rn {rn {nk {f n k k o |
  1
-:9@)+r:&:r>++-6= {rn rn {lo {nj {nn {k {j |
  1
92:,7r:&:r>++-6= {rn rn {ln {rn {ni |
  1
9><: {lm rn {rn {ll {lk {h {rn {mk -:):-,:; ,6183: |
  1
300/ {rn rn {rn {rn {lj {ni |
  1
/3>1:r,*-9><: {rn rn {rn lqjjmhnlihggoojoof:ronj o nhqmkfffffffffffhm o n o n o rnqglifofjlohlljijf:roni 90-(>-;@) V V V V |
  1
<0:;8: {rn rn {rn {li {lh {lg {lf 90-(>-; {nh {rn |
  1
<0:;8: {rn rn {rn {ko {ng {kn {km -:):-,:; {nm {rn |
  1
<0:;8: {rn rn {rn {ng {ko {kl {kk 90-(>-; {nm {rn |
  1
<0:;8: {rn rn {rn {kj {ki {ng {mf -:):-,:; {kh {rn |
  1
:;8: {rn rn {rn {kg iqgjknlhhjnhonnom {kf noqmjjikknhjhnjjn {mg {jo 90-(>-; _h *1410(1 |
  1
/:-,*=:1+r><>;L036;W6,+0-&r>++-6= {rn rn {rn {mo {nn n k k o |
  1
-:9@)+r:&:r>++-6= {rn rn {jn {mn {ni {k {j |
  1
92:,7r:&:r>++-6= {rn rn {jm {rn {mm |
  1
9><: {jl rn {rn {jk {jj {h {rn {ji 90-(>-; ,6183: |
  1
300/ {rn rn {rn {rn {jh {mm |
  1
<0:;8: {rn rn {rn {kl {jg {kj {jf 90-(>-; {ml {rn |
  1
<0:;8: {rn rn {rn {io {mj {in {im 90-(>-; {nh {rn |
  1
<0:;8: {rn rn {rn {mj {io {il {ik -:):-,:; {nh {rn |
  1
<0:;8: {rn rn {rn {ij {ii {mj {lf -:):-,:; {ih {rn |
  1
:;8: {rn rn {rn {ig rnqhoohjlmnmoohmoll {if nqhoohjlmnmoohmomm {lg {ho 90-(>-; _h *1410(1 |
  1
<0:;8: {rn rn {rn {mh {mi {hn {hm 90-(>-; {nm {rn |
  1
<0:;8: {rn rn {rn {hl {hk {mi {km 90-(>-; {jj {rn |
  1
:;8: {rn rn {rn {hj o {kf jqlhjoooooooooooli {mi {hi 90-(>-; _h *1410(1 |
  1
<0:;8: {rn rn {rn {hh {lj {mh {kk -:):-,:; {ml {rn |
  1
:;8: {rn rn {rn {hg o {kg jqlhjoooooooooooli {mh {hf 90-(>-; _h *1410(1 |
  1
<0:;8: {rn rn {rn {go {mg {lj {jf -:):-,:; {kh {rn |
  1
<0:;8: {rn rn {rn {mg {go {hl {gn -:):-,:; {kh {rn |
  1
300/ {rn rn {rn {rn {go {gm |
  1
):-+:' {rn rn {rn {mf o {gl |
  1
):-+:' {rn rn {rn {mf n {gk |
  1
61+<*-):r<*-): {rn rn {rn 90-(>-; $ 61+@61+@<*- mnion 9*33 1*=, l 0/:1 f 
  1
 iqgjknlhhjnhonnom l hqoojlmmmfkgfooiok m hqmgigklknmnkffkn m hqfmogihnghfmfnmkn m gqjjkgfofilhogloik m 
  1
 fqnggfnkhlfkghkggi m fqgmmflgjnjmiiihog m noqnokkjfilmjmijjm m noqmjjikknhjhnjjn l 
  1
 nqhjooooooooooooli o mfqnmkffffffffffjk 
  1
 nqhjooooooooooooli oqokhjgjgigjmjfgjnm mfqoffhomhhigofmmh 
  1
 nqhjooooooooooooli oqofhnkiofikhfmihikn mfqohjnoiiggnhjhnm 
  1
 nqhjooooooooooooli oqmkoghffffigjhioom mfqooghfjgmhnhigjg 
  1
 nqhjooooooooooooli oqllihhjnfhnighfiml mgqfhohhiofnlokmgk 
  1
 nqhjooooooooooooli oqimkffiililkkmgohn mgqghokjjkjjgoloog 
  1
 nqhjooooooooooooli oqgjoomnkfmofnijkf mgqgnjgmjnkogigkfg 
  1
 nqhjooooooooooooli nqloifnlfmgoogiiii mgqhkhgnljgkmnnlhf 
  1
 nqhjooooooooooooli nqjlgijghknkoiflfl mgqhllinonjmnfonih 
  1
 nqhjooooooooooooli nqfinlknmjgjfloioh mgqhllinonjmnfonih 
  1
 nqhjooooooooooooli mqnflogiohnffnlllf mgqhkhgnljgkmnnlhf 
  1
 nqhjooooooooooooli mqikffhgjohfoglkjj mgqgnjgmjnkogigkfg 
  1
 nqhjooooooooooooli mqghjoollilijjhnfl mgqghokjjkjjgoloog 
  1
 nqhjooooooooooooli lqnilmmkgomglnmokm mgqfhohhiofnlokmgk 
  1
 nqhjooooooooooooli lqmjfnmoooolnkmkok mfqooghfjgmhnhigjg 
  1
 nqhjooooooooooooli lqkomgjlfoljmohlmg mfqohjnoiiggnhjhnm 
  1
 nqhjooooooooooooli lqkjmknknlnkhkonkf mfqoffhomhhigofmmh 
  1
 nqhjooooooooooooli lqj mfqnmkffffffffffjk 
  1
 oqooolgmhnmflkfmongmmk 
  1
 +0-*, lqjjmhnlihggoojoof:ronj nqhj lnqllklihhmjoohfmm rnqglifofjlohlljijf:roni o rn oqgnlgkmmgkimigmfgk rmqhiknnkfohmhjlnki rn o nqglifofjlohlljijf:roni 90-(>-;@) V V V V 
  1
 /3>1: nqhjoooooooooooohn lqj lkqkffffffffffffjh n o rnqglifofjlohlljijf:roni rnqglifofjlohlljijf:roni o rn 90-(>-;@) V V V V 
  1
 1*33=, 
  1
 1*33=, 
  1
 V V 
  1
 o 
  1
 o 
  1
 o 
  1
 
  1
 o " V V |
  1
/:-,*=:1+r><>;L036;W6,+0-&r>++-6= {rn rn {rn {ln {ni n k nooooooooo m |
  1
-:9@)+r:&:r>++-6= {rn rn {gj {lm {mm {k {j |
  1
92:,7r:&:r>++-6= {rn rn {gi {rn {ll |
  1
9><: {gh rn {rn {gg {gf {h {rn {fo 90-(>-; ,6183: |
  1
300/ {rn rn {rn {rn {hl {ll |
  1
/3>1:r,*-9><: {rn rn {rn lqjjmhnlihggoojoof:ronj lqj nhqmkfffffffffffhm o n o n o rnqglifofjlohlljijf:roni 90-(>-;@) V V V V |
  1
<0:;8: {rn rn {rn {fn {in {ii {fm 90-(>-; {lk {rn |
  1
<0:;8: {rn rn {rn {lj {hh {fl {fk -:):-,:; {ml {rn |
  1
:;8: {rn rn {rn {fj iqgjknlhhjnhonnom {kg noqmjjikknhjhnjjn {kj {fi 90-(>-; _h *1410(1 |
  1
<0:;8: {rn rn {rn {lh {li {fh {fg 90-(>-; {nh {rn |
  1
<0:;8: {rn rn {rn {jh {ff {li {im -:):-,:; {lk {rn |
  1
:;8: {rn rn {rn {if mfqnmkffffffffffig {noo lkqkffffffffffffjh {li {hf 90-(>-; _h *1410(1 |
  1
<0:;8: {rn rn {rn {non {nom {lh {ik 90-(>-; {nol {rn |
  1
:;8: {rn rn {rn {ig mfqnmkffffffffffig {nok lkqkffffffffffffjh {lh {hi 90-(>-; _h *1410(1 |
  1
<0:;8: {rn rn {rn {noj {lg {nom {noi -:):-,:; {ih {rn |
  1
<0:;8: {rn rn {rn {lg {noj {jh {fm -:):-,:; {ih {rn |
  1
300/ {rn rn {rn {rn {noj {noh |
  1
):-+:' {rn rn {rn {lf o {nog |
  1
):-+:' {rn rn {rn {lf n {nof |
  1
61+<*-):r<*-): {rn rn {rn 90-(>-; $ 61+@61+@<*- mnion 9*33 1*=, l 0/:1 f 
  1
 rnqhoohjlmnmoohmoll l rnqjkfjigiiggngmki m rnqmigokhjjnjjgliim m roqilkomlhhjhhfngkon m o l 
  1
 oqilkomlhhjhhfnglhg m nqmigokhjjnjjglihi m nqjkfjigiiggngmkhh m nqhoohjlmnmoohmomm l 
  1
 nqhj lqj jqlhkffffffffffgfl 
  1
 nqhj lqkjmknknlnkhkonkf jqkoomfhmmlnfohnjg 
  1
 nqhj lqkomgjlfoljmohlmk jqkmkgfllnngmkmlnl 
  1
 nqhj lqmjfnmoooolnkmkok jqkfnmoknhmgmlogng 
  1
 nqhj lqnilmmkgomglnmoi jqjmfmmlfogifjijfm 
  1
 nqhj mqghjoollilijjhmm jqimfjkkjkknfiflji 
  1
 nqhj mqikffhgjohfoglkhl jqigknhkgjfnlnkkji 
  1
 nqhj mqnflogiohnffnlljm jqhjmngiknjhggjikj 
  1
 nqhj nqfinlknmjgjfloini jqhiilgfgkhgofhhik 
  1
 nqhj nqhj jqhiilgfgkhgofhhik 
  1
 nqhj nqjlgijghknkoiflgg jqhiilgfgkhgofhhik 
  1
 nqhj nqloifnlfmgoogiijh jqhjmngiknjhggjikj 
  1
 nqhj oqgjoomnkfmofnijlji jqigknhkgjfnlnkkji 
  1
 nqhj oqimkffiililkkmhgkf jqimfjkkjkknfiflji 
  1
 nqhj oqllihhjnfhnighflji jqjmfmmlfogifjijji 
  1
 nqhj oqmkoghffffigjhjhg jqkfnmoknhmgmlogng 
  1
 nqhj oqofhnkiofikhfmihnfh jqkmkgfllnngmkmlnl 
  1
 nqhj oqokhjgjgigjmjfgkihi jqkoomfhmmlnfohnjg 
  1
 nqhj o jqlhkffffffffffgfl 
  1
 oqooolgmhnmflkfnhkogm 
  1
 +0-*, o nqhj lqnijilmmhkffmomoh rnqglifofjlohlljijf:roni o rn oqgnlgkmmgkimigmfgk rmqhiknnkfohmhjlnki rn o nqglifofjlohlljijf:roni 90-(>-;@) V V V V 
  1
 /3>1: nqhjoooooooooooohn lqj lkqkffffffffffffjh n o rnqglifofjlohlljijf:roni rnqglifofjlohlljijf:roni o rn 90-(>-;@) V V V V 
  1
 1*33=, 
  1
 1*33=, 
  1
 V V 
  1
 o 
  1
 o 
  1
 o 
  1
 
  1
 o " V V |
  1
<0:;8: {rn rn {rn {nno {nnn {ko {hm -:):-,:; {nnm {rn |
  1
:;8: {rn rn {rn {hj roqghj {hg mqimj {hn {nnl 90-(>-; _h *1410(1 |
  1
<0:;8: {rn rn {rn {nnk {kn {ki {gn 90-(>-; {jj {rn |
  1
<0:;8: {rn rn {rn {kn {nnk {nno {nnj 90-(>-; {jj {rn |
  1
):-+:' {rn rn {rn {hm o {nni |
  1
,+->687+r<*-): {rn rn {rn nqhjoooooooooooohn lqj lkqkffffffffffffjh rnqglifofjlohlljijf:roni o rn V V |
  1
<0:;8: {rn rn {rn {jg {kl {nnn {nnh 90-(>-; {ml {rn |
  1
):-+:' {rn rn {rn {hm n {nng |
  1
,+->687+r<*-): {rn rn {rn nqhjoooooooooooohn o lkqkffffffffffffjh rnqglifofjlohlljijf:roni o rn V V |
  1
<0:;8: {rn rn {rn {ki {kj {nnf {nmo -:):-,:; {kh {rn |
  1
:;8: {rn rn {rn {kf iqgjknlhhjnhonnomg {nmn noqmjjikknhjhnjjn {ki {nmm 90-(>-; _h *1410(1 |
  1
9><: {nml rn {rn {nmk {nmj {h {rn {nmi 90-(>-; ,6183: |
  1
/061+ {rn rn {rn nqhjooooooooooooli o mfqnmkffffffffffjk |
  1
/061+ {rn rn {rn nqhjooooooooooooli lqj mfqnmkffffffffffjk |
  1
/:-,*=:1+r><>;L036;W6,+0-&r>++-6= {rn rn {rn {jm {mm n k nooooooooo m |
  1
-:9@)+r:&:r>++-6= {rn rn {nmh {jl {ll {k {j |
  1
92:,7r:&:r>++-6= {rn rn {nmg {rn {jk |
  1
9><: {nmf rn {rn {nlo {nln {h {rn {fo 90-(>-; ,6183: |
  1
300/ {rn rn {rn {rn {nnf {jk |
  1
/3>1:r,*-9><: {rn rn {rn rnqhj lqj o rn o lqgfikjlifmljhokif:roni lqgfikjlifmljhokif:roni o n 90-(>-;@) V V V V |
  1
<0:;8: {rn rn {rn {ff {jh {nlm {nll -:):-,:; {lk {rn |
  1
:;8: {rn rn {rn {if rnqhoohjlmnmoohmojl {nlk nqhoohjlmnmoohmolg {ii {nlj 90-(>-; _h *1410(1 |
  1
<0:;8: {rn rn {rn {nli {nnf {jg {fk 90-(>-; {gf {rn |
  1
:;8: {rn rn {rn {fj mfqnmkffffffffffjk {nlh lkqkffffffffffffjh {fl {nlg 90-(>-; _h *1410(1 |
  1
):-+:' {rn rn {rn {nmo n {nlf |
  1
61+<*-):r<*-): {rn rn {rn 90-(>-; $ 61+@61+@<*- mnion 9*33 1*=, l 0/:1 f 
  1
 iqgjknlhhjnhonnom l hqoojlmmmfkgfooinl m hqmgigklknmnkffknf m hqfmogihnghfmfnmkn m gqjjkgfofilhogloik m 
  1
 fqnggfnkhlfkghkggi m fqgmmflgjnjmiiihog m noqnokkjfilmjmijjm m noqmjjikknhjhnjjn l 
  1
 rnqhkffffffffffffik o mfqnmkffffffffffjk 
  1
 rnqhomknknlnkhkonnl o mfqoffhomhhigofmln 
  1
 rnqijmgjlfoljmohmgg kqkkogfmofgjooimim:roni mfqohjnoiiggnhjhnm 
  1
 rnqjofnmoooolnkmlll o mfqooghfjgmhnhigjg 
  1
 rnqknlmmkgomglnnfgk o mgqfhohhiofnlokmgk 
  1
 rnqnmjoollilijjhnkg o mgqghokjjkjjgoloog 
  1
 roqgfffhgjohfoglkomm o mgqgnjgmjnkogigkfg 
  1
 roqkklogiohnffnlmhii o mgqhkhgnljgkmnnlhf 
  1
 roqmnnlknmjgjflojjkn o mgqhllinonjmnfonih 
  1
 oqmnnlknmjgjfloiioh o mgqhllinonjmnfonih 
  1
 oqkklogiohnffnllglm o mgqhkhgnljgkmnnlhf 
  1
 oqgfffhgjohfogljogg o mgqgnjgmjnkogigkfg 
  1
 nqnmjoollilijjhmm o mgqghokjjkjjgoloog 
  1
 nqknlmmkgomglnmofn o mgqfhohhiofnlokmgk 
  1
 nqjofnmoooolnkmkk o mfqooghfjgmhnhigjg 
  1
 nqijmgjlfoljmohljf o mfqohjnoiiggnhjhnm 
  1
 nqhomknknlnkhkongk o mfqoffhomhhigofmmh 
  1
 nqhjooooooooooooli o mfqnmkffffffffffjk 
  1
 oqooolgmhnmflkfmomlhn 
  1
 +0-*, lqjjmhnlihggoojoof:ronj nqhj lnqllklihhmjoohfmm rnqglifofjlohlljijf:roni o rn oqgnlgkmmgkimigmfgk rmqhiknnkfohmhjlnki rn o nqglifofjlohlljijf:roni 90-(>-;@) V V V V 
  1
 /3>1: lqjjmhnlihggoojoof:ronj o nhqmkfffffffffffhm o rn o n o rnqglifofjlohlljijf:roni -:):-,:@) V V V V 
  1
 1*33=, 
  1
 1*33=, 
  1
 V V 
  1
 o 
  1
 o 
  1
 o 
  1
 
  1
 o " V V |
  1
<0:;8: {rn rn {rn {nko {nkn {io {fg -:):-,:; {nkm {rn |
  1
:;8: {rn rn {rn {noo rmqimj {nok oqghj {fh {nkl 90-(>-; _h *1410(1 |
  1
<0:;8: {rn rn {rn {in {fn {nko {nkk 90-(>-; {lk {rn |
  1
):-+:' {rn rn {rn {fg o {nkj |
  1
<0:;8: {rn rn {rn {nki {il {nkn {nkh 90-(>-; {nol {rn |
  1
<0:;8: {rn rn {rn {il {nki {ij {noi 90-(>-; {nol {rn |
  1
300/ {rn rn {rn {rn {nom {nlo |
  1
):-+:' {rn rn {rn {fg n {nkg |
  1
<0:;8: {rn rn {rn {ii {ij {nkf {njo -:):-,:; {ih {rn |
  1
:;8: {rn rn {rn {njn rnqhoohjlmnmoohmokf {ig nqhoohjlmnmoohmomi {ij {njm 90-(>-; _h *1410(1 |
  1
9><: {njl rn {rn {njk {njj {h {rn {nji 90-(>-; ,6183: |
  1
/061+ {rn rn {rn nqhj lqj jqlhkffffffffffgfl |
  1
/061+ {rn rn {rn nqhj o jqlhkffffffffffgfl |
  1
<0:;8: {rn rn {rn {njh {hn {hk {nnj -:):-,:; {nnm {rn |
  1
<0:;8: {rn rn {rn {hn {njh {hh {nnh -:):-,:; {nnm {rn |
  1
300/ {rn rn {rn {rn {njh {njg |
  1
,+->687+r<*-): {rn rn {rn nqhjoooooooooooohn mqimj lkqkffffffffffffhm o rn o V V |
  1
<0:;8: {rn rn {rn {hk {hl {njf {nio 90-(>-; {jj {rn |
  1
:;8: {rn rn {rn {nin rmqklnmngklljlgmlkn {hj nqoighgnjiikinhijf {nno {nim 90-(>-; _h *1410(1 |
  1
/061+ {rn rn {rn nqhjoooooooooooohn lqj lkqkffffffffffffjh |
  1
:;8: {rn rn {rn {hg rnqoighgnjiikinhijf {nlh mqklnmngklljlgmlkn {nnn {nil 90-(>-; _h *1410(1 |
  1
/061+ {rn rn {rn nqhjoooooooooooohn o lkqkffffffffffffjh |
  1
<0:;8: {rn rn {rn {fl {njf {go {nmo 90-(>-; {gf {rn |
  1
:;8: {rn rn {rn {nmn iqgjknlhhjnhonnoff {fj noqmjjikknhjhnjjnf {go {nik 90-(>-; _h *1410(1 |
  1
):-+:' {rn rn {rn {nmo o {nij |
  1
61+<*-):r<*-): {rn rn {rn 90-(>-; $ 61+@61+@<*- mnion 9*33 1*=, l 0/:1 f 
  1
 iqgjknlhhjnhonnomg l hqoojlmmmfkgfooinl m hqmgigklknmnkffknf m hqfmogihnghfmfnmkn m gqjjkgfofilhogloik m 
  1
 fqnggfnkhlfkghkggi m fqgmmflgjnjmiiihog m noqnokkjfilmjmijjm m noqmjjikknhjhnjjn l 
  1
 nqhjooooooooooooli lqj mfqnmkffffffffffjk 
  1
 nqhomknknlnkhkongk lqj mfqoffhomhhigofmmh 
  1
 nqijmgjlfoljmohljf lqj mfqohjnoiiggnhjhnm 
  1
 nqjofnmoooolnkmkk lqj mfqooghfjgmhnhigin 
  1
 nqknlmmkgomglnmofn lqj mgqfhohhiofnlokmgk 
  1
 nqnmjoollilijjhmm lqj mgqghokjjkjjgoloog 
  1
 oqgfffhgjohfogljogg lqj mgqgnjgmjnkogigkfg 
  1
 oqkklogiohnffnllglm lqj mgqhkhgnljgkmnnlhf 
  1
 oqmnnlknmjgjfloiioh lqj mgqhllinonjmnfonih 
  1
 roqmnnlknmjgjflojjkn lqj mgqhllinonjmnfonih 
  1
 roqkklogiohnffnlmhii lqj mgqhkhgnljgkmnnlhf 
  1
 roqgfffhgjohfoglkomm lqj mgqgnjgmjnkogigkfg 
  1
 rnqnmjoollilijjhnkg lqj mgqghokjjkjjgoloog 
  1
 rnqknlmmkgomglnnfgk lqj mgqfhohhiofnlokmgk 
  1
 rnqjofnmoooolnkmlif lqj mfqooghfjgmhnhigin 
  1
 rnqijmgjlfoljmohmgg lqj mfqohjnoiiggnhjhnm 
  1
 rnqhomknknlnkhkonnl lqj mfqoffhomhhigofmln 
  1
 rnqhkffffffffffffik lqj mfqnmkffffffffffjk 
  1
 oqooolgmhnmflkfmomlhn 
  1
 +0-*, lqjjmhnlihggoojoof:ronj nqhj lnqllklihhmjoohfmm rnqglifofjlohlljijf:roni o rn oqgnlgkmmgkimigmfgk rmqhiknnkfohmhjlnki rn o nqglifofjlohlljijf:roni 90-(>-;@) V V V V 
  1
 /3>1: lqjjmhnlihggoojoof:ronj lqj nhqmkfffffffffffhm o n o n o rnqglifofjlohlljijf:roni 90-(>-;@) V V V V 
  1
 1*33=, 
  1
 1*33=, 
  1
 V V 
  1
 o 
  1
 o 
  1
 o 
  1
 
  1
 o " V V |
  1
92:,7r:&:r>++-6= {rn rn {nii {rn {gm |
  1
9><: {nih rn {rn {nig {nif {h {rn {nho 90-(>-; ,6183: |
  1
300/ {rn rn {rn {kh {nhn {gm |
  1
+0-*,r,*-9><: {rn rn {rn lqjjmhnlihggoojoof:ronj nqhj lnqllklihhmjoohfmm rnqglifofjlohlljijf:roni o rn oqgnlgkmmgkimigmfgk mqhiknnkfohmhjlnki rn o nqglifofjlohlljijf:roni 90-(>-;@) V V V V |
  1
/:-,*=:1+r><>;L036;W6,+0-&r>++-6= {rn rn {rn {gi {ll n k nooooooooo n |
  1
-:9@)+r:&:r>++-6= {rn rn {nhm {gh {jk {k {j |
  1
92:,7r:&:r>++-6= {rn rn {nhl {rn {gg |
  1
9><: {nhk rn {rn {noh {nol {h {rn {ji 90-(>-; ,6183: |
  1
300/ {rn rn {rn {rn {nkf {gg |
  1
<0:;8: {rn rn {rn {nkf {nhj {fn {nll 90-(>-; {nln {rn |
  1
:;8: {rn rn {rn {nhi o {nlk jqlhkffffffffffgfl {nlm {nlg 90-(>-; _h *1410(1 |
  1
):-+:' {rn rn {rn {njo o {nhh |
  1
61+<*-):r<*-): {rn rn {rn 90-(>-; $ 61+@61+@<*- mnion 9*33 1*=, l 0/:1 f 
  1
 rnqhoohjlmnmoohmojl l rnqjkfjigiiggngmkfj m rnqmigokhjjnjjglig m roqilkomlhhjhhfngkon m o l 
  1
 oqilkomlhhjhhfnglhg m nqmigokhjjnjjglihi m nqjkfjigiiggngmkhh m nqhoohjlmnmoohmolg l 
  1
 nqhj o jqlhkffffffffffgfl 
  1
 nqhomknknlnkhkongk o jqkoomfhmmlnfohnml 
  1
 nqijmgjlfoljmohljf rkqkkogfmofgjooimim:roni jqkmkgfllnngmkmmhh 
  1
 nqjofnmoooolnkmkk o jqkfnmoknhmgmlogng 
  1
 nqknlmmkgomglnmofn o jqjmfmmlfogifjijji 
  1
 nqnmjoollilijjhmm o jqimfjkkjkknfiflji 
  1
 oqgfffhgjohfoglkhlm o jqigknhkgjfnlnkkji 
  1
 oqkklogiohnffnllkhi o jqhjmngiknjhggjikj 
  1
 oqmnnlknmjgjfloimjm o jqhiilgfgkhgofhhik 
  1
 o o jqhiilgfgkhgofhhik 
  1
 roqmnnlknmjgjflojgfh o jqhiilgfgkhgofhhik 
  1
 roqkklogiohnffnllkhi o jqhjmngiknjhggjikj 
  1
 roqgfffhgjohfoglkhlm o jqigknhkgjfnlnkkji 
  1
 rnqnmjoollilijjhmm o jqimfjkkjkknfiflji 
  1
 rnqknlmmkgomglnmoji o jqjmfmmlfogifjijji 
  1
 rnqjofnmoooolnkmkok o jqkfnmoknhmgmlogng 
  1
 rnqijmgjlfoljmohlmk o jqkmkgfllnngmkmlnl 
  1
 rnqhomknknlnkhkonkf o jqkoomfhmmlnfohnjg 
  1
 rnqhj o jqlhkffffffffffgfl 
  1
 oqooolgmhnmflkfmkhigfj 
  1
 +0-*, o nqhj lqnijilmmhkffmomoh rnqglifofjlohlljijf:roni o rn oqgnlgkmmgkimigmfgk rmqhiknnkfohmhjlnki rn o nqglifofjlohlljijf:roni 90-(>-;@) V V V V 
  1
 /3>1: lqjjmhnlihggoojoof:ronj o nhqmkfffffffffffhm o rn o n o rnqglifofjlohlljijf:roni -:):-,:@) V V V V 
  1
 1*33=, 
  1
 1*33=, 
  1
 V V 
  1
 o 
  1
 o 
  1
 o 
  1
 
  1
 o " V V |
  1
<0:;8: {rn rn {rn {njf {fl {njh {nhg 90-(>-; {gf {rn |
  1
):-+:' {rn rn {rn {nhg o {nhf |
  1
,+->687+r<*-): {rn rn {rn rnqhj o o lqgfikjlifmljhokif:roni o n V V |
  1
/061+ {rn rn {rn rnqhkffffffffffffik o mfqnmkffffffffffjk |
  1
<0:;8: {rn rn {rn {ngo {fh {ff {nkk -:):-,:; {nkm {rn |
  1
<0:;8: {rn rn {rn {fh {ngo {non {nkh -:):-,:; {nkm {rn |
  1
300/ {rn rn {rn {rn {ngo {njk |
  1
,+->687+r<*-): {rn rn {rn nqhj mqimj rmqgkmnhofklokokooh:ronk o n o V V |
  1
:;8: {rn rn {rn {nhi rmqklnmngklljlgmloj {noo nqoighgnjiikinhifj {nko {ngn 90-(>-; _h *1410(1 |
  1
/061+ {rn rn {rn nqhj o o |
  1
<0:;8: {rn rn {rn {nom {non {ngm {ngl 90-(>-; {nol {rn |
  1
:;8: {rn rn {rn {nok rnqoighgnjiikinhifj {ngk mqklnmngklljlgmloj {nkn {ngj 90-(>-; _h *1410(1 |
  1
/061+ {rn rn {rn nqhj lqj o |
  1
<0:;8: {rn rn {rn {ngm {nlm {noj {njo 90-(>-; {nln {rn |
  1
:;8: {rn rn {rn {nlk rnqhoohjlmnmoohmojn {njn nqhoohjlmnmoohmojj {noj {ngi 90-(>-; _h *1410(1 |
  1
):-+:' {rn rn {rn {njo n {ngh |
  1
61+<*-):r<*-): {rn rn {rn 90-(>-; $ 61+@61+@<*- mnion 9*33 1*=, l 0/:1 f 
  1
 rnqhoohjlmnmoohmokf l rnqjkfjigiiggngmkfj m rnqmigokhjjnjjglig m roqilkomlhhjhhfngkon m o l 
  1
 oqilkomlhhjhhfnglhg m nqmigokhjjnjjglihi m nqjkfjigiiggngmkhh m nqhoohjlmnmoohmomi l 
  1
 rnqhj lqj jqlhkffffffffffgfl 
  1
 rnqhomknknlnkhkonkf lqj jqkoomfhmmlnfohnjg 
  1
 rnqijmgjlfoljmohlmk lqj jqkmkgfllnngmkmlnl 
  1
 rnqjofnmoooolnkmkk lqj jqkfnmoknhmgmlogng 
  1
 rnqknlmmkgomglnmoji lqj jqjmfmmlfogifjijji 
  1
 rnqnmjoollilijjhmm lqj jqimfjkkjkknfiflji 
  1
 roqgfffhgjohfoglkhlm lqj jqigknhkgjfnlnkkji 
  1
 roqkklogiohnffnllkhi lqj jqhjmngiknjhggjikj 
  1
 roqmnnlknmjgjflojgfh lqj jqhiilgfgkhgofhhik 
  1
 o lqj jqhiilgfgkhgofhhik 
  1
 oqmnnlknmjgjfloimjm lqj jqhiilgfgkhgofhhik 
  1
 oqkklogiohnffnllkhi lqj jqhjmngiknjhggjikj 
  1
 oqgfffhgjohfoglkhlm lqj jqigknhkgjfnlnkkji 
  1
 nqnmjoollilijjhmm lqj jqimfjkkjkknfiflji 
  1
 nqknlmmkgomglnmoji lqj jqjmfmmlfogifjijji 
  1
 nqjofnmoooolnkmkk lqj jqkfnmoknhmgmlogng 
  1
 nqijmgjlfoljmohlmk lqj jqkmkgfllnngmkmlnl 
  1
 nqhomknknlnkhkongk lqj jqkoomfhmmlnfohnml 
  1
 nqhj lqj jqlhkffffffffffgfl 
  1
 oqooolgmhnmflkfmnjmhhf 
  1
 +0-*, o nqhj lqnijilmmhkffmomoh rnqglifofjlohlljijf:roni o rn oqgnlgkmmgkimigmfgk rmqhiknnkfohmhjlnki rn o nqglifofjlohlljijf:roni 90-(>-;@) V V V V 
  1
 /3>1: lqjjmhnlihggoojoof:ronj lqj nhqmkfffffffffffhm o n o n o rnqglifofjlohlljijf:roni 90-(>-;@) V V V V 
  1
 1*33=, 
  1
 1*33=, 
  1
 V V 
  1
 o 
  1
 o 
  1
 o 
  1
 
  1
 o " V V |
  1
92:,7r:&:r>++-6= {rn rn {ngg {rn {noh |
  1
9><: {ngf rn {rn {njg {nkm {h {rn {nfo 90-(>-; ,6183: |
  1
300/ {rn rn {rn {ih {nfn {noh |
  1
+0-*,r,*-9><: {rn rn {rn o nqhj lqnijilmmhkffmomoh rnqglifofjlohlljijf:roni o rn oqgnlgkmmgkimigmfgk mqhiknnkfohmhjlnki rn o nqglifofjlohlljijf:roni 90-(>-;@) V V V V |
  1
<0:;8: {rn rn {rn {nnn {nno {nli {nhg -:):-,:; {nnm {rn |
  1
9><: {nfm rn {rn {gm {nnm {h {rn {nfl 90-(>-; ,6183: |
  1
<0:;8: {rn rn {rn {nnf {nli {nnk {nio -:):-,:; {gf {rn |
  1
:;8: {rn rn {rn {nmn mfqnmkffffffffffjk {nin lkqkffffffffffffjh {njf {nfk 90-(>-; _h *1410(1 |
  1
):-+:' {rn rn {rn {nhg n {nfj |
  1
,+->687+r<*-): {rn rn {rn oqignmngklljlgmknnf lqj lkqkffffffffffffhm n o rnqglifofjlohlljijf:roni V V |
  1
,+->687+r<*-): {rn rn {rn oqignmngklljlgmknnf o lkqkffffffffffffhm rn o nqglifofjlohlljijf:roni V V |
  1
61+<*-):r<*-): {rn rn {rn 90-(>-; $ 61+@61+@<*- mnion 9*33 1*=, l 0/:1 f 
  1
 iqgjknlhhjnhonnoff l hqoojlmmmfkgfooihj m hqmgigklknmnkffkhm m hqfmogihnghfmfnlnm m gqjjkgfofilhoglnjl m 
  1
 fqnggfnkhlfkghkfhj m fqgmmflgjnjmiiignj m noqnokkjfilmjmijin m noqmjjikknhjhnjjnf l 
  1
 rnqhkffffffffffffik lqj mfqnmkffffffffffjk 
  1
 rnqhkffffffffffffik lqkjmknknlnkhkonjl mfqoffhomhhigofmln 
  1
 rnqhkfffffffffffgfl lqkomgjlfoljmohllm mfqohjnoiiggnhjhog 
  1
 rnqhkfffffffffffgfl lqmjfnmoooolnkmknl mfqooghfjgmhnhigjg 
  1
 rnqhkfffffffffffgfl lqnilmmkgomglnmoji mgqfhohhiofnlokmgk 
  1
 rnqhkfffffffffffgfl mqghjoollilijjhmoi mgqghokjjkjjgoloog 
  1
 rnqhkfffffffffffgfl mqikffhgjohfoglkik mgqgnjgmjnkogigkfk 
  1
 rnqhkfffffffffffgfl mqnflogiohnffnlllf mgqhkhgnljgkmnnlhj 
  1
 rnqhkfffffffffffgfl nqfinlknmjgjfloinm mgqhllinonjmnfonil 
  1
 rnqhkfffffffffffgfl nqjlgijghknkoiflfl mgqhllinonjmnfonil 
  1
 rnqhkfffffffffffgfl nqloifnlfmgoogiiin mgqhkhgnljgkmnnlhj 
  1
 rnqhkfffffffffffgfl oqgjoomnkfmofnijkkj mgqgnjgmjnkogigkfk 
  1
 rnqhkfffffffffffgfl oqimkffiililkkmhfgm mgqghokjjkjjgoloog 
  1
 rnqhkfffffffffffgfl oqllihhjnfhnighfkkj mgqfhohhiofnlokmgk 
  1
 rnqhkfffffffffffgfl oqmkoghffffigjhjgmk mfqooghfjgmhnhigjg 
  1
 rnqhkfffffffffffgfl oqofhnkiofikhfmiilog mfqohjnoiiggnhjhnm 
  1
 rnqhkffffffffffffik oqokhjgjgigjmjfgkmlm mfqoffhomhhigofmln 
  1
 rnqhkffffffffffffik o mfqnmkffffffffffjk 
  1
 oqooolgmhnmflkfnfiojml 
  1
 +0-*, lqjjmhnlihggoojoof:ronj nqhj lnqllklihhmjoohfmm rnqglifofjlohlljijf:roni o rn oqgnlgkmmgkimigmfgk rmqhiknnkfohmhjlnki rn o nqglifofjlohlljijf:roni 90-(>-;@) V V V V 
  1
 /3>1: rnqhj lqj o rn o lqgfikjlifmljhokif:roni lqgfikjlifmljhokif:roni o n 90-(>-;@) V V V V 
  1
 1*33=, 
  1
 1*33=, 
  1
 V V 
  1
 o 
  1
 o 
  1
 o 
  1
 
  1
 o " V V |
  1
/061+ {rn rn {rn rnqhkffffffffffffik lqj mfqnmkffffffffffjk |
  1
-:9@)+r:&:r>++-6= {rn rn {nfi {nml {gm {k {j |
  1
92:,7r:&:r>++-6= {rn rn {nfh {rn {nmk |
  1
9><: {nfg rn {rn {nff {moo {h {rn {mon 90-(>-; ,6183: |
  1
300/ {rn rn {rn {mom {mol {nmk |
  1
+0-*,r,*-9><: {rn rn {rn lqjjmhnlihggoojoof:ronj nqhj mgqkhonmkmgfmmjhog rnqglifofjlohlljijf:roni o rn nqllhjhommohgmkmkh oqmjhkkgghkiiggkjln rn o nqglifofjlohlljijf:roni 90-(>-;@) V V V V |
  1
<0:;8: {rn rn {rn {nhn {nhn {mok {moj -:):-,:; {nmj {rn |
  1
/:-,*=:1+r><>;L036;W6,+0-&r>++-6= {rn rn {rn {nmg {jk n k m o |
  1
-:9@)+r:&:r>++-6= {rn rn {moi {nmf {gg {k {j |
  1
92:,7r:&:r>++-6= {rn rn {moh {rn {nlo |
  1
<0:;8: {rn rn {rn {nlm {ngm {ngo {mog 90-(>-; {nln {rn |
  1
):-+:' {rn rn {rn {mog n {mof |
  1
/061+ {rn rn {rn rnqhj o jqlhkffffffffffgfl |
  1
:;8: {rn rn {rn {nlh rmqimj {nin oqghj {njh {mno 90-(>-; _h *1410(1 |
  1
/061+ {rn rn {rn rnqhkffffffffffffmf o lkqkffffffffffffjh |
  1
<0:;8: {rn rn {rn {nkn {nko {nhj {mog -:):-,:; {nkm {rn |
  1
,+->687+r<*-): {rn rn {rn oqignmngklljlgmlojl o rmqgkmnhofklokokooh:ronk n o rnqglifofjlohlljijf:roni V V |
  1
<0:;8: {rn rn {rn {nhj {nkf {nki {ngl -:):-,:; {nln {rn |
  1
:;8: {rn rn {rn {ngk o {njn jqlhkffffffffffgfl {ngm {nfk 90-(>-; _h *1410(1 |
  1
):-+:' {rn rn {rn {mog o {mnn |
  1
,+->687+r<*-): {rn rn {rn oqignmngklljlgmlojl lqj rmqgkmnhofklokokooh:ronk rn o nqglifofjlohlljijf:roni V V |
  1
61+<*-):r<*-): {rn rn {rn 90-(>-; $ 61+@61+@<*- mnion 9*33 1*=, l 0/:1 f 
  1
 rnqhoohjlmnmoohmojn l rnqjkfjigiiggngmkfj m rnqmigokhjjnjjglig m roqilkomlhhjhhfngkon m o l 
  1
 oqilkomlhhjhhfnglji m nqmigokhjjnjjglihn m nqjkfjigiiggngmkhh m nqhoohjlmnmoohmojj l 
  1
 rnqhj o jqlhkffffffffffgfl 
  1
 rnqhj oqokhjgjgigjmjfgkihi jqkoomfhmmlnfohnjg 
  1
 rnqhj oqofhnkiofikhfmijgik jqkmkgfllnngmkmlnl 
  1
 rnqhj oqmkoghffffigjhjiom jqkfnmoknhmgmlogng 
  1
 rnqhj oqllihhjnfhnighfk jqjmfmmlfogifjijji 
  1
 rnqhj oqimkffiililkkmhgfl jqimfjkkjkknfiflji 
  1
 rnqhj oqgjoomnkfmofnijlji jqigknhkgjfnlnkkfm 
  1
 rnqhj nqloifnlfmgoogiijh jqhjmngiknjhggjig 
  1
 rnqhj nqjlgijghknkoiflgg jqhiilgfgkhgofhhik 
  1
 rnqhj nqhj jqhiilgfgkhgofhhik 
  1
 rnqhj nqfinlknmjgjfloinm jqhiilgfgkhgofhhik 
  1
 rnqhj mqnflogiohnffnlllf jqhjmngiknjhggjig 
  1
 rnqhj mqikffhgjohfoglki jqigknhkgjfnlnkkfm 
  1
 rnqhj mqghjoollilijjhmoi jqimfjkkjkknfiflji 
  1
 rnqhj lqnilmmkgomglnmoji jqjmfmmlfogifjijji 
  1
 rnqhj lqmjfnmoooolnkmkng jqkfnmoknhmgmlogng 
  1
 rnqhj lqkomgjlfoljmohllm jqkmkgfllnngmkmlnl 
  1
 rnqhj lqkjmknknlnkhkonkf jqkoomfhmmlnfohnjg 
  1
 rnqhj lqj jqlhkffffffffffgfl 
  1
 oqooolgmhnmflkfnlglhij 
  1
 +0-*, o nqhj lqnijilmmhkffmomoh rnqglifofjlohlljijf:roni o rn oqgnlgkmmgkimigmfgk rmqhiknnkfohmhjlnki rn o nqglifofjlohlljijf:roni 90-(>-;@) V V V V 
  1
 /3>1: rnqhj lqj o rn o lqgfikjlifmljhokif:roni lqgfikjlifmljhokif:roni o n 90-(>-;@) V V V V 
  1
 1*33=, 
  1
 1*33=, 
  1
 V V 
  1
 o 
  1
 o 
  1
 o 
  1
 
  1
 o " V V |
  1
/061+ {rn rn {rn rnqhj lqj jqlhkffffffffffgfl |
  1
-:9@)+r:&:r>++-6= {rn rn {mnm {njl {noh {k {j |
  1
92:,7r:&:r>++-6= {rn rn {mnl {rn {njk |
  1
/3>1:r,*-9><: {rn rn {rn nqlimkligihohikinn nqhj rmqgkmnhofklokokooh:ronk rnqglifofjlohlljijf:roni o rn rn o nqglifofjlohlljijf:roni 90-(>-;@) V V V V |
  1
<0:;8: {rn rn {rn {nfn {nfn {mnk {mnj 90-(>-; {njj {rn |
  1
92:,7r:&:r>++-6= {rn rn {mni {rn {njg |
  1
/3>1:r,*-9><: {rn rn {rn nqlimkligihohikhjl nqhj lkqkffffffffffffhm nqglifofjlohlljijf:roni o n n o rnqglifofjlohlljijf:roni 90-(>-;@) V V V V |
  1
,+->687+r<*-): {rn rn {rn rnqhj lqj o lqgfikjlifmljhokif:roni o n V V |
  1
/061+ {rn rn {rn rnqhkffffffffffffmf lqj lkqkffffffffffffjh |
  1
/:-,*=:1+r><>;L036;W6,+0-&r>++-6= {rn rn {rn {nii {gm n l n o |
  1
-:9@)+r:&:r>++-6= {rn rn {mnh {nih {nmk {k {j |
  1
92:,7r:&:r>++-6= {rn rn {mng {rn {nig |
  1
9><: {mnf rn {rn {mmo {mmn {h {rn {mmm 90-(>-; ,6183: |
  1
300/ {rn rn {rn {mml {mmk {nig |
  1
+0-*,r,*-9><: {rn rn {rn lqjjmhnlihggoojoof:ronj nqhj mgqmjmmlliihhfooml rnqglifofjlohlljijf:roni o rn nqllhjhllgkkimkkkf oqmjhkkkjmhmfikinhm rn o nqglifofjlohlljijf:roni 90-(>-;@) V V V V |
  1
300/ {rn rn {rn {rn {mok {nmk |
  1
<0:;8: {rn rn {rn {mol {mol {mmj {mmi -:):-,:; {nif {rn |
  1
<0:;8: {rn rn {rn {mok {mok {nhn {moj 90-(>-; {mom {rn |
  1
:;8: {rn rn {rn {mmh o {mmh iqmglngjlohnhfjgim {mok {mmg 90-(>-; _h *1410(1 |
  1
/:-,*=:1+r><>;L036;W6,+0-&r>++-6= {rn rn {rn {nhl {gg n k m o |
  1
-:9@)+r:&:r>++-6= {rn rn {mmf {nhk {nlo {k {j |
  1
:;8: {rn rn {rn {ngk roqghj {nhi mqimj {ngo {mlo 90-(>-; _h *1410(1 |
  1
/061+ {rn rn {rn rnqhj o o |
  1
,+->687+r<*-): {rn rn {rn rnqhkfffffffffffgjg mqimj lkqkffffffffffffhm o n o V V |
  1
/061+ {rn rn {rn rnqhj lqj o |
  1
/:-,*=:1+r><>;L036;W6,+0-&r>++-6= {rn rn {rn {ngg {noh n l h o |
  1
-:9@)+r:&:r>++-6= {rn rn {mln {ngf {njk {k {j |
  1
<0:;8: {rn rn {rn {mnk {mnk {nfn {mnj -:):-,:; {mlm {rn |
  1
:;8: {rn rn {rn {mll o {mll iqmglngjlohnhfjgim {nfn {mlk 90-(>-; _h *1410(1 |
  1
-:9@)+r:&:r>++-6= {rn rn {mlj {nfm {njg {k {j |
  1
/:-,*=:1+r><>;L036;W6,+0-&r>++-6= {rn rn {rn {nfh {nmk n l mn o |
  1
-:9@)+r:&:r>++-6= {rn rn {mli {nfg {nig {k {j |
  1
92:,7r:&:r>++-6= {rn rn {mlh {rn {nff |
  1
9><: {mlg rn {rn {mlf {mko {h {rn {mkn 90-(>-; ,6183: |
  1
300/ {rn rn {rn {mkm {mkl {nff |
  1
<01:r,*-9><: {rn rn {rn lqjjmhnlihggoojoof:ronj nqhj mjqinoglmkjiiiklk rnqglifofjlohlljijf:roni o rn nqjogjgkjimjfinknm o rmqhhnnllliofjolhfi:roni n V V oqoookjnoiolkgminijkjg oqffffffgfgmhmmhjfg nqjogjgkjimjfinknm 90-(>-; V V V V |
  1
300/ {rn rn {rn {rn {mmj {nig |
  1
<0:;8: {rn rn {rn {mmk {mmk {mkk {mkj -:):-,:; {moo {rn |
  1
<0:;8: {rn rn {rn {mmj {mmj {mol {mmi 90-(>-; {mml {rn |
  1
:;8: {rn rn {rn {mki o {mki iqmglngjlohnhfjgim {mmj {mkh 90-(>-; _h *1410(1 |
  1
):-+:' {rn rn {rn {moj m {mkg |
  1
:336/,:r<*-): {rn rn {rn lqjjmhnlihggoojoof:ronj nqhj mgqijfhghkgmigkioh rnqglifofjlohlljijf:roni o rn nqjnniinjikfjllohk o rmqhhihgjjljfoilkhf:roni n V V |
  1
/:-,*=:1+r><>;L036;W6,+0-&r>++-6= {rn rn {rn {moh {nlo n k nooooooooo n |
  1
,+->687+r<*-): {rn rn {rn rnqhj mqimj rmqgkmnhofklokokooh:ronk o rn o V V |
  1
/:-,*=:1+r><>;L036;W6,+0-&r>++-6= {rn rn {rn {mnl {njk m k l o l j o |
  1
300/ {rn rn {rn {mkf {mnk {mjo |
  1
):-+:' {rn rn {rn {mnj m {mjn |
  1
:336/,:r<*-): {rn rn {rn o nqhj jqgkomnmjnhlnjllij rnqglifofjlohlljijf:roni o rn nqjnniinjikfjllmni o rmqhhihgjjljfoilhk:roni n V V |
  1
/:-,*=:1+r><>;L036;W6,+0-&r>++-6= {rn rn {rn {mni {njg m k n o l l o |
  1
/:-,*=:1+r><>;L036;W6,+0-&r>++-6= {rn rn {rn {mng {nig n l mo o |
  1
-:9@)+r:&:r>++-6= {rn rn {mjm {mnf {nff {k {j |
  1
92:,7r:&:r>++-6= {rn rn {mjl {rn {mmo |
  1
9><: {mjk rn {rn {mjj {mji {h {rn {mjh 90-(>-; ,6183: |
  1
300/ {rn rn {rn {mjg {mjf {mmo |
  1
+0-*,r,*-9><: {rn rn {rn lqjjmhnlihggoojoof:ronj nqhj mmqfhnlfjkkkglooml rnqglifofjlohlljijf:roni o rn nqllhjgjohhlhjglkk oqmjhkljkhmnhgliohn rn o nqglifofjlohlljijf:roni 90-(>-;@) V V V V |
  1
300/ {rn rn {rn {rn {mkk {nff |
  1
<0:;8: {rn rn {rn {mkl {mkl {mio {min -:):-,:; {mmn {rn |
  1
<0:;8: {rn rn {rn {mkk {mkk {mmk {mkj 90-(>-; {mkm {rn |
  1
:;8: {rn rn {rn {mim o {mim iqmglngjlohnhfjgim {mkk {mil 90-(>-; _h *1410(1 |
  1
):-+:' {rn rn {rn {mmi m {mik |
  1
:336/,:r<*-): {rn rn {rn lqjjmhnlihggoojoof:ronj nqhj mgqlinnhhmmghlokk rnqglifofjlohlljijf:roni o rn nqjhoglohmnmkgjnfj o rmqggjkhlfmlolokgh:roni n V V |
  1
/061+ {rn rn {rn nqjnniinjikfjllnof nqhj mgqijfhghkgmigkioh |
  1
300/ {rn rn {rn {rn {mij {mjo |
  1
9><: {mii rn {rn {rn {mlm {h {rn {mih 90-(>-; ,6183: |
  1
/061+ {rn rn {rn nqjnniinjikfjllmni nqhj jqgkomnmjnhlnjllij |
  1
/:-,*=:1+r><>;L036;W6,+0-&r>++-6= {rn rn {rn {mlh {nff n l nf o |
  1
-:9@)+r:&:r>++-6= {rn rn {mig {mlg {mmo {k {j |
  1
92:,7r:&:r>++-6= {rn rn {mif {rn {mlf |
  1
9><: {mho rn {rn {mhn {mhm {h {rn {mhl 90-(>-; ,6183: |
  1
300/ {rn rn {rn {mhk {mhj {mlf |
  1
+0-*,r,*-9><: {rn rn {rn lqjjmhnlihggoojoof:ronj nqhj mmqhjljomnfklhioig rnqglifofjlohlljijf:roni o rn nqllhjgjohhlhjglkk oqmjhkljkhmnhgliohn rn o nqglifofjlohlljijf:roni 90-(>-;@) V V V V |
  1
300/ {rn rn {rn {rn {mio {mmo |
  1
<0:;8: {rn rn {rn {mjf {mjf {mhi {mhh -:):-,:; {mko {rn |
  1
<0:;8: {rn rn {rn {mio {mio {mkl {min 90-(>-; {mjg {rn |
  1
:;8: {rn rn {rn {mhg o {mhg iqmglngjlohnhfjgim {mio {mhf 90-(>-; _h *1410(1 |
  1
):-+:' {rn rn {rn {mkj m {mgo |
  1
:336/,:r<*-): {rn rn {rn lqjjmhnlihggoojoof:ronj nqhj mgqojggnggmggihogf rnqglifofjlohlljijf:roni o rn nqjohkgolhmgfgmmng o rmqhifnojoiklhojllh:roni n V V |
  1
/061+ {rn rn {rn nqjhoglohmnmkgjmln nqhj mgqlinnhhmmghlokk |
  1
<0:;8: {rn rn {rn {mij {mij {mgn {mgm 90-(>-; {mkf {rn |
  1
92:,7r:&:r>++-6= {rn rn {mgl {rn {mjo |
  1
+0-*,r,*-9><: {rn rn {rn o nqhj iqolmgijgimljggngl rnqglifofjlohlljijf:roni o rn nqlmfikioomggfjfik oqmijolhiggmkknhmim rn o nqglifofjlohlljijf:roni 90-(>-;@) V V V V |
  1
/:-,*=:1+r><>;L036;W6,+0-&r>++-6= {rn rn {rn {mjl {mmo n l ng o |
  1
-:9@)+r:&:r>++-6= {rn rn {mgk {mjk {mlf {k {j |
  1
92:,7r:&:r>++-6= {rn rn {mgj {rn {mjj |
  1
9><: {mgi rn {rn {mgh {mgg {h {rn {mgf 90-(>-; ,6183: |
  1
300/ {rn rn {rn {mfo {mfn {mjj |
  1
<01:r,*-9><: {rn rn {rn lqjjmhnlihggoojoof:ronj nqhj moqojlnfgihonlnmg rnqglifofjlohlljijf:roni o rn nqjofiggfllononolj o rmqhhlninfgfkgfmkhm:roni n V V o n nqjofiggfllononolj 90-(>-; V V V V |
  1
300/ {rn rn {rn {rn {mhi {mlf |
  1
<0:;8: {rn rn {rn {mhj {mhj {mfm {mfl -:):-,:; {mji {rn |
  1
<0:;8: {rn rn {rn {mhi {mhi {mjf {mhh 90-(>-; {mhk {rn |
  1
:;8: {rn rn {rn {mfk o {mfk iqmglngjlohnhfjgim {mhi {mfj 90-(>-; _h *1410(1 |
  1
):-+:' {rn rn {rn {min m {mfi |
  1
:336/,:r<*-): {rn rn {rn lqjjmhnlihggoojoof:ronj nqhj mlqnimgkiogkkinjfm rnqglifofjlohlljijf:roni o rn nqjofigghjmmfkojlk o rmqhhlninijhjlomnmm:roni n V V |
  1
/061+ {rn rn {rn nqjohkgolhmgfgmmjl nqhj mgqojggnggmggihogf |
  1
<0:;8: {rn rn {rn {mgn {mgn {mij {mgm -:):-,:; {mfh {rn |
  1
:;8: {rn rn {rn {mfg o {mfg iqmglngjlohnhfjgim {mij {mff 90-(>-; _h *1410(1 |
  1
-:9@)+r:&:r>++-6= {rn rn {loo {mii {mjo {k {j |
  1
/:-,*=:1+r><>;L036;W6,+0-&r>++-6= {rn rn {rn {mif {mlf n l nh o |
  1
-:9@)+r:&:r>++-6= {rn rn {lon {mho {mjj {k {j |
  1
92:,7r:&:r>++-6= {rn rn {lom {rn {mhn |
  1
9><: {lol rn {rn {lok {loj {h {rn {loi 90-(>-; ,6183: |
  1
300/ {rn rn {rn {loh {log {mhn |
  1
+0-*,r,*-9><: {rn rn {rn lqjjmhnlihggoojoof:ronj nqhj nhqljmggfgiooofhmj rnqglifofjlohlljijf:roni o rn nqllhjilgnhjllllik oqmjhkjlgjgoojnnlin rn o nqglifofjlohlljijf:roni 90-(>-;@) V V V V |
  1
300/ {rn rn {rn {rn {mfm {mjj |
  1
<0:;8: {rn rn {rn {mfn {mfn {lof {lno -:):-,:; {mhm {rn |
  1
<0:;8: {rn rn {rn {mfm {mfm {mhj {mfl 90-(>-; {mfo {rn |
  1
:;8: {rn rn {rn {lnn o {lnn iqmglngjlohnhfjgim {mfm {lnm 90-(>-; _h *1410(1 |
  1
):-+:' {rn rn {rn {mhh m {lnl |
  1
:336/,:r<*-): {rn rn {rn lqjjmhnlihggoojoof:ronj nqhj mmqgimkkggnfiololn rnqglifofjlohlljijf:roni o rn nqjhoglofgghgnmiok o rmqggjkhkknkkilfmgl:roni n V V |
  1
/061+ {rn rn {rn nqjofigghjmmfkojh nqhj mlqnimgkiogkkinjfm |
  1
300/ {rn rn {rn {lnk {mgn {lnj |
  1
):-+:' {rn rn {rn {mgm m {lni |
  1
:336/,:r<*-): {rn rn {rn o nqhj iqnkmhjnfkjjnkhlnf rnqglifofjlohlljijf:roni o rn nqjhoglofolllomnnj o rmqggjkhkmjhkfgognf:roni n V V |
  1
/:-,*=:1+r><>;L036;W6,+0-&r>++-6= {rn rn {rn {mgl {mjo n l g o |
  1
/:-,*=:1+r><>;L036;W6,+0-&r>++-6= {rn rn {rn {mgj {mjj n l ni o |
  1
-:9@)+r:&:r>++-6= {rn rn {lnh {mgi {mhn {k {j |
  1
92:,7r:&:r>++-6= {rn rn {lng {rn {mgh |
  1
9><: {lnf rn {rn {lmo {lmn {h {rn {lmm 90-(>-; ,6183: |
  1
300/ {rn rn {rn {lml {lmk {mgh |
  1
+0-*,r,*-9><: {rn rn {rn lqjjmhnlihggoojoof:ronj nqhj nhqnlkfffgiomlnfhm rnqglifofjlohlljijf:roni o rn nqllhjhkhmlokjnmmj oqmjhkklfhinnjljffn rn o nqglifofjlohlljijf:roni 90-(>-;@) V V V V |
  1
300/ {rn rn {rn {rn {lof {mhn |
  1
<0:;8: {rn rn {rn {log {log {lmj {lmi -:):-,:; {mgg {rn |
  1
<0:;8: {rn rn {rn {lof {lof {mfn {lno 90-(>-; {loh {rn |
  1
:;8: {rn rn {rn {lmh o {lmh iqmglngjlohnhfjgim {lof {lmg 90-(>-; _h *1410(1 |
  1
):-+:' {rn rn {rn {mfl m {lmf |
  1
:336/,:r<*-): {rn rn {rn lqjjmhnlihggoojoof:ronj nqhj mmqjimojnjjkhkkj rnqglifofjlohlljijf:roni o rn nqjofigghjmmfkoihi o rmqhhlninijhjlomlgl:roni n V V |
  1
/061+ {rn rn {rn nqjhoglofgghgnmilf nqhj mmqgimkkggnfiololn |
  1
300/ {rn rn {rn {rn {llo {lnj |
  1
9><: {lln rn {rn {mjo {mfh {h {rn {llm 90-(>-; ,6183: |
  1
/061+ {rn rn {rn nqjhoglofolllomnnj nqhj iqnkmhjnfkjjnkhlnf |
  1
/:-,*=:1+r><>;L036;W6,+0-&r>++-6= {rn rn {rn {lom {mhn n l nj o |
  1
-:9@)+r:&:r>++-6= {rn rn {lll {lol {mgh {k {j |
  1
92:,7r:&:r>++-6= {rn rn {llk {rn {lok |
  1
9><: {llj rn {rn {lli {llh {h {rn {llg 90-(>-; ,6183: |
  1
300/ {rn rn {rn {llf {lko {lok |
  1
<01:r,*-9><: {rn rn {rn lqjjmhnlihggoojoof:ronj nqhj nkqklkifkfhihfmiji rnqglifofjlohlljijf:roni o rn nqjofigfonihkfjllm o rmqhhlnimnkllnnooli:roni n V V o n nqjofigfonihkfjllm 90-(>-; V V V V |
  1
300/ {rn rn {rn {rn {lmj {mgh |
  1
<0:;8: {rn rn {rn {lmk {lmk {lkn {lkm -:):-,:; {loj {rn |
  1
<0:;8: {rn rn {rn {lmj {lmj {log {lmi 90-(>-; {lml {rn |
  1
:;8: {rn rn {rn {lkl o {lkl iqmglngjlohnhfjgim {lmj {lkk 90-(>-; _h *1410(1 |
  1
):-+:' {rn rn {rn {lno m {lkj |
  1
:336/,:r<*-): {rn rn {rn lqjjmhnlihggoojoof:ronj nqhj nhqjkklkjhgjjngoin rnqglifofjlohlljijf:roni o rn nqjofigfnnlhminlfj o rmqhhlnimlmnkkgmjji:roni n V V |
  1
/061+ {rn rn {rn nqjofigghjmmfkohnm nqhj mmqjimojnjjkhkkj |
  1
<0:;8: {rn rn {rn {llo {llo {lki {lkh 90-(>-; {lnk {rn |
  1
92:,7r:&:r>++-6= {rn rn {lkg {rn {lnj |
  1
+0-*,r,*-9><: {rn rn {rn o nqhj iqmjnifiigmljijiih rnqglifofjlohlljijf:roni o rn nqllhjilgnhjlllog oqmjhkjlgjgoojnnlin rn o nqglifofjlohlljijf:roni 90-(>-;@) V V V V |
  1
/:-,*=:1+r><>;L036;W6,+0-&r>++-6= {rn rn {rn {lng {mgh n l nk o |
  1
-:9@)+r:&:r>++-6= {rn rn {lkf {lnf {lok {k {j |
  1
92:,7r:&:r>++-6= {rn rn {ljo {rn {lmo |
  1
9><: {ljn rn {rn {ljm {ljl {h {rn {ljk 90-(>-; ,6183: |
  1
300/ {rn rn {rn {ljj {lji {lmo |
  1
+0-*,r,*-9><: {rn rn {rn o nqhj nnqhlklfnhninlkmfh rnqglifofjlohlljijf:roni o rn nqllhjgmmollioohnl oqmjhklhkgoojmlhklg rn o nqglifofjlohlljijf:roni 90-(>-;@) V V V V |
  1
300/ {rn rn {rn {rn {lkn {lok |
  1
<0:;8: {rn rn {rn {lko {lko {ljh {ljg -:):-,:; {lmn {rn |
  1
<0:;8: {rn rn {rn {lkn {lkn {lmk {lkm 90-(>-; {llf {rn |
  1
:;8: {rn rn {rn {ljf o {ljf iqmglngjlohnhfjgim {lkn {lio 90-(>-; _h *1410(1 |
  1
):-+:' {rn rn {rn {lmi m {lin |
  1
:336/,:r<*-): {rn rn {rn lqjjmhnlihggoojoof:ronj nqhj nhqmklfkjommlgjokf rnqglifofjlohlljijf:roni o rn nqjhoglogjimiohlkl o rmqggjkhknhnoljhnoi:roni n V V |
  1
/061+ {rn rn {rn nqjofigfnnlhminkl nqhj nhqjkklkjhgjjngoin |
  1
<0:;8: {rn rn {rn {lki {lki {llo {lkh -:):-,:; {lim {rn |
  1
:;8: {rn rn {rn {lil o {lil iqmglngjlohnhfjgim {llo {lik 90-(>-; _h *1410(1 |
  1
-:9@)+r:&:r>++-6= {rn rn {lij {lln {lnj {k {j |
  1
/:-,*=:1+r><>;L036;W6,+0-&r>++-6= {rn rn {rn {llk {lok n l nl o |
  1
-:9@)+r:&:r>++-6= {rn rn {lii {llj {lmo {k {j |
  1
92:,7r:&:r>++-6= {rn rn {lih {rn {lli |
  1
9><: {lig rn {rn {lnj {lim {h {rn {lif 90-(>-; ,6183: |
  1
300/ {rn rn {rn {lho {lhn {lli |
  1
+0-*,r,*-9><: {rn rn {rn o nqhj nnqjnijoomffollhof rnqglifofjlohlljijf:roni o rn nqllhjjfkgigmkihli oqmjhkjgohoioljlkkg rn o nqglifofjlohlljijf:roni 90-(>-;@) V V V V |
  1
300/ {rn rn {rn {rn {ljh {lmo |
  1
<0:;8: {rn rn {rn {lji {lji {lhm {lhl -:):-,:; {llh {rn |
  1
<0:;8: {rn rn {rn {ljh {ljh {lko {ljg 90-(>-; {ljj {rn |
  1
:;8: {rn rn {rn {lhk o {lhk iqmglngjlohnhfjgim {ljh {lhj 90-(>-; _h *1410(1 |
  1
):-+:' {rn rn {rn {lkm m {lhi |
  1
:336/,:r<*-): {rn rn {rn lqjjmhnlihggoojoof:ronj nqhj niqfkljkhjmjlffmmj rnqglifofjlohlljijf:roni o rn nqjofigfmlmlgkinil o rmqhhlnimjlfknlnkmh:roni n V V |
  1
/061+ {rn rn {rn nqjhoglogjimiohlhg nqhj nhqmklfkjommlgjokf |
  1
300/ {rn rn {rn {lhh {lki {ljm |
  1
):-+:' {rn rn {rn {lkh m {lhg |
  1
:336/,:r<*-): {rn rn {rn o nqhj iqkklnjmiohgikfomg rnqglifofjlohlljijf:roni o rn nqjofigfnnlhminlfj o rmqhhlnimlmnkkgmjji:roni n V V |
  1
/:-,*=:1+r><>;L036;W6,+0-&r>++-6= {rn rn {rn {lkg {lnj n l f o |
  1
/:-,*=:1+r><>;L036;W6,+0-&r>++-6= {rn rn {rn {ljo {lmo n l nm o |
  1
-:9@)+r:&:r>++-6= {rn rn {lhf {ljn {lli {k {j |
  1
92:,7r:&:r>++-6= {rn rn {lgo {rn {ljm |
  1
<01:r,*-9><: {rn rn {rn o nqhj gqggkofhkhknnlhlom rnqglifofjlohlljijf:roni o rn nqjofiggfigogkjng o rmqhhlnimojlfnhhhlj:roni n V V o n nqjofiggfigogkjng 90-(>-; V V V V |
  1
300/ {rn rn {rn {rn {lhm {lli |
  1
<0:;8: {rn rn {rn {lhn {lhn {lgn {lgm -:):-,:; {ljl {rn |
  1
<0:;8: {rn rn {rn {lhm {lhm {lji {lhl 90-(>-; {lho {rn |
  1
:;8: {rn rn {rn {lgl o {lgl iqmglngjlohnhfjgim {lhm {lgk 90-(>-; _h *1410(1 |
  1
):-+:' {rn rn {rn {ljg m {lgj |
  1
:336/,:r<*-): {rn rn {rn o nqhj nnqfmjgkmkmgngiojg rnqglifofjlohlljijf:roni o rn nqjofigggonnnkkj o rmqhhlninhkhmoggik:roni n V V |
  1
/061+ {rn rn {rn nqjofigfmlmlgkinfg nqhj niqfkljkhjmjlffmmj |
  1
300/ {rn rn {rn {rn {lgn {ljm |
  1
/061+ {rn rn {rn nqjofigfnnlhminlfj nqhj iqkklnjmiohgikfomg |
  1
/:-,*=:1+r><>;L036;W6,+0-&r>++-6= {rn rn {rn {lih {lli n l nn o |
  1
-:9@)+r:&:r>++-6= {rn rn {lgi {lig {ljm {k {j |
  1
<0:;8: {rn rn {rn {lgn {lgn {lhn {lgm 90-(>-; {lhh {rn |
  1
:;8: {rn rn {rn {lgh o {lgh iqmglngjlohnhfjgim {lgn {lgg 90-(>-; _h *1410(1 |
  1
):-+:' {rn rn {rn {lhl m {lgf |
  1
:336/,:r<*-): {rn rn {rn o nqhj nnqimjkkjgmoglnlnh rnqglifofjlohlljijf:roni o rn nqjhogloihngojfjhj o rmqggjkhlglmmogfhlk:roni n V V |
  1
/061+ {rn rn {rn nqjofigggonnnkkj nqhj nnqfmjgkmkmgngiojg |
  1
/:-,*=:1+r><>;L036;W6,+0-&r>++-6= {rn rn {rn {lgo {ljm n l no o |
  1
):-+:' {rn rn {rn {lgm m {lfo |
  1
:336/,:r<*-): {rn rn {rn o nqhj nnqlmjokmlkolimjjg rnqglifofjlohlljijf:roni o rn nqjofigggmmkkmggfj o rmqhhlninhgilghmhg:roni n V V |
  1
/061+ {rn rn {rn nqjhogloihngojfjhj nqhj nnqimjkkjgmoglnlnh |
  1
/061+ {rn rn {rn nqjofigggmmkkmggfj nqhj nnqlmjokmlkolimjjg |
100
AcDb3dSolid
350
D2D12
  0
ENDSEC
  0
SECTION
  2
OBJECTS
  0
DICTIONARY
  5
ABCC
330
0
100
AcDbDictionary
281
     1
  3
ACAD_ASSOCPERSSUBENTMANAGER
350
D2AAC
  3
ACAD_BACKGROUND
350
D2D18
  3
ACAD_COLOR
350
D29FD
  3
ACAD_GROUP
350
ABCD
  3
ACAD_LAYOUT
350
D2A25
  3
ACAD_MATERIAL
350
D29D0
  3
ACAD_MLEADERSTYLE
350
D2A22
  3
ACAD_MLINESTYLE
350
ABC1B
  3
ACAD_PERSUBENTMGR
350
D2A64
  3
ACAD_PLOTSETTINGS
350
D2A26
  3
ACAD_PLOTSTYLENAME
350
D29CE
  3
ACAD_SCALELIST
350
D2A00
  3
ACAD_TABLESTYLE
350
D29FE
  3
ACAD_VISUALSTYLE
350
D29E9
  3
ACDB_RECOMPOSE_DATA
350
D2D21
  3
AcDbVariableDictionary
350
D2A68
  3
AEC_PROPERTY_SET_DEFS
350
D2B2D
  0
DICTIONARY
  5
D2AED
330
889A2
100
AcDbDictionary
280
     1
281
     1
  3
ACAD_LAYERSTATES
360
D2AEE
  0
DICTIONARY
  5
D2A66
330
889A3
100
AcDbDictionary
280
     1
281
     1
  3
ADSK_XREC_LAYER_RECONCILED
360
D2A67
  0
DICTIONARY
  5
D2A33
330
D29B6
100
AcDbDictionary
280
     1
281
     1
  3
ACAD_SORTENTS
360
D2A34
  0
ACSH_HISTORY_CLASS
  5
D2D12
330
D2D0F
100
AcDbShHistory
 90
       29
 91
       37
360
D2D11
 92
        3
280
     0
281
     1
  0
ACDBASSOCPERSSUBENTMANAGER
  5
D2AAC
102
{ACAD_REACTORS
330
ABCC
102
}
330
ABCC
100
AcDbAssocPersSubentManager
 90
        1
 90
        3
 90
        0
 90
        2
 90
        4
 90
        0
 90
        0
 90
        0
290
     0
  0
DICTIONARY
  5
D2D18
102
{ACAD_REACTORS
330
ABCC
102
}
330
ABCC
100
AcDbDictionary
281
     1
  0
DICTIONARY
  5
D29FD
102
{ACAD_REACTORS
330
ABCC
102
}
330
ABCC
100
AcDbDictionary
281
     1
  0
DICTIONARY
  5
ABCD
102
{ACAD_REACTORS
330
ABCC
102
}
330
ABCC
100
AcDbDictionary
281
     1
  0
DICTIONARY
  5
D2A25
102
{ACAD_REACTORS
330
ABCC
102
}
330
ABCC
100
AcDbDictionary
281
     1
  3
Layout1
350
D2A28
  3
Model
350
D2A27
  0
DICTIONARY
  5
D29D0
102
{ACAD_REACTORS
330
ABCC
102
}
330
ABCC
100
AcDbDictionary
281
     1
  3
ByBlock
350
D29D9
  3
ByLayer
350
D29D1
  3
Global
350
D29E1
  0
DICTIONARY
  5
D2A22
102
{ACAD_REACTORS
330
ABCC
102
}
330
ABCC
100
AcDbDictionary
281
     1
  3
Standard
350
D2A23
  0
DICTIONARY
  5
ABC1B
102
{ACAD_REACTORS
330
ABCC
102
}
330
ABCC
100
AcDbDictionary
281
     1
  3
STANDARD
350
ABC1C
  0
ACDBPERSSUBENTMANAGER
  5
D2A64
102
{ACAD_REACTORS
330
ABCC
102
}
330
ABCC
100
AcDbPersSubentManager
 90
        2
 90
        0
 90
        2
 90
        4
 90
        0
 90
        4
 90
        1
 90
        2
 90
        3
 90
        4
  0
DICTIONARY
  5
D2A26
102
{ACAD_REACTORS
330
ABCC
102
}
330
ABCC
100
AcDbDictionary
281
     1
  0
ACDBDICTIONARYWDFLT
  5
D29CE
102
{ACAD_REACTORS
330
ABCC
102
}
330
ABCC
100
AcDbDictionary
281
     1
  3
Normal
350
D29CF
100
AcDbDictionaryWithDefault
340
D29CF
  0
DICTIONARY
  5
D2A00
102
{ACAD_REACTORS
330
ABCC
102
}
330
ABCC
100
AcDbDictionary
281
     1
  3
A0
350
D2A01
  3
A1
350
D2A02
  3
A2
350
D2A03
  3
A3
350
D2A04
  3
A4
350
D2A05
  3
A5
350
D2A06
  3
A6
350
D2A07
  3
A7
350
D2A08
  3
A8
350
D2A09
  3
A9
350
D2A0A
  3
B0
350
D2A0B
  3
B1
350
D2A0C
  3
B2
350
D2A0D
  3
B3
350
D2A0E
  3
B4
350
D2A0F
  3
B5
350
D2A10
  3
B6
350
D2A11
  3
B7
350
D2A12
  3
B8
350
D2A13
  3
B9
350
D2A14
  3
C0
350
D2A15
  3
C1
350
D2A16
  3
C2
350
D2A17
  3
C3
350
D2A18
  3
C4
350
D2A19
  3
C5
350
D2A1A
  3
C6
350
D2A1B
  3
C7
350
D2A1C
  3
C8
350
D2A1D
  3
C9
350
D2A1E
  3
D0
350
D2A1F
  3
D1
350
D2A20
  3
D2
350
D2A21
  0
DICTIONARY
  5
D29FE
102
{ACAD_REACTORS
330
ABCC
102
}
330
ABCC
100
AcDbDictionary
281
     1
  3
Standard
350
D29FF
  0
DICTIONARY
  5
D29E9
102
{ACAD_REACTORS
330
ABCC
102
}
330
ABCC
100
AcDbDictionary
281
     1
  3
2dWireframe
350
D29EF
  3
3D Hidden
350
D29F1
  3
3dWireframe
350
D29F0
  3
Basic
350
D29EE
  3
Brighten
350
D29F5
  3
ColorChange
350
D29F9
  3
Conceptual
350
D29F2
  3
Dim
350
D29F4
  3
EdgeColorOff
350
D29FC
  3
Facepattern
350
D29F8
  3
Flat
350
D29EA
  3
FlatWithEdges
350
D29EB
  3
Gouraud
350
D29EC
  3
GouraudWithEdges
350
D29ED
  3
Hidden
350
D2AA6
  3
JitterOff
350
D29FA
  3
Linepattern
350
D29F7
  3
OverhangOff
350
D29FB
  3
Realistic
350
D29F3
  3
Shaded
350
D2AAB
  3
Shaded with edges
350
D2AAA
  3
Shades of Gray
350
D2AA7
  3
Sketchy
350
D2AA8
  3
Thicken
350
D29F6
  3
Wireframe
350
D2AA5
  3
X-Ray
350
D2AA9
  0
XRECORD
  5
D2D21
102
{ACAD_REACTORS
330
ABCC
102
}
330
ABCC
100
AcDbXrecord
280
     1
 90
        1
330
D29FF
  0
DICTIONARY
  5
D2A68
102
{ACAD_REACTORS
330
ABCC
102
}
330
ABCC
100
AcDbDictionary
281
     1
  3
CANNOSCALE
350
D2A6B
  3
CMLEADERSTYLE
350
D2A6A
  3
CTABLESTYLE
350
D2A69
  3
DIMASSOC
350
D2A6E
  3
INDEXCTL
350
D2A6D
  3
LAYEREVAL
350
D2D1E
  3
LAYERNOTIFY
350
D2D1F
  3
LIGHTINGUNITS
350
D2D1D
  3
MSLTSCALE
350
D2D1C
  3
SORTENTS
350
D2A6C
  0
DICTIONARY
  5
D2B2D
102
{ACAD_REACTORS
330
ABCC
102
}
330
ABCC
100
AcDbDictionary
281
     1
  0
DICTIONARY
  5
D2AEE
102
{ACAD_REACTORS
330
D2AED
102
}
330
D2AED
100
AcDbDictionary
281
     1
  0
XRECORD
  5
D2A67
102
{ACAD_REACTORS
330
D2A66
102
}
330
D2A66
100
AcDbXrecord
280
     1
290
     1
  0
SORTENTSTABLE
  5
D2A34
102
{ACAD_REACTORS
330
D2A33
102
}
330
D2A33
100
AcDbSortentsTable
330
D29B6
  0
ACAD_EVALUATION_GRAPH
  5
D2D11
330
D2D12
100
AcDbEvalGraph
 96
        3
 97
        3
 91
        0
 93
       32
 95
        1
360
D2D10
 92
       -1
 92
       -1
 92
        0
 92
        0
 91
        1
 93
       32
 95
        2
360
D2D14
 92
       -1
 92
       -1
 92
        1
 92
        1
 91
        2
 93
       32
 95
        3
360
D2D1A
 92
        0
 92
        1
 92
       -1
 92
       -1
 92
        0
 93
        0
 94
        1
 91
        0
 91
        2
 92
       -1
 92
        1
 92
       -1
 92
       -1
 92
       -1
 92
        1
 93
        0
 94
        1
 91
        1
 91
        2
 92
        0
 92
       -1
 92
       -1
 92
       -1
 92
       -1
  0
LAYOUT
  5
D2A28
102
{ACAD_REACTORS
330
D2A25
102
}
330
D2A25
100
AcDbPlotSettings
  1

  2
QuickBooks PDF Converter
  4

  6

 40
0.0
 41
0.0
 42
0.0
 43
0.0
 44
0.0
 45
0.0
 46
0.0
 47
0.0
 48
0.0
 49
0.0
140
0.0
141
0.0
142
1.0
143
1.0
 70
   688
 72
     0
 73
     0
 74
     5
  7

 75
    16
147
1.0
 76
     0
 77
     2
 78
   300
148
0.0
149
0.0
100
AcDbLayout
  1
Layout1
 70
     1
 71
     1
 10
0.0
 20
0.0
 11
12.0
 21
9.0
 12
0.0
 22
0.0
 32
0.0
 14
1.000000000000000E+20
 24
1.000000000000000E+20
 34
0.0
 15
-1.000000000000000E+20
 25
-1.000000000000000E+20
 35
-1.000000000000000E+20
146
0.0
 13
0.0
 23
0.0
 33
0.0
 16
1.0
 26
0.0
 36
0.0
 17
0.0
 27
1.0
 37
0.0
 76
     0
330
D29B7
  0
LAYOUT
  5
D2A27
102
{ACAD_REACTORS
330
D2A25
102
}
330
D2A25
100
AcDbPlotSettings
  1

  2
QuickBooks PDF Converter
  4

  6

 40
0.0
 41
0.0
 42
0.0
 43
0.0
 44
0.0
 45
0.0
 46
0.0
 47
0.0
 48
0.0
 49
0.0
140
0.0
141
0.0
142
1.0
143
1.0
 70
  1712
 72
     0
 73
     0
 74
     0
  7

 75
     0
147
1.0
 76
     0
 77
     2
 78
   300
148
0.0
149
0.0
100
AcDbLayout
  1
Model
 70
     1
 71
     0
 10
0.0
 20
0.0
 11
12.0
 21
9.0
 12
0.0
 22
0.0
 32
0.0
 14
0.0
 24
0.0
 34
0.0
 15
0.0
 25
0.0
 35
0.0
146
0.0
 13
0.0
 23
0.0
 33
0.0
 16
1.0
 26
0.0
 36
0.0
 17
0.0
 27
1.0
 37
0.0
 76
     0
330
D29B6
331
94056
  0
MATERIAL
  5
D29D9
102
{ACAD_XDICTIONARY
360
D29DA
102
}
102
{ACAD_REACTORS
330
D29D0
102
}
330
D29D0
100
AcDbMaterial
  1
ByBlock
 72
     0
 43
0.0208333333333333
 43
0.0
 43
0.0
 43
0.0
 43
0.0
 43
0.0208333333333333
 43
0.0
 43
0.0
 43
0.0
 43
0.0
 43
1.0
 43
0.0
 43
0.0
 43
0.0
 43
0.0
 43
1.0
 77
     0
 47
0.0208333333333333
 47
0.0
 47
0.0
 47
0.0
 47
0.0
 47
0.0208333333333333
 47
0.0
 47
0.0
 47
0.0
 47
0.0
 47
1.0
 47
0.0
 47
0.0
 47
0.0
 47
0.0
 47
1.0
171
     0
 49
0.0208333333333333
 49
0.0
 49
0.0
 49
0.0
 49
0.0
 49
0.0208333333333333
 49
0.0
 49
0.0
 49
0.0
 49
0.0
 49
1.0
 49
0.0
 49
0.0
 49
0.0
 49
0.0
 49
1.0
175
     0
142
0.0208333333333333
142
0.0
142
0.0
142
0.0
142
0.0
142
0.0208333333333333
142
0.0
142
0.0
142
0.0
142
0.0
142
1.0
142
0.0
142
0.0
142
0.0
142
0.0
142
1.0
179
     0
144
0.0208333333333333
144
0.0
144
0.0
144
0.0
144
0.0
144
0.0208333333333333
144
0.0
144
0.0
144
0.0
144
0.0
144
1.0
144
0.0
144
0.0
144
0.0
144
0.0
144
1.0
147
0.0208333333333333
147
0.0
147
0.0
147
0.0
147
0.0
147
0.0208333333333333
147
0.0
147
0.0
147
0.0
147
0.0
147
1.0
147
0.0
147
0.0
147
0.0
147
0.0
147
1.0
  0
MATERIAL
  5
D29D1
102
{ACAD_XDICTIONARY
360
D29D2
102
}
102
{ACAD_REACTORS
330
D29D0
102
}
330
D29D0
100
AcDbMaterial
  1
ByLayer
 72
     0
 43
0.0208333333333333
 43
0.0
 43
0.0
 43
0.0
 43
0.0
 43
0.0208333333333333
 43
0.0
 43
0.0
 43
0.0
 43
0.0
 43
1.0
 43
0.0
 43
0.0
 43
0.0
 43
0.0
 43
1.0
 77
     0
 47
0.0208333333333333
 47
0.0
 47
0.0
 47
0.0
 47
0.0
 47
0.0208333333333333
 47
0.0
 47
0.0
 47
0.0
 47
0.0
 47
1.0
 47
0.0
 47
0.0
 47
0.0
 47
0.0
 47
1.0
171
     0
 49
0.0208333333333333
 49
0.0
 49
0.0
 49
0.0
 49
0.0
 49
0.0208333333333333
 49
0.0
 49
0.0
 49
0.0
 49
0.0
 49
1.0
 49
0.0
 49
0.0
 49
0.0
 49
0.0
 49
1.0
175
     0
142
0.0208333333333333
142
0.0
142
0.0
142
0.0
142
0.0
142
0.0208333333333333
142
0.0
142
0.0
142
0.0
142
0.0
142
1.0
142
0.0
142
0.0
142
0.0
142
0.0
142
1.0
179
     0
144
0.0208333333333333
144
0.0
144
0.0
144
0.0
144
0.0
144
0.0208333333333333
144
0.0
144
0.0
144
0.0
144
0.0
144
1.0
144
0.0
144
0.0
144
0.0
144
0.0
144
1.0
147
0.0208333333333333
147
0.0
147
0.0
147
0.0
147
0.0
147
0.0208333333333333
147
0.0
147
0.0
147
0.0
147
0.0
147
1.0
147
0.0
147
0.0
147
0.0
147
0.0
147
1.0
  0
MATERIAL
  5
D29E1
102
{ACAD_XDICTIONARY
360
D29E2
102
}
102
{ACAD_REACTORS
330
D29D0
102
}
330
D29D0
100
AcDbMaterial
  1
Global
 72
     0
 43
0.0208333333333333
 43
0.0
 43
0.0
 43
0.0
 43
0.0
 43
0.0208333333333333
 43
0.0
 43
0.0
 43
0.0
 43
0.0
 43
1.0
 43
0.0
 43
0.0
 43
0.0
 43
0.0
 43
1.0
 77
     0
 47
0.0208333333333333
 47
0.0
 47
0.0
 47
0.0
 47
0.0
 47
0.0208333333333333
 47
0.0
 47
0.0
 47
0.0
 47
0.0
 47
1.0
 47
0.0
 47
0.0
 47
0.0
 47
0.0
 47
1.0
171
     0
 49
0.0208333333333333
 49
0.0
 49
0.0
 49
0.0
 49
0.0
 49
0.0208333333333333
 49
0.0
 49
0.0
 49
0.0
 49
0.0
 49
1.0
 49
0.0
 49
0.0
 49
0.0
 49
0.0
 49
1.0
175
     0
142
0.0208333333333333
142
0.0
142
0.0
142
0.0
142
0.0
142
0.0208333333333333
142
0.0
142
0.0
142
0.0
142
0.0
142
1.0
142
0.0
142
0.0
142
0.0
142
0.0
142
1.0
179
     0
144
0.0208333333333333
144
0.0
144
0.0
144
0.0
144
0.0
144
0.0208333333333333
144
0.0
144
0.0
144
0.0
144
0.0
144
1.0
144
0.0
144
0.0
144
0.0
144
0.0
144
1.0
147
0.0208333333333333
147
0.0
147
0.0
147
0.0
147
0.0
147
0.0208333333333333
147
0.0
147
0.0
147
0.0
147
0.0
147
1.0
147
0.0
147
0.0
147
0.0
147
0.0
147
1.0
  0
MLEADERSTYLE
  5
D2A23
102
{ACAD_REACTORS
330
D2A22
102
}
330
D2A22
100
AcDbMLeaderStyle
179
     2
170
     2
171
     1
172
     0
 90
        2
 40
0.0
 41
0.0
173
     1
 91
-1056964608
340
1FA8F
 92
       -2
290
     1
 42
0.09
291
     1
 43
0.36
  3
Standard
 44
0.18
300

342
C397D
174
     1
178
     6
175
     1
176
     0
 93
-1056964608
 45
0.18
292
     0
297
     0
 46
0.18
 94
-1056964608
 47
1.0
 49
1.0
140
1.0
293
     1
141
0.0
294
     1
177
     0
142
1.0
295
     0
296
     0
143
0.125
271
     0
272
     9
273
     9
1001
ACAD_MLEADERVER
1070
     2
  0
MLINESTYLE
  5
ABC1C
102
{ACAD_REACTORS
330
ABC1B
102
}
330
ABC1B
100
AcDbMlineStyle
  2
STANDARD
 70
     0
  3

 62
     0
 51
90.0
 52
90.0
 71
     0
  0
ACDBPLACEHOLDER
  5
D29CF
102
{ACAD_REACTORS
330
D29CE
102
}
330
D29CE
  0
SCALE
  5
D2A01
102
{ACAD_REACTORS
330
D2A00
102
}
330
D2A00
100
AcDbScale
 70
     0
300
1:1
140
1.0
141
1.0
290
     1
  0
SCALE
  5
D2A02
102
{ACAD_REACTORS
330
D2A00
102
}
330
D2A00
100
AcDbScale
 70
     0
300
1:2
140
1.0
141
2.0
290
     0
  0
SCALE
  5
D2A03
102
{ACAD_REACTORS
330
D2A00
102
}
330
D2A00
100
AcDbScale
 70
     0
300
1:4
140
1.0
141
4.0
290
     0
  0
SCALE
  5
D2A04
102
{ACAD_REACTORS
330
D2A00
102
}
330
D2A00
100
AcDbScale
 70
     0
300
1:5
140
1.0
141
5.0
290
     0
  0
SCALE
  5
D2A05
102
{ACAD_REACTORS
330
D2A00
102
}
330
D2A00
100
AcDbScale
 70
     0
300
1:8
140
1.0
141
8.0
290
     0
  0
SCALE
  5
D2A06
102
{ACAD_REACTORS
330
D2A00
102
}
330
D2A00
100
AcDbScale
 70
     0
300
1:10
140
1.0
141
10.0
290
     0
  0
SCALE
  5
D2A07
102
{ACAD_REACTORS
330
D2A00
102
}
330
D2A00
100
AcDbScale
 70
     0
300
1:16
140
1.0
141
16.0
290
     0
  0
SCALE
  5
D2A08
102
{ACAD_REACTORS
330
D2A00
102
}
330
D2A00
100
AcDbScale
 70
     0
300
1:20
140
1.0
141
20.0
290
     0
  0
SCALE
  5
D2A09
102
{ACAD_REACTORS
330
D2A00
102
}
330
D2A00
100
AcDbScale
 70
     0
300
1:30
140
1.0
141
30.0
290
     0
  0
SCALE
  5
D2A0A
102
{ACAD_REACTORS
330
D2A00
102
}
330
D2A00
100
AcDbScale
 70
     0
300
1:40
140
1.0
141
40.0
290
     0
  0
SCALE
  5
D2A0B
102
{ACAD_REACTORS
330
D2A00
102
}
330
D2A00
100
AcDbScale
 70
     0
300
1:50
140
1.0
141
50.0
290
     0
  0
SCALE
  5
D2A0C
102
{ACAD_REACTORS
330
D2A00
102
}
330
D2A00
100
AcDbScale
 70
     0
300
1:100
140
1.0
141
100.0
290
     0
  0
SCALE
  5
D2A0D
102
{ACAD_REACTORS
330
D2A00
102
}
330
D2A00
100
AcDbScale
 70
     0
300
2:1
140
2.0
141
1.0
290
     0
  0
SCALE
  5
D2A0E
102
{ACAD_REACTORS
330
D2A00
102
}
330
D2A00
100
AcDbScale
 70
     0
300
4:1
140
4.0
141
1.0
290
     0
  0
SCALE
  5
D2A0F
102
{ACAD_REACTORS
330
D2A00
102
}
330
D2A00
100
AcDbScale
 70
     0
300
8:1
140
8.0
141
1.0
290
     0
  0
SCALE
  5
D2A10
102
{ACAD_REACTORS
330
D2A00
102
}
330
D2A00
100
AcDbScale
 70
     0
300
10:1
140
10.0
141
1.0
290
     0
  0
SCALE
  5
D2A11
102
{ACAD_REACTORS
330
D2A00
102
}
330
D2A00
100
AcDbScale
 70
     0
300
100:1
140
100.0
141
1.0
290
     0
  0
SCALE
  5
D2A12
102
{ACAD_REACTORS
330
D2A00
102
}
330
D2A00
100
AcDbScale
 70
     0
300
1/128" = 1'-0"
140
0.0078125
141
12.0
290
     0
  0
SCALE
  5
D2A13
102
{ACAD_REACTORS
330
D2A00
102
}
330
D2A00
100
AcDbScale
 70
     0
300
1/64" = 1'-0"
140
0.015625
141
12.0
290
     0
  0
SCALE
  5
D2A14
102
{ACAD_REACTORS
330
D2A00
102
}
330
D2A00
100
AcDbScale
 70
     0
300
1/32" = 1'-0"
140
0.03125
141
12.0
290
     0
  0
SCALE
  5
D2A15
102
{ACAD_REACTORS
330
D2A00
102
}
330
D2A00
100
AcDbScale
 70
     0
300
1/16" = 1'-0"
140
0.0625
141
12.0
290
     0
  0
SCALE
  5
D2A16
102
{ACAD_REACTORS
330
D2A00
102
}
330
D2A00
100
AcDbScale
 70
     0
300
3/32" = 1'-0"
140
0.09375
141
12.0
290
     0
  0
SCALE
  5
D2A17
102
{ACAD_REACTORS
330
D2A00
102
}
330
D2A00
100
AcDbScale
 70
     0
300
1/8" = 1'-0"
140
0.125
141
12.0
290
     0
  0
SCALE
  5
D2A18
102
{ACAD_REACTORS
330
D2A00
102
}
330
D2A00
100
AcDbScale
 70
     0
300
3/16" = 1'-0"
140
0.1875
141
12.0
290
     0
  0
SCALE
  5
D2A19
102
{ACAD_REACTORS
330
D2A00
102
}
330
D2A00
100
AcDbScale
 70
     0
300
1/4" = 1'-0"
140
0.25
141
12.0
290
     0
  0
SCALE
  5
D2A1A
102
{ACAD_REACTORS
330
D2A00
102
}
330
D2A00
100
AcDbScale
 70
     0
300
3/8" = 1'-0"
140
0.375
141
12.0
290
     0
  0
SCALE
  5
D2A1B
102
{ACAD_REACTORS
330
D2A00
102
}
330
D2A00
100
AcDbScale
 70
     0
300
1/2" = 1'-0"
140
0.5
141
12.0
290
     0
  0
SCALE
  5
D2A1C
102
{ACAD_REACTORS
330
D2A00
102
}
330
D2A00
100
AcDbScale
 70
     0
300
3/4" = 1'-0"
140
0.75
141
12.0
290
     0
  0
SCALE
  5
D2A1D
102
{ACAD_REACTORS
330
D2A00
102
}
330
D2A00
100
AcDbScale
 70
     0
300
1" = 1'-0"
140
1.0
141
12.0
290
     0
  0
SCALE
  5
D2A1E
102
{ACAD_REACTORS
330
D2A00
102
}
330
D2A00
100
AcDbScale
 70
     0
300
1-1/2" = 1'-0"
140
1.5
141
12.0
290
     0
  0
SCALE
  5
D2A1F
102
{ACAD_REACTORS
330
D2A00
102
}
330
D2A00
100
AcDbScale
 70
     0
300
3" = 1'-0"
140
3.0
141
12.0
290
     0
  0
SCALE
  5
D2A20
102
{ACAD_REACTORS
330
D2A00
102
}
330
D2A00
100
AcDbScale
 70
     0
300
6" = 1'-0"
140
6.0
141
12.0
290
     0
  0
SCALE
  5
D2A21
102
{ACAD_REACTORS
330
D2A00
102
}
330
D2A00
100
AcDbScale
 70
     0
300
1'-0" = 1'-0"
140
12.0
141
12.0
290
     0
  0
TABLESTYLE
  5
D29FF
102
{ACAD_XDICTIONARY
360
D2A70
102
}
102
{ACAD_REACTORS
330
D29FE
102
}
330
D29FE
100
AcDbTableStyle
280
     0
  3
Standard
 70
     0
 71
     0
 40
0.06
 41
0.06
280
     0
281
     0
  7
STANDARD
140
0.18
170
     2
 62
     0
 63
     7
283
     0
 90
      512
 91
        0
  1

274
    -2
284
     1
 64
     0
275
    -2
285
     1
 65
     0
276
    -2
286
     1
 66
     0
277
    -2
287
     1
 67
     0
278
    -2
288
     1
 68
     0
279
    -2
289
     1
 69
     0
  7
STANDARD
140
0.25
170
     5
 62
     0
 63
     7
283
     0
 90
      512
 91
        0
  1

274
    -2
284
     1
 64
     0
275
    -2
285
     1
 65
     0
276
    -2
286
     1
 66
     0
277
    -2
287
     1
 67
     0
278
    -2
288
     1
 68
     0
279
    -2
289
     1
 69
     0
  7
STANDARD
140
0.18
170
     5
 62
     0
 63
     7
283
     0
 90
      512
 91
        0
  1

274
    -2
284
     1
 64
     0
275
    -2
285
     1
 65
     0
276
    -2
286
     1
 66
     0
277
    -2
287
     1
 67
     0
278
    -2
288
     1
 68
     0
279
    -2
289
     1
 69
     0
  0
VISUALSTYLE
  5
D29EF
102
{ACAD_REACTORS
330
D29E9
102
}
330
D29E9
100
AcDbVisualStyle
  2

 70
     4
177
     2
291
     0
 71
     0
176
     1
 72
     2
176
     1
 73
     0
176
     1
 90
        0
176
     1
 40
0.6
176
     1
 41
30.0
176
     1
 63
     7
176
     1
 74
     1
176
     1
 91
        4
176
     1
 64
     7
176
     1
 65
   257
176
     1
 75
     1
176
     1
175
     1
176
     1
 42
1.0
176
     1
 92
        0
176
     1
 66
   257
176
     1
 43
1.0
176
     1
 76
     1
176
     1
 77
     6
176
     1
 78
     2
176
     1
 67
     7
176
     1
 79
     5
176
     1
170
     0
176
     1
171
     0
176
     1
290
     0
176
     1
 93
        1
176
     1
 44
0.0
176
     1
173
     0
176
     1
1001
ACAD
1000
AcDbSavedByObjectVersion
1070
     0
  0
VISUALSTYLE
  5
D29F1
102
{ACAD_REACTORS
330
D29E9
102
}
330
D29E9
100
AcDbVisualStyle
  2

 70
     6
177
     2
291
     0
 71
     1
176
     1
 72
     2
176
     1
 73
     2
176
     1
 90
        0
176
     1
 40
0.6
176
     1
 41
30.0
176
     1
 63
     7
176
     1
 74
     2
176
     1
 91
        2
176
     1
 64
     7
176
     1
 65
   257
176
     1
 75
     2
176
     1
175
     1
176
     1
 42
179.0
176
     1
 92
        0
176
     1
 66
   257
176
     1
 43
1.0
176
     1
 76
     1
176
     1
 77
     6
176
     1
 78
     2
176
     1
 67
     7
176
     1
 79
     3
176
     1
170
     0
176
     1
171
     0
176
     1
290
     0
176
     1
 93
        1
176
     1
 44
0.0
176
     1
173
     0
176
     1
1001
ACAD
1000
AcDbSavedByObjectVersion
1070
     0
  0
VISUALSTYLE
  5
D29F0
102
{ACAD_REACTORS
330
D29E9
102
}
330
D29E9
100
AcDbVisualStyle
  2

 70
     5
177
     2
291
     0
 71
     0
176
     1
 72
     2
176
     1
 73
     0
176
     1
 90
        0
176
     1
 40
0.6
176
     1
 41
30.0
176
     1
 63
     7
176
     1
 74
     1
176
     1
 91
        4
176
     1
 64
     7
176
     1
 65
   257
176
     1
 75
     1
176
     1
175
     1
176
     1
 42
1.0
176
     1
 92
        0
176
     1
 66
   257
176
     1
 43
1.0
176
     1
 76
     1
176
     1
 77
     6
176
     1
 78
     2
176
     1
 67
     7
176
     1
 79
     5
176
     1
170
     0
176
     1
171
     0
176
     1
290
     0
176
     1
 93
        1
176
     1
 44
0.0
176
     1
173
     0
176
     1
1001
ACAD
1000
AcDbSavedByObjectVersion
1070
     0
  0
VISUALSTYLE
  5
D29EE
102
{ACAD_REACTORS
330
D29E9
102
}
330
D29E9
100
AcDbVisualStyle
  2

 70
     7
177
     2
291
     1
 71
     1
176
     1
 72
     0
176
     1
 73
     1
176
     1
 90
        0
176
     1
 40
0.6
176
     1
 41
30.0
176
     1
 63
     7
176
     1
 74
     0
176
     1
 91
        4
176
     1
 64
     7
176
     1
 65
   257
176
     1
 75
     1
176
     1
175
     1
176
     1
 42
1.0
176
     1
 92
        8
176
     1
 66
     7
176
     1
 43
1.0
176
     1
 76
     1
176
     1
 77
     6
176
     1
 78
     2
176
     1
 67
     7
176
     1
 79
     5
176
     1
170
     0
176
     1
171
     0
176
     1
290
     0
176
     1
 93
        1
176
     1
 44
0.0
176
     1
173
     0
176
     1
1001
ACAD
1000
AcDbSavedByObjectVersion
1070
     0
  0
VISUALSTYLE
  5
D29F5
102
{ACAD_REACTORS
330
D29E9
102
}
330
D29E9
100
AcDbVisualStyle
  2

 70
    12
177
     2
291
     1
 71
     2
176
     1
 72
     2
176
     1
 73
     0
176
     1
 90
        0
176
     1
 40
0.6
176
     1
 41
30.0
176
     1
 63
     7
176
     1
 74
     1
176
     1
 91
        4
176
     1
 64
     7
176
     1
 65
   257
176
     1
 75
     1
176
     1
175
     1
176
     1
 42
1.0
176
     1
 92
        8
176
     1
 66
     7
176
     1
 43
1.0
176
     1
 76
     1
176
     1
 77
     6
176
     1
 78
     2
176
     1
 67
     7
176
     1
 79
     5
176
     1
170
     0
176
     1
171
     0
176
     1
290
     0
176
     1
 93
        1
176
     1
 44
50.0
176
     1
173
     0
176
     1
1001
ACAD
1000
AcDbSavedByObjectVersion
1070
     0
  0
VISUALSTYLE
  5
D29F9
102
{ACAD_REACTORS
330
D29E9
102
}
330
D29E9
100
AcDbVisualStyle
  2

 70
    16
177
     2
291
     1
 71
     2
176
     1
 72
     2
176
     1
 73
     3
176
     1
 90
        0
176
     1
 40
0.6
176
     1
 41
30.0
176
     1
 63
     8
176
     1
 74
     1
176
     1
 91
        4
176
     1
 64
     7
176
     1
 65
   257
176
     1
 75
     1
176
     1
175
     1
176
     1
 42
1.0
176
     1
 92
        8
176
     1
 66
     8
176
     1
 43
1.0
176
     1
 76
     1
176
     1
 77
     6
176
     1
 78
     2
176
     1
 67
     7
176
     1
 79
     5
176
     1
170
     0
176
     1
171
     0
176
     1
290
     0
176
     1
 93
        1
176
     1
 44
0.0
176
     1
173
     0
176
     1
1001
ACAD
1000
AcDbSavedByObjectVersion
1070
     0
  0
VISUALSTYLE
  5
D29F2
102
{ACAD_REACTORS
330
D29E9
102
}
330
D29E9
100
AcDbVisualStyle
  2

 70
     9
177
     2
291
     0
 71
     3
176
     1
 72
     2
176
     1
 73
     0
176
     1
 90
        0
176
     1
 40
0.6
176
     1
 41
30.0
176
     1
 63
     7
176
     1
 74
     2
176
     1
 91
        2
176
     1
 64
     7
176
     1
 65
   257
176
     1
 75
     1
176
     1
175
     1
176
     1
 42
179.0
176
     1
 92
        8
176
     1
 66
     7
176
     1
 43
1.0
176
     1
 76
     1
176
     1
 77
     6
176
     1
 78
     2
176
     1
 67
     7
176
     1
 79
     3
176
     1
170
     0
176
     1
171
     0
176
     1
290
     0
176
     1
 93
        1
176
     1
 44
0.0
176
     1
173
     0
176
     1
1001
ACAD
1000
AcDbSavedByObjectVersion
1070
     0
  0
VISUALSTYLE
  5
D29F4
102
{ACAD_REACTORS
330
D29E9
102
}
330
D29E9
100
AcDbVisualStyle
  2

 70
    11
177
     2
291
     1
 71
     2
176
     1
 72
     2
176
     1
 73
     0
176
     1
 90
        0
176
     1
 40
0.6
176
     1
 41
30.0
176
     1
 63
     7
176
     1
 74
     1
176
     1
 91
        4
176
     1
 64
     7
176
     1
 65
   257
176
     1
 75
     1
176
     1
175
     1
176
     1
 42
1.0
176
     1
 92
        8
176
     1
 66
     7
176
     1
 43
1.0
176
     1
 76
     1
176
     1
 77
     6
176
     1
 78
     2
176
     1
 67
     7
176
     1
 79
     5
176
     1
170
     0
176
     1
171
     0
176
     1
290
     0
176
     1
 93
        1
176
     1
 44
-50.0
176
     1
173
     0
176
     1
1001
ACAD
1000
AcDbSavedByObjectVersion
1070
     0
  0
VISUALSTYLE
  5
D29FC
102
{ACAD_REACTORS
330
D29E9
102
}
330
D29E9
100
AcDbVisualStyle
  2

 70
    22
177
     2
291
     1
 71
     2
176
     0
 72
     2
176
     0
 73
     0
176
     0
 90
        0
176
     0
 40
0.6
176
     0
 41
30.0
176
     0
 63
     7
176
     0
 74
     1
176
     0
 91
        4
176
     0
 64
     7
176
     0
 65
   257
176
     0
 75
     1
176
     0
175
     1
176
     0
 42
1.0
176
     0
 92
        8
176
     2
 66
     7
176
     0
 43
1.0
176
     0
 76
     1
176
     0
 77
     6
176
     0
 78
     2
176
     0
 67
     7
176
     0
 79
     5
176
     0
170
     0
176
     0
171
     0
176
     0
290
     0
176
     0
 93
        1
176
     0
 44
0.0
176
     0
173
     0
176
     0
1001
ACAD
1000
AcDbSavedByObjectVersion
1070
     0
  0
VISUALSTYLE
  5
D29F8
102
{ACAD_REACTORS
330
D29E9
102
}
330
D29E9
100
AcDbVisualStyle
  2

 70
    15
177
     2
291
     1
 71
     2
176
     1
 72
     2
176
     1
 73
     0
176
     1
 90
        0
176
     1
 40
0.6
176
     1
 41
30.0
176
     1
 63
     7
176
     1
 74
     1
176
     1
 91
        4
176
     1
 64
     7
176
     1
 65
   257
176
     1
 75
     1
176
     1
175
     1
176
     1
 42
1.0
176
     1
 92
        8
176
     1
 66
     7
176
     1
 43
1.0
176
     1
 76
     1
176
     1
 77
     6
176
     1
 78
     2
176
     1
 67
     7
176
     1
 79
     5
176
     1
170
     0
176
     1
171
     0
176
     1
290
     0
176
     1
 93
        1
176
     1
 44
0.0
176
     1
173
     0
176
     1
1001
ACAD
1000
AcDbSavedByObjectVersion
1070
     0
  0
VISUALSTYLE
  5
D29EA
102
{ACAD_REACTORS
330
D29E9
102
}
330
D29E9
100
AcDbVisualStyle
  2

 70
     0
177
     2
291
     1
 71
     2
176
     1
 72
     1
176
     1
 73
     1
176
     1
 90
        2
176
     1
 40
0.6
176
     1
 41
30.0
176
     1
 63
     7
176
     1
 74
     0
176
     1
 91
        4
176
     1
 64
     7
176
     1
 65
   257
176
     1
 75
     1
176
     1
175
     1
176
     1
 42
1.0
176
     1
 92
        8
176
     1
 66
     7
176
     1
 43
1.0
176
     1
 76
     1
176
     1
 77
     6
176
     1
 78
     2
176
     1
 67
     7
176
     1
 79
     5
176
     1
170
     0
176
     1
171
     0
176
     1
290
     0
176
     1
 93
       13
176
     1
 44
0.0
176
     1
173
     0
176
     1
1001
ACAD
1000
AcDbSavedByObjectVersion
1070
     0
  0
VISUALSTYLE
  5
D29EB
102
{ACAD_REACTORS
330
D29E9
102
}
330
D29E9
100
AcDbVisualStyle
  2

 70
     1
177
     2
291
     1
 71
     2
176
     1
 72
     1
176
     1
 73
     1
176
     1
 90
        2
176
     1
 40
0.6
176
     1
 41
30.0
176
     1
 63
     7
176
     1
 74
     1
176
     1
 91
        4
176
     1
 64
     7
176
     1
 65
   257
176
     1
 75
     1
176
     1
175
     1
176
     1
 42
1.0
176
     1
 92
        0
176
     1
 66
   257
176
     1
 43
1.0
176
     1
 76
     1
176
     1
 77
     6
176
     1
 78
     2
176
     1
 67
     7
176
     1
 79
     5
176
     1
170
     0
176
     1
171
     0
176
     1
290
     0
176
     1
 93
       13
176
     1
 44
0.0
176
     1
173
     0
176
     1
1001
ACAD
1000
AcDbSavedByObjectVersion
1070
     0
  0
VISUALSTYLE
  5
D29EC
102
{ACAD_REACTORS
330
D29E9
102
}
330
D29E9
100
AcDbVisualStyle
  2

 70
     2
177
     2
291
     1
 71
     2
176
     1
 72
     2
176
     1
 73
     1
176
     1
 90
        2
176
     1
 40
0.6
176
     1
 41
30.0
176
     1
 63
     7
176
     1
 74
     0
176
     1
 91
        4
176
     1
 64
     7
176
     1
 65
   257
176
     1
 75
     1
176
     1
175
     1
176
     1
 42
1.0
176
     1
 92
        0
176
     1
 66
     7
176
     1
 43
1.0
176
     1
 76
     1
176
     1
 77
     6
176
     1
 78
     2
176
     1
 67
     7
176
     1
 79
     5
176
     1
170
     0
176
     1
171
     0
176
     1
290
     0
176
     1
 93
       13
176
     1
 44
0.0
176
     1
173
     0
176
     1
1001
ACAD
1000
AcDbSavedByObjectVersion
1070
     0
  0
VISUALSTYLE
  5
D29ED
102
{ACAD_REACTORS
330
D29E9
102
}
330
D29E9
100
AcDbVisualStyle
  2

 70
     3
177
     2
291
     1
 71
     2
176
     1
 72
     2
176
     1
 73
     1
176
     1
 90
        2
176
     1
 40
0.6
176
     1
 41
30.0
176
     1
 63
     7
176
     1
 74
     1
176
     1
 91
        4
176
     1
 64
     7
176
     1
 65
   257
176
     1
 75
     1
176
     1
175
     1
176
     1
 42
1.0
176
     1
 92
        0
176
     1
 66
   257
176
     1
 43
1.0
176
     1
 76
     1
176
     1
 77
     6
176
     1
 78
     2
176
     1
 67
     7
176
     1
 79
     5
176
     1
170
     0
176
     1
171
     0
176
     1
290
     0
176
     1
 93
       13
176
     1
 44
0.0
176
     1
173
     0
176
     1
1001
ACAD
1000
AcDbSavedByObjectVersion
1070
     0
  0
VISUALSTYLE
  5
D2AA6
102
{ACAD_REACTORS
330
D29E9
102
}
330
D29E9
100
AcDbVisualStyle
  2
Hidden
 70
     6
177
     2
291
     0
 71
     1
176
     1
 72
     2
176
     1
 73
     2
176
     1
 90
        0
176
     1
 40
0.6
176
     1
 41
30.0
176
     1
 63
     7
421
 16777215
176
     1
 74
     2
176
     1
 91
        2
176
     1
 64
     7
176
     1
 65
   257
176
     1
 75
     2
176
     1
175
     1
176
     1
 42
40.0
176
     1
 92
        0
176
     1
 66
   257
176
     1
 43
1.0
176
     1
 76
     1
176
     1
 77
     6
176
     1
 78
     2
176
     1
 67
     7
176
     1
 79
     3
176
     1
170
     0
176
     1
171
     0
176
     1
290
     0
176
     1
 93
        1
176
     1
 44
0.0
176
     1
173
     0
176
     1
  0
VISUALSTYLE
  5
D29FA
102
{ACAD_REACTORS
330
D29E9
102
}
330
D29E9
100
AcDbVisualStyle
  2

 70
    20
177
     2
291
     1
 71
     2
176
     0
 72
     2
176
     0
 73
     0
176
     0
 90
        0
176
     0
 40
0.6
176
     0
 41
30.0
176
     0
 63
     7
176
     0
 74
     1
176
     0
 91
        4
176
     0
 64
     7
176
     0
 65
   257
176
     0
 75
     1
176
     0
175
     1
176
     0
 42
1.0
176
     0
 92
       10
176
     2
 66
     7
176
     0
 43
1.0
176
     0
 76
     1
176
     0
 77
     6
176
     0
 78
     2
176
     0
 67
     7
176
     0
 79
     5
176
     0
170
     0
176
     0
171
     0
176
     0
290
     0
176
     0
 93
        1
176
     0
 44
0.0
176
     0
173
     0
176
     0
1001
ACAD
1000
AcDbSavedByObjectVersion
1070
     0
  0
VISUALSTYLE
  5
D29F7
102
{ACAD_REACTORS
330
D29E9
102
}
330
D29E9
100
AcDbVisualStyle
  2

 70
    14
177
     2
291
     1
 71
     2
176
     1
 72
     2
176
     1
 73
     0
176
     1
 90
        0
176
     1
 40
0.6
176
     1
 41
30.0
176
     1
 63
     7
176
     1
 74
     1
176
     1
 91
        4
176
     1
 64
     7
176
     1
 65
   257
176
     1
 75
     7
176
     1
175
     7
176
     1
 42
1.0
176
     1
 92
        8
176
     1
 66
     7
176
     1
 43
1.0
176
     1
 76
     1
176
     1
 77
     6
176
     1
 78
     2
176
     1
 67
     7
176
     1
 79
     5
176
     1
170
     0
176
     1
171
     0
176
     1
290
     0
176
     1
 93
        1
176
     1
 44
0.0
176
     1
173
     0
176
     1
1001
ACAD
1000
AcDbSavedByObjectVersion
1070
     0
  0
VISUALSTYLE
  5
D29FB
102
{ACAD_REACTORS
330
D29E9
102
}
330
D29E9
100
AcDbVisualStyle
  2

 70
    21
177
     2
291
     1
 71
     2
176
     0
 72
     2
176
     0
 73
     0
176
     0
 90
        0
176
     0
 40
0.6
176
     0
 41
30.0
176
     0
 63
     7
176
     0
 74
     1
176
     0
 91
        4
176
     0
 64
     7
176
     0
 65
   257
176
     0
 75
     1
176
     0
175
     1
176
     0
 42
1.0
176
     0
 92
        9
176
     2
 66
     7
176
     0
 43
1.0
176
     0
 76
     1
176
     0
 77
     6
176
     0
 78
     2
176
     0
 67
     7
176
     0
 79
     5
176
     0
170
     0
176
     0
171
     0
176
     0
290
     0
176
     0
 93
        1
176
     0
 44
0.0
176
     0
173
     0
176
     0
1001
ACAD
1000
AcDbSavedByObjectVersion
1070
     0
  0
VISUALSTYLE
  5
D29F3
102
{ACAD_REACTORS
330
D29E9
102
}
330
D29E9
100
AcDbVisualStyle
  2

 70
     8
177
     2
291
     0
 71
     2
176
     1
 72
     2
176
     1
 73
     0
176
     1
 90
        0
176
     1
 40
0.6
176
     1
 41
30.0
176
     1
 63
     7
176
     1
 74
     1
176
     1
 91
        0
176
     1
 64
     7
176
     1
 65
   257
176
     1
 75
     1
176
     1
175
     1
176
     1
 42
1.0
176
     1
 92
        8
176
     1
 66
     8
176
     1
 43
1.0
176
     1
 76
     1
176
     1
 77
     6
176
     1
 78
     2
176
     1
 67
     7
176
     1
 79
     5
176
     1
170
     0
176
     1
171
     0
176
     1
290
     0
176
     1
 93
       13
176
     1
 44
0.0
176
     1
173
     0
176
     1
1001
ACAD
1000
AcDbSavedByObjectVersion
1070
     0
  0
VISUALSTYLE
  5
D2AAB
102
{ACAD_REACTORS
330
D29E9
102
}
330
D29E9
100
AcDbVisualStyle
  2
Shaded
 70
    27
177
     2
291
     0
 71
     2
176
     1
 72
     2
176
     1
 73
     1
176
     1
 90
        2
176
     1
 40
0.6
176
     1
 41
30.0
176
     1
 63
     7
421
 16777215
176
     1
 74
     0
176
     1
 91
        4
176
     1
 64
     7
176
     1
 65
   257
176
     1
 75
     1
176
     1
175
     1
176
     1
 42
1.0
176
     1
 92
        8
176
     1
 66
   257
176
     1
 43
1.0
176
     1
 76
     1
176
     1
 77
     6
176
     1
 78
     2
176
     1
 67
     8
425
  7895160
176
     1
 79
     3
176
     1
170
     0
176
     1
171
     0
176
     1
290
     0
176
     1
 93
        5
176
     1
 44
0.0
176
     1
173
     0
176
     1
  0
VISUALSTYLE
  5
D2AAA
102
{ACAD_REACTORS
330
D29E9
102
}
330
D29E9
100
AcDbVisualStyle
  2
Shaded with edges
 70
    26
177
     2
291
     0
 71
     2
176
     1
 72
     2
176
     1
 73
     1
176
     1
 90
        2
176
     1
 40
0.6
176
     1
 41
30.0
176
     1
 63
     7
421
 16777215
176
     1
 74
     1
176
     1
 91
       10
176
     1
 64
     7
176
     1
 65
   257
176
     1
 75
     2
176
     1
175
     1
176
     1
 42
1.0
176
     1
 92
        8
176
     1
 66
   257
176
     1
 43
1.0
176
     1
 76
     1
176
     1
 77
     6
176
     1
 78
     2
176
     1
 67
     7
176
     1
 79
     3
176
     1
170
     0
176
     1
171
     0
176
     1
290
     0
176
     1
 93
        5
176
     1
 44
0.0
176
     1
173
     0
176
     1
  0
VISUALSTYLE
  5
D2AA7
102
{ACAD_REACTORS
330
D29E9
102
}
330
D29E9
100
AcDbVisualStyle
  2
Shades of Gray
 70
    23
177
     2
291
     0
 71
     2
176
     1
 72
     2
176
     1
 73
     3
176
     1
 90
        0
176
     1
 40
0.6
176
     1
 41
30.0
176
     1
 63
     7
421
 16777215
176
     1
 74
     2
176
     1
 91
        2
176
     1
 64
     7
176
     1
 65
     7
176
     1
 75
     1
176
     1
175
     1
176
     1
 42
40.0
176
     1
 92
        8
176
     1
 66
     7
176
     1
 43
1.0
176
     1
 76
     1
176
     1
 77
     6
176
     1
 78
     2
176
     1
 67
     7
176
     1
 79
     3
176
     1
170
     0
176
     1
171
     0
176
     1
290
     0
176
     1
 93
        1
176
     1
 44
0.0
176
     1
173
     0
176
     1
  0
VISUALSTYLE
  5
D2AA8
102
{ACAD_REACTORS
330
D29E9
102
}
330
D29E9
100
AcDbVisualStyle
  2
Sketchy
 70
    24
177
     2
291
     0
 71
     1
176
     1
 72
     2
176
     1
 73
     2
176
     1
 90
        0
176
     1
 40
0.6
176
     1
 41
30.0
176
     1
 63
     7
421
 16777215
176
     1
 74
     2
176
     1
 91
        2
176
     1
 64
     7
176
     1
 65
     7
176
     1
 75
     1
176
     1
175
     1
176
     1
 42
40.0
176
     1
 92
       11
176
     1
 66
     7
176
     1
 43
1.0
176
     1
 76
     1
176
     1
 77
     6
176
     1
 78
     2
176
     1
 67
     7
176
     1
 79
     6
176
     1
170
     0
176
     1
171
     0
176
     1
290
     0
176
     1
 93
        1
176
     1
 44
0.0
176
     1
173
     0
176
     1
  0
VISUALSTYLE
  5
D29F6
102
{ACAD_REACTORS
330
D29E9
102
}
330
D29E9
100
AcDbVisualStyle
  2

 70
    13
177
     2
291
     1
 71
     2
176
     1
 72
     2
176
     1
 73
     0
176
     1
 90
        0
176
     1
 40
0.6
176
     1
 41
30.0
176
     1
 63
     7
176
     1
 74
     1
176
     1
 91
        4
176
     1
 64
     7
176
     1
 65
   257
176
     1
 75
     1
176
     1
175
     1
176
     1
 42
1.0
176
     1
 92
       12
176
     1
 66
     7
176
     1
 43
1.0
176
     1
 76
     1
176
     1
 77
     6
176
     1
 78
     2
176
     1
 67
     7
176
     1
 79
     5
176
     1
170
     0
176
     1
171
     0
176
     1
290
     0
176
     1
 93
        1
176
     1
 44
0.0
176
     1
173
     0
176
     1
1001
ACAD
1000
AcDbSavedByObjectVersion
1070
     0
  0
VISUALSTYLE
  5
D2AA5
102
{ACAD_REACTORS
330
D29E9
102
}
330
D29E9
100
AcDbVisualStyle
  2
Wireframe
 70
     5
177
     2
291
     0
 71
     0
176
     1
 72
     2
176
     1
 73
     0
176
     1
 90
        0
176
     1
 40
0.6
176
     1
 41
30.0
176
     1
 63
     7
421
 16777215
176
     1
 74
     1
176
     1
 91
        4
176
     1
 64
     7
176
     1
 65
   257
176
     1
 75
     1
176
     1
175
     1
176
     1
 42
1.0
176
     1
 92
        0
176
     1
 66
   257
176
     1
 43
1.0
176
     1
 76
     1
176
     1
 77
     6
176
     1
 78
     2
176
     1
 67
     7
176
     1
 79
     3
176
     1
170
     0
176
     1
171
     0
176
     1
290
     0
176
     1
 93
        1
176
     1
 44
0.0
176
     1
173
     0
176
     1
  0
VISUALSTYLE
  5
D2AA9
102
{ACAD_REACTORS
330
D29E9
102
}
330
D29E9
100
AcDbVisualStyle
  2
X-Ray
 70
    25
177
     2
291
     0
 71
     2
176
     1
 72
     2
176
     1
 73
     1
176
     1
 90
        1
176
     1
 40
0.5
176
     1
 41
30.0
176
     1
 63
     7
421
 16777215
176
     1
 74
     1
176
     1
 91
        0
176
     1
 64
     7
176
     1
 65
   257
176
     1
 75
     1
176
     1
175
     1
176
     1
 42
1.0
176
     1
 92
        8
176
     1
 66
     7
176
     1
 43
1.0
176
     1
 76
     1
176
     1
 77
     6
176
     1
 78
     2
176
     1
 67
     7
176
     1
 79
     3
176
     1
170
     0
176
     1
171
     0
176
     1
290
     0
176
     1
 93
       13
176
     1
 44
0.0
176
     1
173
     0
176
     1
  0
DICTIONARYVAR
  5
D2A6B
102
{ACAD_REACTORS
330
D2A68
102
}
330
D2A68
100
DictionaryVariables
280
     0
  1
1:1
  0
DICTIONARYVAR
  5
D2A6A
102
{ACAD_REACTORS
330
D2A68
102
}
330
D2A68
100
DictionaryVariables
280
     0
  1
STANDARD
  0
DICTIONARYVAR
  5
D2A69
102
{ACAD_REACTORS
330
D2A68
102
}
330
D2A68
100
DictionaryVariables
280
     0
  1
STANDARD
  0
DICTIONARYVAR
  5
D2A6E
102
{ACAD_REACTORS
330
D2A68
102
}
330
D2A68
100
DictionaryVariables
280
     0
  1
1
  0
DICTIONARYVAR
  5
D2A6D
102
{ACAD_REACTORS
330
D2A68
102
}
330
D2A68
100
DictionaryVariables
280
     0
  1
0
  0
DICTIONARYVAR
  5
D2D1E
102
{ACAD_REACTORS
330
D2A68
102
}
330
D2A68
100
DictionaryVariables
280
     0
  1
1
  0
DICTIONARYVAR
  5
D2D1F
102
{ACAD_REACTORS
330
D2A68
102
}
330
D2A68
100
DictionaryVariables
280
     0
  1
15
  0
DICTIONARYVAR
  5
D2D1D
102
{ACAD_REACTORS
330
D2A68
102
}
330
D2A68
100
DictionaryVariables
280
     0
  1
0
  0
DICTIONARYVAR
  5
D2D1C
102
{ACAD_REACTORS
330
D2A68
102
}
330
D2A68
100
DictionaryVariables
280
     0
  1
0
  0
DICTIONARYVAR
  5
D2A6C
102
{ACAD_REACTORS
330
D2A68
102
}
330
D2A68
100
DictionaryVariables
280
     0
  1
127
  0
ACSH_REVOLVE_CLASS
  5
D2D10
330
D2D11
100
AcDbEvalExpr
 90
        1
 98
       29
 99
       37
100
AcDbShHistoryNode
 90
       29
 91
       37
 40
-0.0000000000000002
 41
0.0
 42
1.0
 43
-38.08790046495322
 44
0.0
 45
1.0
 46
0.0
 47
1.75
 48
-1.0
 49
0.0
 50
-0.0000000000000105
 51
8795.850771409893
 52
0.0
 53
0.0
 54
0.0
 55
57.29577951308232
 62
   256
 92
        3
347
D29D1
100
AcDbShPrimitive
100
AcDbShRevolve
 90
       29
 91
       37
 10
0.0000000000000036
 20
1.75
 30
17.24999999999997
 11
-0.0000000000000002
 21
0.0
 31
-1.0
 40
6.283185307179586
 41
0.0
 92
       37
 70
     1
  1
mnjoo nnm m mk         
  1
ni ^ *+0;:,4 ^ *+0\^ [ nf ^ LR mniqoqoqkjon QK o  
  1
mjqlffffffffffffff fqfffffffffffffffj:rooh n:rono 
  1
>,27:>;:- {rn rn _nm mniqoqoqkjon |
  1
=0;& {rn rn {rn {m {rn {rn |
  1
3*2/ {rn rn {rn {rn {l {n |
  1
,7:33 {rn rn {rn {rn {rn {k {rn {m |
  1
9><: {rn rn {rn {rn {j {l {rn {i -:):-,:; ;0*=3: 0*+ |
  1
300/ {rn rn {rn {rn {h {k |
  1
/3>1:r,*-9><: {rn rn {rn nqooiofhomifkjnnig nqhj nhqmjommiolfhkolk o n o n o rnqglifofjlohlljijf:roni 90-(>-;@) V V V V |
  1
<0:;8: {rn rn {rn {g {f {rn {no -:):-,:; {j {rn |
  1
<0:;8: {rn rn {rn {nn {h {rn {nm -:):-,:; {j {rn |
  1
<0:;8: {rn rn {rn {h {nl {rn {nk -:):-,:; {j {rn |
  1
:;8: {rn rn {rn {nj mqlhgmoikjgjonofmh {ni mqggilhklnlonokljl {h {nh 90-(>-; _h *1410(1 |
  1
<0:;8: {rn rn {rn {ng {g {rn {nf -:):-,:; {j {rn |
  1
:;8: {rn rn {rn {mo o {nj jqnimhomilknhgffgi {g {mn 90-(>-; _h *1410(1 |
  1
<0:;8: {rn rn {rn {f {mm {rn {ml -:):-,:; {j {rn |
  1
:;8: {rn rn {rn {ni oqhkminjinnngooonkn {mk mqoohhkhghhjgmfihg {f {mj 90-(>-; _h *1410(1 |
  1
):-+:' {rn rn {rn {no o {mi |
  1
):-+:' {rn rn {rn {no n {mh |
  1
:336/,:r<*-): {rn rn {rn oqgnlgkmmgkimiglllf nqhj lnqllklihhmjoohfmm o n o jqohhkmfonhmnihjml:roni o mqhiknnkfohmhjlnki n V V |
  1
<0:;8: {rn rn {rn {mg {nn {rn {mf 90-(>-; {j {rn |
  1
:;8: {rn rn {rn {lo o {mo mqhmkghlhlknjmfnj {nn {ln 90-(>-; _h *1410(1 |
  1
):-+:' {rn rn {rn {nf n {lm |
  1
,+->687+r<*-): {rn rn {rn mqhmkghlhlknjmflil nqhj lkqkffffffffffffjh lqnkhnmohgofmlnfll:ronk o rn V V |
  1
<0:;8: {rn rn {rn {nl {ll {rn {lk -:):-,:; {j {rn |
  1
:;8: {rn rn {rn {mk nqnllgjngfnfmofimi {lj mqkmogoifgojmigfnj {nl {li 90-(>-; _h *1410(1 |
  1
):-+:' {rn rn {rn {nk n {lh |
  1
:336/,:r<*-): {rn rn {rn nqllhjhommohgmkmgl nqhj mgqkhonmkmgfmmjhog o n o kqhmfnomfnjjjgllmj:ronh o oqmjhkkgghkiiggkjln n V V |
  1
/061+ {rn rn {rn mqhmkghlhlknjlofim nqhj mfqllhmfhlijgmofjf |
  1
/061+ {rn rn {rn nqjnniinjikfjllnof nqhj mgqijfhghkgmigkioh |
  1
<0:;8: {rn rn {rn {lg {ng {rn {lf 90-(>-; {j {rn |
  1
:;8: {rn rn {rn {lo o {ko lkqjoooooooooooonk {ng {kn 90-(>-; _h *1410(1 |
  1
):-+:' {rn rn {rn {mf o {km |
  1
,+->687+r<*-): {rn rn {rn mqnlnimgmohmgolooi:ronk nqhj lkqkffffffffffffgi n o rnqoinknjflhmmhgii:ronk V V |
  1
/061+ {rn rn {rn mqhmkghlhlknjmflil nqhj lkqkffffffffffffjh |
  1
<0:;8: {rn rn {rn {mm {kl {rn {kk -:):-,:; {j {rn |
  1
:;8: {rn rn {rn {lj rlqmokfhijlgkihlfjf:rong {kj kqgfjfhlmkmkinhnmi {mm {ki 90-(>-; _h *1410(1 |
  1
):-+:' {rn rn {rn {ml n {kh |
  1
:336/,:r<*-): {rn rn {rn nqllhjhllgkkimkkgk nqhj mgqmjmmlliihhfooml o n o kqhmfomlojgmioigm:ronh o oqmjhkkkjmhmfikinhm n V V |
  1
/061+ {rn rn {rn nqjhoglohmnmkgjmln nqhj mgqlinnhhmmghlokk |
  1
<0:;8: {rn rn {rn {kg {mg {rn {kf 90-(>-; {j {rn |
  1
:;8: {rn rn {rn {ko o {jo mqhmkghlhlknjmfmmn {mg {jn 90-(>-; _h *1410(1 |
  1
):-+:' {rn rn {rn {lf o {jm |
  1
,+->687+r<*-): {rn rn {rn mqnlnimgmohmgolooi:ronk nqhj lkqkffffffffffffgi rjqfjjffhgjlfgojmmn:roni o rn V V |
  1
/061+ {rn rn {rn mqnlnimgmohmgolooi:ronk nqhj lkqkffffffffffffgi |
  1
<0:;8: {rn rn {rn {ll {jl {rn {jk -:):-,:; {j {rn |
  1
:;8: {rn rn {rn {kj oqhlmmlmnjlnimilfnm {jj mqoohhholmhjkimfnh {ll {ji 90-(>-; _h *1410(1 |
  1
):-+:' {rn rn {rn {lk n {jh |
  1
,+->687+r<*-): {rn rn {rn nqjohkgolhmgfgmlmk nqhj mgqojggnggmggihogf oqoookjnoiolkgminkhofn o roqffffffgfgmhmmhjfg V V |
  1
/061+ {rn rn {rn nqjohkgolhmgfgmmjl nqhj mgqojggnggmggihogf |
  1
<0:;8: {rn rn {rn {jg {lg {rn {jf -:):-,:; {j {rn |
  1
:;8: {rn rn {rn {jo o {io jqnimhomilknhfomh {lg {in 90-(>-; _h *1410(1 |
  1
):-+:' {rn rn {rn {kf o {im |
  1
,+->687+r<*-): {rn rn {rn o nqhj rmqgkmnhofklokokooh:ronk n o rnqglifofjlohlljijf:roni V V |
  1
/061+ {rn rn {rn o nqhj rmqgkmnhofklokokooh:ronk |
  1
<0:;8: {rn rn {rn {kl {il {rn {ik -:):-,:; {j {rn |
  1
:;8: {rn rn {rn {jj nqnllgmmlmiokliong {ij mqkofliojookmhnnl {kl {ii 90-(>-; _h *1410(1 |
  1
):-+:' {rn rn {rn {kk n {ih |
  1
:336/,:r<*-): {rn rn {rn nqllhjgjohhlhjglg nqhj mmqfhnlfjkkkglooml o n o kqhmggjihmlfllmijk:ronh o oqmjhkljkhmnhgliohn n V V |
  1
/061+ {rn rn {rn nqjofigghjmmfkojh nqhj mlqnimgkiogkkinjfm |
  1
<0:;8: {rn rn {rn {ig {kg {rn {if -:):-,:; {j {rn |
  1
:;8: {rn rn {rn {ho oqmjjmnglkojhflimhn {io oqhillginfjoggifkff {kg {hn 90-(>-; _h *1410(1 |
  1
):-+:' {rn rn {rn {jf n {hm |
  1
,+->687+r<*-): {rn rn {rn mqhmkghlhlknjmfmmn nqhj rmqgkmnhofklokokooh:ronk nqglifofjlohlljijf:roni o n V V |
  1
/061+ {rn rn {rn mqhmkghlhlknjmfmmn nqhj rmqgkmnhofklokokooh:ronk |
  1
<0:;8: {rn rn {rn {jl {hl {rn {hk -:):-,:; {j {rn |
  1
:;8: {rn rn {rn {ij nqomlimifjmlonofik:romn {hj jqonhhojhifmmikjog {jl {hi 90-(>-; _h *1410(1 |
  1
):-+:' {rn rn {rn {jk n {hh |
  1
:336/,:r<*-): {rn rn {rn nqllhjgjohhlhjglg nqhj mmqhjljomnfklhioig o n o kqhmggjihmlfllmijk:ronh o oqmjhkljkhmnhgliohn n V V |
  1
/061+ {rn rn {rn nqjhoglofgghgnmilf nqhj mmqgimkkggnfiololn |
  1
<0:;8: {rn rn {rn {hg {jg {rn {hf -:):-,:; {j {rn |
  1
:;8: {rn rn {rn {go nqnklmghjogifkfmlj {ho mqlgkjhfljlfngkloi {jg {gn 90-(>-; _h *1410(1 |
  1
):-+:' {rn rn {rn {if n {gm |
  1
:336/,:r<*-): {rn rn {rn oqgnlgkmmgkimigmfgk nqhj lqnijilmmhkffmomoh o n o jqohhkmfonhmnihjml:roni o mqhiknnkfohmhjlnki n V V |
  1
/061+ {rn rn {rn mqhmkghlhlknjlogjj nqhj jqnimhomilknhgffgi |
  1
<0:;8: {rn rn {rn {il {gl {rn {gk -:):-,:; {j {rn |
  1
:;8: {rn rn {rn {hj oqhlmmgoggmhjjlhggk {gj mqoohhmflohhmffogn {il {gi 90-(>-; _h *1410(1 |
  1
):-+:' {rn rn {rn {ik n {gh |
  1
,+->687+r<*-): {rn rn {rn nqjofigghjmmfkojh nqhj mmqjimojnjjkhkkj hqmolnlkmfjinkihih:roog o roqffffffffffffffhlk V V |
  1
/061+ {rn rn {rn nqjofigghjmmfkohnm nqhj mmqjimojnjjkhkkj |
  1
<0:;8: {rn rn {rn {gg {ig {rn {gf -:):-,:; {j {rn |
  1
:;8: {rn rn {rn {fo oqhlmmgoggmhjjkioff {go mqoohhmgghjigohllk {ig {fn 90-(>-; _h *1410(1 |
  1
):-+:' {rn rn {rn {hf n {fm |
  1
:336/,:r<*-): {rn rn {rn nqlmfikioomggfjfik nqhj iqolmgijgimljggngl o n o kqgigjomjjjlflnmml:ronh o oqmijolhiggmkknhmim n V V |
  1
/061+ {rn rn {rn nqjnniinjikfjllmni nqhj jqgkomnmjnhlnjllij |
  1
<0:;8: {rn rn {rn {hl {fl {rn {fk -:):-,:; {j {rn |
  1
:;8: {rn rn {rn {gj nqnllgkkmhgmkhmffh {fj mqkofllliokfolllkl {hl {fi 90-(>-; _h *1410(1 |
  1
):-+:' {rn rn {rn {hk n {fh |
  1
:336/,:r<*-): {rn rn {rn nqllhjilgnhjlllk nqhj nhqljmggfgiooofhmj o n o kqhmfnfkkjkflhnfli:ronh o oqmjhkjlgjgoojnnlin n V V |
  1
/061+ {rn rn {rn nqjofigfnnlhminkl nqhj nhqjkklkjhgjjngoin |
  1
<0:;8: {rn rn {rn {fl {hg {rn {fg -:):-,:; {j {rn |
  1
:;8: {rn rn {rn {ff nqmhngjfmoogmfimhn:romn {fo kqggnggfhlmkfhiili {hg {noo 90-(>-; _h *1410(1 |
  1
):-+:' {rn rn {rn {gf n {non |
  1
:336/,:r<*-): {rn rn {rn nqllhjilgnhjlllog nqhj iqmjnifiigmljijiih o n o kqhmfnfkkjkflhnfli:ronh o oqmjhkjlgjgoojnnlin n V V |
  1
/061+ {rn rn {rn nqjhoglofolllomnnj nqhj iqnkmhjnfkjjnkhlnf |
  1
<0:;8: {rn rn {rn {gl {gg {rn {nom -:):-,:; {j {rn |
  1
:;8: {rn rn {rn {fj nqmmnkngjoggoiolgi:romn {nol jqonhhojofhmnlngjk {gl {nok 90-(>-; _h *1410(1 |
  1
):-+:' {rn rn {rn {gk n {noj |
  1
:336/,:r<*-): {rn rn {rn nqllhjhkhmlokjnmi nqhj nhqnlkfffgiomlnfhm o n o kqhmfonmflljimkfof:ronh o oqmjhkklfhinnjljffn n V V |
  1
/061+ {rn rn {rn nqjhoglogjimiohlhg nqhj nhqmklfkjommlgjokf |
  1
:;8: {rn rn {rn {noi nqnllgihhjmfjhogkk {ff mqkoflojlgmfmfmgfk {gg {noh 90-(>-; _h *1410(1 |
  1
):-+:' {rn rn {rn {fg n {nog |
  1
,+->687+r<*-): {rn rn {rn nqjofigggmmkkmgigm nqhj nnqlmjokmlkolimjjg jqfiiiogfilgklkjnf:roog o roqffffffffffffffgmm V V |
  1
/061+ {rn rn {rn nqjofigfnnlhminlfj nqhj iqkklnjmiohgikfomg |
  1
:;8: {rn rn {rn {nol oqhlmmkokogjhonnml {noi mqoohhiljjjnnfogfn {fl {nof 90-(>-; _h *1410(1 |
  1
):-+:' {rn rn {rn {fk n {nno |
  1
,+->687+r<*-): {rn rn {rn nqjofigfmlmlgkilk nqhj niqfkljkhjmjlffmmj rgqjfkfigihilhmifmk:roog o roqffffffffffffffilk V V |
  1
/061+ {rn rn {rn nqjofigfmlmlgkinfg nqhj niqfkljkhjmjlffmmj |
  1
):-+:' {rn rn {rn {nom n {nnn |
  1
:336/,:r<*-): {rn rn {rn nqllhjjfkgigmkihli nqhj nnqjnijoomffollhof o n o kqhmfmhnglijjfohhg:ronh o oqmjhkjgohoioljlkkg n V V |
  1
/061+ {rn rn {rn nqjofigggmmkkmggfj nqhj nnqlmjokmlkolimjjg |
  1
:336/,:r<*-): {rn rn {rn nqllhjgmmollioohnl nqhj nnqhlklfnhninlkmfh o n o kqhmggflioihimlghh:ronh o oqmjhklhkgoojmlhklg n V V |
  1
/061+ {rn rn {rn nqjofigggonnnkkj nqhj nnqfmjgkmkmgngiojg |
  1
/061+ {rn rn {rn nqjhogloihngojfjhj nqhj nnqimjkkjgmoglnlnh |
 43
0.0
 44
0.0
 45
0.0
 46
0.0
290
     1
291
     0
  0
ACSH_EXTRUSION_CLASS
  5
D2D14
330
D2D11
100
AcDbEvalExpr
 90
        2
 98
       29
 99
       37
100
AcDbShHistoryNode
 90
       29
 91
       37
 40
-0.0000000000000002
 41
0.0
 42
1.0
 43
-45.13107624842894
 44
0.0
 45
1.0
 46
0.0
 47
3.5
 48
-1.0
 49
0.0
 50
-0.0000000000000105
 51
8795.850771409893
 52
0.0
 53
0.0
 54
0.0
 55
57.29577951308232
 62
   256
 92
        4
347
D29D1
100
AcDbShPrimitive
100
AcDbShSweepBase
 90
       29
 91
       37
 10
0.0
 20
-3.5
 30
0.0
 92
       37
 70
     1
  1
mnjoo mh m mk          
  1
ni ^ *+0;:,4 ^ *+0\^ [ nf ^ LR mniqoqoqkjon QK o  
  1
mjqlffffffffffffff fqfffffffffffffffj:rooh n:rono 
  1
>,27:>;:- {rn rn _nm mniqoqoqkjon |
  1
=0;& {rn rn {rn {m {rn {rn |
  1
3*2/ {rn rn {rn {rn {l {n |
  1
,7:33 {rn rn {rn {rn {rn {k {rn {m |
  1
9><: {rn rn {rn {rn {j {l {rn {i -:):-,:; ;0*=3: 0*+ |
  1
300/ {rn rn {rn {rn {h {k |
  1
/3>1:r,*-9><: {rn rn {rn lqjjmhnlihggoojoof:ronj lqj nhqmkfffffffffffhm o n o n o rnqglifofjlohlljijf:roni 90-(>-;@) V V V V |
  1
<0:;8: {rn rn {rn {g {f {rn {no -:):-,:; {j {rn |
  1
<0:;8: {rn rn {rn {nn {h {rn {nm -:):-,:; {j {rn |
  1
<0:;8: {rn rn {rn {h {nn {rn {nl -:):-,:; {j {rn |
  1
:;8: {rn rn {rn {nk o {nj lqj {h {ni 90-(>-; _h *1410(1 |
  1
<0:;8: {rn rn {rn {f {g {rn {nh -:):-,:; {j {rn |
  1
:;8: {rn rn {rn {ng o {nk lkqkffffffffffffjh {g {nf 90-(>-; _h *1410(1 |
  1
:;8: {rn rn {rn {nj o {mo lkqkffffffffffffjh {f {mn 90-(>-; _h *1410(1 |
  1
):-+:' {rn rn {rn {no o {mm |
  1
):-+:' {rn rn {rn {no n {ml |
  1
,+->687+r<*-): {rn rn {rn rnqhkffffffffffffmf lqj lkqkffffffffffffjh n o rnqglifofjlohlljijf:roni V V |
  1
:;8: {rn rn {rn {mo o {ng lqj {nn {mk 90-(>-; _h *1410(1 |
  1
):-+:' {rn rn {rn {nh n {mj |
  1
,+->687+r<*-): {rn rn {rn rnqhj lqj o lqgfikjlifmljhokif:roni o n V V |
  1
):-+:' {rn rn {rn {nl n {mi |
  1
,+->687+r<*-): {rn rn {rn nqhjoooooooooooohn lqj lkqkffffffffffffjh rnqglifofjlohlljijf:roni o rn V V |
  1
/061+ {rn rn {rn rnqhkffffffffffffmf lqj lkqkffffffffffffjh |
  1
/061+ {rn rn {rn nqhjoooooooooooohn lqj lkqkffffffffffffjh |
  1
,+->687+r<*-): {rn rn {rn nqhj lqj o rn o nqglifofjlohlljijf:roni V V |
  1
/061+ {rn rn {rn rnqhj lqj o |
  1
/061+ {rn rn {rn nqhj lqj o |
 93
        0
 42
0.0
 43
0.0
 44
0.0
 45
0.0
 48
1.0
 49
0.0
 46
-0.0000000000000002
 46
1.0
 46
0.0
 46
0.0000000000000036
 46
0.0
 46
0.0
 46
-1.0
 46
3.5
 46
-1.0
 46
-0.0000000000000002
 46
0.0
 46
17.24999999999997
 46
0.0
 46
0.0
 46
0.0
 46
1.0
 47
1.0
 47
0.0
 47
0.0
 47
0.0
 47
0.0
 47
1.0
 47
0.0
 47
0.0
 47
0.0
 47
0.0
 47
1.0
 47
0.0
 47
0.0
 47
0.0
 47
0.0
 47
1.0
290
     1
 70
     0
 71
     1
292
     1
293
     1
294
     0
295
     1
296
     0
 11
0.0
 21
0.0
 31
0.0
100
AcDbShExtrusion
  0
ACSH_BOOLEAN_CLASS
  5
D2D1A
330
D2D11
100
AcDbEvalExpr
 90
        3
 98
       29
 99
       37
100
AcDbShHistoryNode
 90
       29
 91
       37
 40
1.0
 41
0.0
 42
0.0
 43
0.0
 44
0.0
 45
1.0
 46
0.0
 47
0.0
 48
0.0
 49
0.0
 50
57.29577951308232
 51
0.0
 52
0.0
 53
0.0
 54
0.0
 55
57.29577951308232
 62
   256
 92
        0
347
D29D1
100
AcDbShBoolean
 90
       29
 91
       37
280
     1
 92
        1
 93
        2
  0
DICTIONARY
  5
D29DA
330
D29D9
100
AcDbDictionary
280
     1
281
     1
  3
ACAD_XREC_ROUNDTRIP
360
D2A75
  3
BUMPTILE
360
D29DC
  3
DIFFUSETILE
360
D29DB
  3
OPACITYTILE
360
D29DF
  3
REFLECTIONTILE
360
D29DE
  3
REFRACTIONTILE
360
D29E0
  3
SPECULARTILE
360
D29DD
  0
DICTIONARY
  5
D29D2
330
D29D1
100
AcDbDictionary
280
     1
281
     1
  3
ACAD_XREC_ROUNDTRIP
360
D2A74
  3
BUMPTILE
360
D29D4
  3
DIFFUSETILE
360
D29D3
  3
OPACITYTILE
360
D29D7
  3
REFLECTIONTILE
360
D29D6
  3
REFRACTIONTILE
360
D29D8
  3
SPECULARTILE
360
D29D5
  0
DICTIONARY
  5
D29E2
330
D29E1
100
AcDbDictionary
280
     1
281
     1
  3
ACAD_XREC_ROUNDTRIP
360
D2A76
  3
BUMPTILE
360
D29E4
  3
DIFFUSETILE
360
D29E3
  3
OPACITYTILE
360
D29E7
  3
REFLECTIONTILE
360
D29E6
  3
REFRACTIONTILE
360
D29E8
  3
SPECULARTILE
360
D29E5
  0
DICTIONARY
  5
D2A70
330
D29FF
100
AcDbDictionary
280
     1
281
     1
  3
ACAD_ROUNDTRIP_2008_TABLESTYLE_CELLSTYLEMAP
360
D2D20
  0
XRECORD
  5
D2A75
102
{ACAD_REACTORS
330
D29DA
102
}
330
D29DA
100
AcDbXrecord
280
     1
102
MATERIAL
148
0.0
149
0.0
149
0.0
 93
        0
 94
      127
282
     0
 72
     0
 77
     0
171
     0
175
     0
179
     0
273
     0
  0
XRECORD
  5
D29DC
102
{ACAD_REACTORS
330
D29DA
102
}
330
D29DA
100
AcDbXrecord
280
     1
270
     1
271
     1
  0
XRECORD
  5
D29DB
102
{ACAD_REACTORS
330
D29DA
102
}
330
D29DA
100
AcDbXrecord
280
     1
270
     1
271
     1
  0
XRECORD
  5
D29DF
102
{ACAD_REACTORS
330
D29DA
102
}
330
D29DA
100
AcDbXrecord
280
     1
270
     1
271
     1
  0
XRECORD
  5
D29DE
102
{ACAD_REACTORS
330
D29DA
102
}
330
D29DA
100
AcDbXrecord
280
     1
270
     1
271
     1
  0
XRECORD
  5
D29E0
102
{ACAD_REACTORS
330
D29DA
102
}
330
D29DA
100
AcDbXrecord
280
     1
270
     1
271
     1
  0
XRECORD
  5
D29DD
102
{ACAD_REACTORS
330
D29DA
102
}
330
D29DA
100
AcDbXrecord
280
     1
270
     1
271
     1
  0
XRECORD
  5
D2A74
102
{ACAD_REACTORS
330
D29D2
102
}
330
D29D2
100
AcDbXrecord
280
     1
102
MATERIAL
148
0.0
149
0.0
149
0.0
 93
        0
 94
      127
282
     0
 72
     0
 77
     0
171
     0
175
     0
179
     0
273
     0
  0
XRECORD
  5
D29D4
102
{ACAD_REACTORS
330
D29D2
102
}
330
D29D2
100
AcDbXrecord
280
     1
270
     1
271
     1
  0
XRECORD
  5
D29D3
102
{ACAD_REACTORS
330
D29D2
102
}
330
D29D2
100
AcDbXrecord
280
     1
270
     1
271
     1
  0
XRECORD
  5
D29D7
102
{ACAD_REACTORS
330
D29D2
102
}
330
D29D2
100
AcDbXrecord
280
     1
270
     1
271
     1
  0
XRECORD
  5
D29D6
102
{ACAD_REACTORS
330
D29D2
102
}
330
D29D2
100
AcDbXrecord
280
     1
270
     1
271
     1
  0
XRECORD
  5
D29D8
102
{ACAD_REACTORS
330
D29D2
102
}
330
D29D2
100
AcDbXrecord
280
     1
270
     1
271
     1
  0
XRECORD
  5
D29D5
102
{ACAD_REACTORS
330
D29D2
102
}
330
D29D2
100
AcDbXrecord
280
     1
270
     1
271
     1
  0
XRECORD
  5
D2A76
102
{ACAD_REACTORS
330
D29E2
102
}
330
D29E2
100
AcDbXrecord
280
     1
102
MATERIAL
148
0.0
149
0.0
149
0.0
 93
        0
 94
      127
282
     0
 72
     0
 77
     0
171
     0
175
     0
179
     0
273
     0
  0
XRECORD
  5
D29E4
102
{ACAD_REACTORS
330
D29E2
102
}
330
D29E2
100
AcDbXrecord
280
     1
270
     1
271
     1
  0
XRECORD
  5
D29E3
102
{ACAD_REACTORS
330
D29E2
102
}
330
D29E2
100
AcDbXrecord
280
     1
270
     1
271
     1
  0
XRECORD
  5
D29E7
102
{ACAD_REACTORS
330
D29E2
102
}
330
D29E2
100
AcDbXrecord
280
     1
270
     1
271
     1
  0
XRECORD
  5
D29E6
102
{ACAD_REACTORS
330
D29E2
102
}
330
D29E2
100
AcDbXrecord
280
     1
270
     1
271
     1
  0
XRECORD
  5
D29E8
102
{ACAD_REACTORS
330
D29E2
102
}
330
D29E2
100
AcDbXrecord
280
     1
270
     1
271
     1
  0
XRECORD
  5
D29E5
102
{ACAD_REACTORS
330
D29E2
102
}
330
D29E2
100
AcDbXrecord
280
     1
270
     1
271
     1
  0
CELLSTYLEMAP
  5
D2D20
102
{ACAD_REACTORS
330
D2A70
102
}
330
D2A70
100
AcDbCellStyleMap
 90
        3
300
CELLSTYLE
  1
TABLEFORMAT_BEGIN
 90
        5
170
     1
 91
        0
 92
    32768
 62
   257
 93
        1
300
CONTENTFORMAT
  1
CONTENTFORMAT_BEGIN
 90
        0
 91
        0
 92
      512
 93
        0
300

 40
0.0
140
1.0
 94
        5
 62
     0
340
C397D
144
0.25
309
CONTENTFORMAT_END
171
     1
301
MARGIN
  1
CELLMARGIN_BEGIN
 40
0.06
 40
0.06
 40
0.06
 40
0.06
 40
0.18
 40
0.18
309
CELLMARGIN_END
 94
        6
 95
        1
302
GRIDFORMAT
  1
GRIDFORMAT_BEGIN
 90
        0
 91
        1
 62
     0
 92
       -2
340
0
 93
        0
 40
0.045
309
GRIDFORMAT_END
 95
        2
302
GRIDFORMAT
  1
GRIDFORMAT_BEGIN
 90
        0
 91
        1
 62
     0
 92
       -2
340
0
 93
        0
 40
0.045
309
GRIDFORMAT_END
 95
        4
302
GRIDFORMAT
  1
GRIDFORMAT_BEGIN
 90
        0
 91
        1
 62
     0
 92
       -2
340
0
 93
        0
 40
0.045
309
GRIDFORMAT_END
 95
        8
302
GRIDFORMAT
  1
GRIDFORMAT_BEGIN
 90
        0
 91
        1
 62
     0
 92
       -2
340
0
 93
        0
 40
0.045
309
GRIDFORMAT_END
 95
       16
302
GRIDFORMAT
  1
GRIDFORMAT_BEGIN
 90
        0
 91
        1
 62
     0
 92
       -2
340
0
 93
        0
 40
0.045
309
GRIDFORMAT_END
 95
       32
302
GRIDFORMAT
  1
GRIDFORMAT_BEGIN
 90
        0
 91
        1
 62
     0
 92
       -2
340
0
 93
        0
 40
0.045
309
GRIDFORMAT_END
309
TABLEFORMAT_END
  1
CELLSTYLE_BEGIN
 90
        1
 91
        1
300
_TITLE
309
CELLSTYLE_END
300
CELLSTYLE
  1
TABLEFORMAT_BEGIN
 90
        5
170
     1
 91
        0
 92
        0
 62
   257
 93
        1
300
CONTENTFORMAT
  1
CONTENTFORMAT_BEGIN
 90
        0
 91
        0
 92
      512
 93
        0
300

 40
0.0
140
1.0
 94
        5
 62
     0
340
C397D
144
0.18
309
CONTENTFORMAT_END
171
     1
301
MARGIN
  1
CELLMARGIN_BEGIN
 40
0.06
 40
0.06
 40
0.06
 40
0.06
 40
0.18
 40
0.18
309
CELLMARGIN_END
 94
        6
 95
        1
302
GRIDFORMAT
  1
GRIDFORMAT_BEGIN
 90
        0
 91
        1
 62
     0
 92
       -2
340
0
 93
        0
 40
0.045
309
GRIDFORMAT_END
 95
        2
302
GRIDFORMAT
  1
GRIDFORMAT_BEGIN
 90
        0
 91
        1
 62
     0
 92
       -2
340
0
 93
        0
 40
0.045
309
GRIDFORMAT_END
 95
        4
302
GRIDFORMAT
  1
GRIDFORMAT_BEGIN
 90
        0
 91
        1
 62
     0
 92
       -2
340
0
 93
        0
 40
0.045
309
GRIDFORMAT_END
 95
        8
302
GRIDFORMAT
  1
GRIDFORMAT_BEGIN
 90
        0
 91
        1
 62
     0
 92
       -2
340
0
 93
        0
 40
0.045
309
GRIDFORMAT_END
 95
       16
302
GRIDFORMAT
  1
GRIDFORMAT_BEGIN
 90
        0
 91
        1
 62
     0
 92
       -2
340
0
 93
        0
 40
0.045
309
GRIDFORMAT_END
 95
       32
302
GRIDFORMAT
  1
GRIDFORMAT_BEGIN
 90
        0
 91
        1
 62
     0
 92
       -2
340
0
 93
        0
 40
0.045
309
GRIDFORMAT_END
309
TABLEFORMAT_END
  1
CELLSTYLE_BEGIN
 90
        2
 91
        1
300
_HEADER
309
CELLSTYLE_END
300
CELLSTYLE
  1
TABLEFORMAT_BEGIN
 90
        5
170
     1
 91
        0
 92
        0
 62
   257
 93
        1
300
CONTENTFORMAT
  1
CONTENTFORMAT_BEGIN
 90
        0
 91
        0
 92
      512
 93
        0
300

 40
0.0
140
1.0
 94
        2
 62
     0
340
C397D
144
0.18
309
CONTENTFORMAT_END
171
     1
301
MARGIN
  1
CELLMARGIN_BEGIN
 40
0.06
 40
0.06
 40
0.06
 40
0.06
 40
0.18
 40
0.18
309
CELLMARGIN_END
 94
        6
 95
        1
302
GRIDFORMAT
  1
GRIDFORMAT_BEGIN
 90
        0
 91
        1
 62
     0
 92
       -2
340
0
 93
        0
 40
0.045
309
GRIDFORMAT_END
 95
        2
302
GRIDFORMAT
  1
GRIDFORMAT_BEGIN
 90
        0
 91
        1
 62
     0
 92
       -2
340
0
 93
        0
 40
0.045
309
GRIDFORMAT_END
 95
        4
302
GRIDFORMAT
  1
GRIDFORMAT_BEGIN
 90
        0
 91
        1
 62
     0
 92
       -2
340
0
 93
        0
 40
0.045
309
GRIDFORMAT_END
 95
        8
302
GRIDFORMAT
  1
GRIDFORMAT_BEGIN
 90
        0
 91
        1
 62
     0
 92
       -2
340
0
 93
        0
 40
0.045
309
GRIDFORMAT_END
 95
       16
302
GRIDFORMAT
  1
GRIDFORMAT_BEGIN
 90
        0
 91
        1
 62
     0
 92
       -2
340
0
 93
        0
 40
0.045
309
GRIDFORMAT_END
 95
       32
302
GRIDFORMAT
  1
GRIDFORMAT_BEGIN
 90
        0
 91
        1
 62
     0
 92
       -2
340
0
 93
        0
 40
0.045
309
GRIDFORMAT_END
309
TABLEFORMAT_END
  1
CELLSTYLE_BEGIN
 90
        3
 91
        2
300
_DATA
309
CELLSTYLE_END
  0
ENDSEC
  0
EOF
