  0
SECTION
  2
HEADER
  9
$ACADVER
  1
AC1015
  9
$ACADMAINTVER
 70
    20
  9
$DWGCODEPAGE
  3
ANSI_1252
  9
$INSBASE
 10
0.0
 20
0.0
 30
0.0
  9
$EXTMIN
 10
8.265173912048339
 20
3.815942049026489
 30
0.0
  9
$EXTMAX
 10
11.26517416293604
 20
6.815942287445068
 30
0.5
  9
$LIMMIN
 10
0.0
 20
0.0
  9
$LIMMAX
 10
12.0
 20
9.0
  9
$ORTHOMODE
 70
     0
  9
$REGENMODE
 70
     1
  9
$FILLMODE
 70
     1
  9
$QTEXTMODE
 70
     0
  9
$MIRRTEXT
 70
     1
  9
$LTSCALE
 40
1.0
  9
$ATTMODE
 70
     1
  9
$TEXTSIZE
 40
0.2
  9
$TRACEWID
 40
0.05
  9
$TEXTSTYLE
  7
Standard
  9
$CLAYER
  8
0
  9
$CELTYPE
  6
ByLayer
  9
$CECOLOR
 62
   256
  9
$CELTSCALE
 40
1.0
  9
$DISPSILH
 70
     0
  9
$DIMSCALE
 40
3.0
  9
$DIMASZ
 40
0.2
  9
$DIMEXO
 40
0.1
  9
$DIMDLI
 40
0.38
  9
$DIMRND
 40
0.0
  9
$DIMDLE
 40
0.0
  9
$DIMEXE
 40
0.18
  9
$DIMTP
 40
0.0
  9
$DIMTM
 40
0.0
  9
$DIMTXT
 40
0.2
  9
$DIMCEN
 40
0.09
  9
$DIMTSZ
 40
0.0
  9
$DIMTOL
 70
     0
  9
$DIMLIM
 70
     0
  9
$DIMTIH
 70
     1
  9
$DIMTOH
 70
     1
  9
$DIMSE1
 70
     0
  9
$DIMSE2
 70
     0
  9
$DIMTAD
 70
     0
  9
$DIMZIN
 70
     0
  9
$DIMBLK
  1
ArchTick
  9
$DIMASO
 70
     1
  9
$DIMSHO
 70
     1
  9
$DIMPOST
  1
"
  9
$DIMAPOST
  1

  9
$DIMALT
 70
     0
  9
$DIMALTD
 70
     2
  9
$DIMALTF
 40
25.4
  9
$DIMLFAC
 40
1.0
  9
$DIMTOFL
 70
     0
  9
$DIMTVP
 40
0.0
  9
$DIMTIX
 70
     0
  9
$DIMSOXD
 70
     0
  9
$DIMSAH
 70
     0
  9
$DIMBLK1
  1

  9
$DIMBLK2
  1

  9
$DIMSTYLE
  2
OWP Standard
  9
$DIMCLRD
 70
     0
  9
$DIMCLRE
 70
     0
  9
$DIMCLRT
 70
     0
  9
$DIMTFAC
 40
1.0
  9
$DIMGAP
 40
0.09
  9
$DIMJUST
 70
     0
  9
$DIMSD1
 70
     0
  9
$DIMSD2
 70
     0
  9
$DIMTOLJ
 70
     1
  9
$DIMTZIN
 70
     0
  9
$DIMALTZ
 70
     0
  9
$DIMALTTZ
 70
     0
  9
$DIMUPT
 70
     0
  9
$DIMDEC
 70
     4
  9
$DIMTDEC
 70
     4
  9
$DIMALTU
 70
     2
  9
$DIMALTTD
 70
     2
  9
$DIMTXSTY
  7
Standard
  9
$DIMAUNIT
 70
     0
  9
$DIMADEC
 70
     0
  9
$DIMALTRND
 40
0.0
  9
$DIMAZIN
 70
     0
  9
$DIMDSEP
 70
    46
  9
$DIMATFIT
 70
     3
  9
$DIMFRAC
 70
     0
  9
$DIMLDRBLK
  1

  9
$DIMLUNIT
 70
     5
  9
$DIMLWD
 70
    -2
  9
$DIMLWE
 70
    -2
  9
$DIMTMOVE
 70
     0
  9
$LUNITS
 70
     2
  9
$LUPREC
 70
     4
  9
$SKETCHINC
 40
0.1
  9
$FILLETRAD
 40
0.5
  9
$AUNITS
 70
     0
  9
$AUPREC
 70
     0
  9
$MENU
  1
.
  9
$ELEVATION
 40
0.0
  9
$PELEVATION
 40
0.0
  9
$THICKNESS
 40
0.0
  9
$LIMCHECK
 70
     0
  9
$CHAMFERA
 40
0.5
  9
$CHAMFERB
 40
0.5
  9
$CHAMFERC
 40
1.0
  9
$CHAMFERD
 40
0.0
  9
$SKPOLY
 70
     0
  9
$TDCREATE
 40
2454769.378797315
  9
$TDUCREATE
 40
2454769.545463982
  9
$TDUPDATE
 40
2454769.406873854
  9
$TDUUPDATE
 40
2454769.573540521
  9
$TDINDWG
 40
0.0274885995
  9
$TDUSRTIMER
 40
0.0274877083
  9
$USRTIMER
 70
     1
  9
$ANGBASE
 50
0.0
  9
$ANGDIR
 70
     0
  9
$PDMODE
 70
     0
  9
$PDSIZE
 40
0.0
  9
$PLINEWID
 40
0.0
  9
$SPLFRAME
 70
     0
  9
$SPLINETYPE
 70
     6
  9
$SPLINESEGS
 70
     8
  9
$HANDSEED
  5
931
  9
$SURFTAB1
 70
     6
  9
$SURFTAB2
 70
     6
  9
$SURFTYPE
 70
     6
  9
$SURFU
 70
     6
  9
$SURFV
 70
     6
  9
$UCSBASE
  2

  9
$UCSNAME
  2

  9
$UCSORG
 10
0.0
 20
0.0
 30
0.0
  9
$UCSXDIR
 10
1.0
 20
0.0
 30
0.0
  9
$UCSYDIR
 10
0.0
 20
1.0
 30
0.0
  9
$UCSORTHOREF
  2

  9
$UCSORTHOVIEW
 70
     0
  9
$UCSORGTOP
 10
0.0
 20
0.0
 30
0.0
  9
$UCSORGBOTTOM
 10
0.0
 20
0.0
 30
0.0
  9
$UCSORGLEFT
 10
0.0
 20
0.0
 30
0.0
  9
$UCSORGRIGHT
 10
0.0
 20
0.0
 30
0.0
  9
$UCSORGFRONT
 10
0.0
 20
0.0
 30
0.0
  9
$UCSORGBACK
 10
0.0
 20
0.0
 30
0.0
  9
$PUCSBASE
  2

  9
$PUCSNAME
  2

  9
$PUCSORG
 10
0.0
 20
0.0
 30
0.0
  9
$PUCSXDIR
 10
1.0
 20
0.0
 30
0.0
  9
$PUCSYDIR
 10
0.0
 20
1.0
 30
0.0
  9
$PUCSORTHOREF
  2

  9
$PUCSORTHOVIEW
 70
     0
  9
$PUCSORGTOP
 10
0.0
 20
0.0
 30
0.0
  9
$PUCSORGBOTTOM
 10
0.0
 20
0.0
 30
0.0
  9
$PUCSORGLEFT
 10
0.0
 20
0.0
 30
0.0
  9
$PUCSORGRIGHT
 10
0.0
 20
0.0
 30
0.0
  9
$PUCSORGFRONT
 10
0.0
 20
0.0
 30
0.0
  9
$PUCSORGBACK
 10
0.0
 20
0.0
 30
0.0
  9
$USERI1
 70
     0
  9
$USERI2
 70
     0
  9
$USERI3
 70
     0
  9
$USERI4
 70
     0
  9
$USERI5
 70
     0
  9
$USERR1
 40
0.0
  9
$USERR2
 40
0.0
  9
$USERR3
 40
0.0
  9
$USERR4
 40
0.0
  9
$USERR5
 40
0.0
  9
$WORLDVIEW
 70
     1
  9
$SHADEDGE
 70
     3
  9
$SHADEDIF
 70
    70
  9
$TILEMODE
 70
     1
  9
$MAXACTVP
 70
    64
  9
$PINSBASE
 10
0.0
 20
0.0
 30
0.0
  9
$PLIMCHECK
 70
     0
  9
$PEXTMIN
 10
1.000000000000000E+20
 20
1.000000000000000E+20
 30
1.000000000000000E+20
  9
$PEXTMAX
 10
-1.000000000000000E+20
 20
-1.000000000000000E+20
 30
-1.000000000000000E+20
  9
$PLIMMIN
 10
0.0
 20
0.0
  9
$PLIMMAX
 10
12.0
 20
9.0
  9
$UNITMODE
 70
     0
  9
$VISRETAIN
 70
     1
  9
$PLINEGEN
 70
     0
  9
$PSLTSCALE
 70
     1
  9
$TREEDEPTH
 70
  3020
  9
$CMLSTYLE
  2
Standard
  9
$CMLJUST
 70
     0
  9
$CMLSCALE
 40
1.0
  9
$PROXYGRAPHICS
 70
     1
  9
$MEASUREMENT
 70
     0
  9
$CELWEIGHT
370
    -1
  9
$ENDCAPS
280
     0
  9
$JOINSTYLE
280
     0
  9
$LWDISPLAY
290
     0
  9
$INSUNITS
 70
     1
  9
$HYPERLINKBASE
  1

  9
$STYLESHEET
  1

  9
$XEDIT
290
     1
  9
$CEPSNTYPE
380
     0
  9
$PSTYLEMODE
290
     1
  9
$FINGERPRINTGUID
  2
{CB2E812A-2F37-40D8-BF60-B5DDB47EF1BD}
  9
$VERSIONGUID
  2
{8BE1B8E1-9251-4796-80AE-423CC0C702FF}
  9
$EXTNAMES
290
     1
  9
$PSVPSCALE
 40
0.0
  9
$OLESTARTUP
290
     0
  0
ENDSEC
  0
SECTION
  2
CLASSES
  0
CLASS
  1
ACDBDICTIONARYWDFLT
  2
AcDbDictionaryWithDefault
  3
ObjectDBX Classes
 90
        0
280
     0
281
     0
  0
CLASS
  1
ACDBPLACEHOLDER
  2
AcDbPlaceHolder
  3
ObjectDBX Classes
 90
        0
280
     0
281
     0
  0
CLASS
  1
LAYOUT
  2
AcDbLayout
  3
ObjectDBX Classes
 90
        0
280
     0
281
     0
  0
CLASS
  1
TABLESTYLE
  2
AcDbTableStyle
  3
ObjectDBX Classes
 90
     4095
280
     0
281
     0
  0
CLASS
  1
DIMASSOC
  2
AcDbDimAssoc
  3
"AcDbDimAssoc|Product Desc:     AcDim ARX App For Dimension|Company:          Autodesk, Inc.|WEB Address:      www.autodesk.com"
 90
    32768
280
     0
281
     0
  0
CLASS
  1
DICTIONARYVAR
  2
AcDbDictionaryVar
  3
ObjectDBX Classes
 90
        0
280
     0
281
     0
  0
CLASS
  1
MATERIAL
  2
AcDbMaterial
  3
ObjectDBX Classes
 90
     1153
280
     0
281
     0
  0
CLASS
  1
VISUALSTYLE
  2
AcDbVisualStyle
  3
ObjectDBX Classes
 90
     4095
280
     0
281
     0
  0
CLASS
  1
SCALE
  2
AcDbScale
  3
ObjectDBX Classes
 90
     1153
280
     0
281
     0
  0
CLASS
  1
MLEADERSTYLE
  2
AcDbMLeaderStyle
  3
ACDB_MLEADERSTYLE_CLASS
 90
     4095
280
     0
281
     0
  0
CLASS
  1
CELLSTYLEMAP
  2
AcDbCellStyleMap
  3
ObjectDBX Classes
 90
     1152
280
     0
281
     0
  0
CLASS
  1
ACSH_HISTORY_CLASS
  2
AcDbShHistory
  3
ObjectDBX Classes
 90
    33921
280
     0
281
     0
  0
CLASS
  1
ACAD_EVALUATION_GRAPH
  2
AcDbEvalGraph
  3
ObjectDBX Classes
 90
    33921
280
     0
281
     0
  0
CLASS
  1
ACSH_EXTRUSION_CLASS
  2
AcDbShExtrusion
  3
ObjectDBX Classes
 90
    33921
280
     0
281
     0
  0
CLASS
  1
ACSH_REVOLVE_CLASS
  2
AcDbShRevolve
  3
ObjectDBX Classes
 90
    33921
280
     0
281
     0
  0
CLASS
  1
ACSH_BOOLEAN_CLASS
  2
AcDbShBoolean
  3
ObjectDBX Classes
 90
    33921
280
     0
281
     0
  0
CLASS
  1
ACDBPERSSUBENTMANAGER
  2
AcDbPersSubentManager
  3
AcDbPersSubentManager
 90
     1024
280
     0
281
     0
  0
CLASS
  1
SOLID_BACKGROUND
  2
AcDbSolidBackground
  3
SCENEOE
 90
    36863
280
     0
281
     0
  0
CLASS
  1
NPOCOLLECTION
  2
AcDbImpNonPersistentObjectsCollection
  3
ObjectDBX Classes
 90
    33921
280
     0
281
     0
  0
CLASS
  1
ACSH_BREP_CLASS
  2
AcDbShBrep
  3
ObjectDBX Classes
 90
    33921
280
     0
281
     0
  0
CLASS
  1
SURFACE
  2
AcDbSurface
  3
ObjectDBX Classes
 90
    36863
280
     0
281
     1
  0
CLASS
  1
SORTENTSTABLE
  2
AcDbSortentsTable
  3
ObjectDBX Classes
 90
        0
280
     0
281
     0
  0
ENDSEC
  0
SECTION
  2
TABLES
  0
TABLE
  2
VPORT
  5
8
330
0
100
AcDbSymbolTable
 70
     1
  0
VPORT
  5
166
330
8
100
AcDbSymbolTableRecord
100
AcDbViewportTableRecord
  2
*Active
 70
     0
 10
0.0
 20
0.0
 11
1.0
 21
1.0
 12
0.9015762214200382
 22
-0.0580495765506401
 13
0.0
 23
0.0
 14
0.5
 24
0.5
 15
0.5
 25
0.5
 16
-1.0
 26
1.0
 36
1.0
 17
10.82337035498241
 27
5.757493165259169
 37
0.5708368341950729
 40
4.058278237015935
 41
1.753846153846153
 42
50.0
 43
0.0
 44
0.0
 50
0.0
 51
0.0
 71
     0
 72
   100
 73
     1
 74
     3
 75
     0
 76
     0
 77
     0
 78
     0
281
     0
 65
     1
110
0.0
120
0.0
130
0.0
111
1.0
121
0.0
131
0.0
112
0.0
122
1.0
132
0.0
 79
     0
146
0.0
  0
ENDTAB
  0
TABLE
  2
LTYPE
  5
5
330
0
100
AcDbSymbolTable
 70
     1
  0
LTYPE
  5
14
330
5
100
AcDbSymbolTableRecord
100
AcDbLinetypeTableRecord
  2
ByBlock
 70
     0
  3

 72
    65
 73
     0
 40
0.0
  0
LTYPE
  5
15
330
5
100
AcDbSymbolTableRecord
100
AcDbLinetypeTableRecord
  2
ByLayer
 70
     0
  3

 72
    65
 73
     0
 40
0.0
  0
LTYPE
  5
16
330
5
100
AcDbSymbolTableRecord
100
AcDbLinetypeTableRecord
  2
Continuous
 70
     0
  3
Solid line
 72
    65
 73
     0
 40
0.0
  0
ENDTAB
  0
TABLE
  2
LAYER
  5
2
330
0
100
AcDbSymbolTable
 70
     4
  0
LAYER
  5
10
102
{ACAD_XDICTIONARY
360
692
102
}
330
2
100
AcDbSymbolTableRecord
100
AcDbLayerTableRecord
  2
0
 70
     0
 62
     7
  6
Continuous
370
    -3
390
F
  0
LAYER
  5
AB
102
{ACAD_XDICTIONARY
360
694
102
}
330
2
100
AcDbSymbolTableRecord
100
AcDbLayerTableRecord
  2
Layer1
 70
     0
 62
     1
  6
Continuous
290
     0
370
    -3
390
F
  0
LAYER
  5
F5
330
2
100
AcDbSymbolTableRecord
100
AcDbLayerTableRecord
  2
Defpoints
 70
     0
 62
     7
  6
Continuous
290
     0
370
    -3
390
F
  0
LAYER
  5
6AD
330
2
100
AcDbSymbolTableRecord
100
AcDbLayerTableRecord
  2
ASHADE
 70
     4
 62
     7
  6
Continuous
370
    -3
390
F
  0
ENDTAB
  0
TABLE
  2
STYLE
  5
3
330
0
100
AcDbSymbolTable
 70
     2
  0
STYLE
  5
11
330
3
100
AcDbSymbolTableRecord
100
AcDbTextStyleTableRecord
  2
Standard
 70
     0
 40
0.0
 41
1.0
 50
0.0
 71
     0
 42
0.2
  3
txt
  4

  0
STYLE
  5
6A7
330
3
100
AcDbSymbolTableRecord
100
AcDbTextStyleTableRecord
  2
ASHADE
 70
     0
 40
0.2
 41
1.0
 50
0.0
 71
     0
 42
0.2
  3
simplex
  4

  0
ENDTAB
  0
TABLE
  2
VIEW
  5
6
330
0
100
AcDbSymbolTable
 70
     2
  0
ENDTAB
  0
TABLE
  2
UCS
  5
7
330
0
100
AcDbSymbolTable
 70
     1
  0
ENDTAB
  0
TABLE
  2
APPID
  5
9
330
0
100
AcDbSymbolTable
 70
    15
  0
APPID
  5
12
330
9
100
AcDbSymbolTableRecord
100
AcDbRegAppTableRecord
  2
ACAD
 70
     0
  0
APPID
  5
F7
330
9
100
AcDbSymbolTableRecord
100
AcDbRegAppTableRecord
  2
ACAD_DSTYLE_DIMEXT_LENGTH
 70
     0
  0
APPID
  5
F8
330
9
100
AcDbSymbolTableRecord
100
AcDbRegAppTableRecord
  2
ACAD_DSTYLE_DIMEXT_ENABLED
 70
     0
  0
APPID
  5
F9
330
9
100
AcDbSymbolTableRecord
100
AcDbRegAppTableRecord
  2
ACAD_DSTYLE_DIMJOGGED_JOGANGLE_SYMBOL
 70
     0
  0
APPID
  5
FA
330
9
100
AcDbSymbolTableRecord
100
AcDbRegAppTableRecord
  2
ACAD_DSTYLE_DIMARC_LENGTH_SYMBOL
 70
     0
  0
APPID
  5
1B5
330
9
100
AcDbSymbolTableRecord
100
AcDbRegAppTableRecord
  2
ACAD_MLEADERVER
 70
     0
  0
APPID
  5
1C3
330
9
100
AcDbSymbolTableRecord
100
AcDbRegAppTableRecord
  2
ACAD_DSTYLE_DIMJAG
 70
     0
  0
APPID
  5
1C4
330
9
100
AcDbSymbolTableRecord
100
AcDbRegAppTableRecord
  2
ACAD_DSTYLE_DIMTALN
 70
     0
  0
APPID
  5
1EF
330
9
100
AcDbSymbolTableRecord
100
AcDbRegAppTableRecord
  2
AcadAnnotative
 70
     0
  0
APPID
  5
219
330
9
100
AcDbSymbolTableRecord
100
AcDbRegAppTableRecord
  2
ACAD_EXEMPT_FROM_CAD_STANDARDS
 70
     0
  0
APPID
  5
6A8
330
9
100
AcDbSymbolTableRecord
100
AcDbRegAppTableRecord
  2
AVE_RENDER
 70
     0
  0
APPID
  5
6A9
330
9
100
AcDbSymbolTableRecord
100
AcDbRegAppTableRecord
  2
AVE_ENTITY_MATERIAL
 70
     0
  0
APPID
  5
6AA
330
9
100
AcDbSymbolTableRecord
100
AcDbRegAppTableRecord
  2
AVE_FINISH
 70
     0
  0
APPID
  5
6AB
330
9
100
AcDbSymbolTableRecord
100
AcDbRegAppTableRecord
  2
AVE_MATERIAL
 70
     0
  0
APPID
  5
6AC
330
9
100
AcDbSymbolTableRecord
100
AcDbRegAppTableRecord
  2
AVE_GLOBAL
 70
     0
  0
ENDTAB
  0
TABLE
  2
DIMSTYLE
  5
A
330
0
100
AcDbSymbolTable
 70
     3
100
AcDbDimStyleTable
 71
     2
340
F6
340
27
  0
DIMSTYLE
105
27
330
A
100
AcDbSymbolTableRecord
100
AcDbDimStyleTableRecord
  2
Standard
 70
     0
  3
"
 40
3.0
277
     5
340
11
342
4F
  0
DIMSTYLE
105
F6
330
A
100
AcDbSymbolTableRecord
100
AcDbDimStyleTableRecord
  2
OWP Standard
 70
     0
  3
"
 40
3.0
 41
0.2
 42
0.1
140
0.2
277
     5
340
11
342
4F
1001
ACAD_DSTYLE_DIMJOGGED_JOGANGLE_SYMBOL
1070
   384
1040
0.7853981633974483
1001
ACAD_DSTYLE_DIMJAG
1070
   388
1040
1.5
1001
ACAD_DSTYLE_DIMTALN
1070
   392
1070
     0
1001
ACAD_DSTYLE_DIMEXT_LENGTH
1070
   378
1040
0.18
  0
DIMSTYLE
105
1EE
330
A
100
AcDbSymbolTableRecord
100
AcDbDimStyleTableRecord
  2
Annotative
 70
     0
 40
0.0
340
11
1001
AcadAnnotative
1000
AnnotativeData
1002
{
1070
     1
1070
     1
1002
}
1001
ACAD_DSTYLE_DIMJAG
1070
   388
1040
1.5
1001
ACAD_DSTYLE_DIMTALN
1070
   392
1070
     0
  0
ENDTAB
  0
TABLE
  2
BLOCK_RECORD
  5
1
330
0
100
AcDbSymbolTable
 70
     7
  0
BLOCK_RECORD
  5
1F
102
{ACAD_XDICTIONARY
360
414
102
}
330
1
100
AcDbSymbolTableRecord
100
AcDbBlockTableRecord
  2
*Model_Space
340
22
  0
BLOCK_RECORD
  5
1B
330
1
100
AcDbSymbolTableRecord
100
AcDbBlockTableRecord
  2
*Paper_Space
340
1E
  0
BLOCK_RECORD
  5
23
330
1
100
AcDbSymbolTableRecord
100
AcDbBlockTableRecord
  2
*Paper_Space0
340
26
  0
BLOCK_RECORD
  5
4F
330
1
100
AcDbSymbolTableRecord
100
AcDbBlockTableRecord
  2
_ArchTick
340
0
  0
BLOCK_RECORD
  5
BA
330
1
100
AcDbSymbolTableRecord
100
AcDbBlockTableRecord
  2
_Oblique
340
0
  0
BLOCK_RECORD
  5
1F0
330
1
100
AcDbSymbolTableRecord
100
AcDbBlockTableRecord
  2
A$C18112A55
340
0
1001
ACAD
1000
DesignCenter Data
1002
{
1070
     1
1070
     1
1002
}
  0
BLOCK_RECORD
  5
6AE
330
1
100
AcDbSymbolTableRecord
100
AcDbBlockTableRecord
  2
AVE_RENDER
340
0
102
{BLKREFS
331
6B1
331
6B2
331
6B3
331
6B4
331
6B5
331
6B6
331
6B7
331
6B8
102
}
  0
BLOCK_RECORD
  5
6B9
330
1
100
AcDbSymbolTableRecord
100
AcDbBlockTableRecord
  2
AVE_GLOBAL
340
0
102
{BLKREFS
331
6BC
102
}
  0
BLOCK_RECORD
  5
8EA
330
1
100
AcDbSymbolTableRecord
100
AcDbBlockTableRecord
  2
RM_SDB
340
0
102
{BLKREFS
331
904
102
}
  0
ENDTAB
  0
ENDSEC
  0
SECTION
  2
BLOCKS
  0
BLOCK
  5
20
330
1F
100
AcDbEntity
  8
0
100
AcDbBlockBegin
  2
*Model_Space
 70
     0
 10
0.0
 20
0.0
 30
0.0
  3
*Model_Space
  1

  0
ENDBLK
  5
21
330
1F
100
AcDbEntity
  8
0
100
AcDbBlockEnd
  0
BLOCK
  5
1C
330
1B
100
AcDbEntity
 67
     1
  8
0
100
AcDbBlockBegin
  2
*Paper_Space
 70
     0
 10
0.0
 20
0.0
 30
0.0
  3
*Paper_Space
  1

  0
ENDBLK
  5
1D
330
1B
100
AcDbEntity
 67
     1
  8
0
100
AcDbBlockEnd
  0
BLOCK
  5
24
330
23
100
AcDbEntity
 67
     1
  8
0
100
AcDbBlockBegin
  2
*Paper_Space0
 70
     0
 10
0.0
 20
0.0
 30
0.0
  3
*Paper_Space0
  1

  0
ENDBLK
  5
25
330
23
100
AcDbEntity
 67
     1
  8
0
100
AcDbBlockEnd
  0
BLOCK
  5
51
330
4F
100
AcDbEntity
  8
0
100
AcDbBlockBegin
  2
_ArchTick
 70
     0
 10
0.0
 20
0.0
 30
0.0
  3
_ArchTick
  1

  0
LWPOLYLINE
  5
50
330
4F
100
AcDbEntity
  8
0
 62
     0
100
AcDbPolyline
 90
        2
 70
     0
 43
0.15
 10
-0.5
 20
-0.5
 10
0.5
 20
0.5
  0
ENDBLK
  5
52
330
4F
100
AcDbEntity
  8
0
100
AcDbBlockEnd
  0
BLOCK
  5
BB
330
BA
100
AcDbEntity
  8
0
100
AcDbBlockBegin
  2
_Oblique
 70
     0
 10
0.0
 20
0.0
 30
0.0
  3
_Oblique
  1

  0
LINE
  5
BC
330
BA
100
AcDbEntity
  8
0
  6
ByBlock
 62
     0
370
    -2
100
AcDbLine
 10
-0.5
 20
-0.5
 30
0.0
 11
0.5
 21
0.5
 31
0.0
  0
ENDBLK
  5
BD
330
BA
100
AcDbEntity
  8
0
100
AcDbBlockEnd
  0
BLOCK
  5
1F7
330
1F0
100
AcDbEntity
  8
0
100
AcDbBlockBegin
  2
A$C18112A55
 70
     0
 10
0.0
 20
0.0
 30
0.0
  3
A$C18112A55
  1

  0
3DSOLID
  5
1F1
330
1F0
100
AcDbEntity
  8
0
100
AcDbModelerGeometry
 70
     1
  1
koo jmf n o         
  1
ni ^ *+0;:,4 ^ *+0\^ [ nh ^ LR nmqoqnqgmo QK o  
  1
mjqlffffffffffffff fqfffffffffffffffj:rooh n:rono 
  1
=0;& {rn {n {rn {rn |
  1
3*2/ {rn {rn {m {o |
  1
,7:33 {rn {rn {rn {l {rn {n |
  1
9><: {k {j {i {m {rn {h 90-(>-; ,6183: |
  1
2>+:-6>3r>;:,4r>++-6= {rn {g {rn {l lhi o |
  1
9><: {f {no {nn {m {rn {nm 90-(>-; ,6183: |
  1
300/ {rn {nl {nk {l |
  1
+0-*,r,*-9><: {rn kqinhikojlojlnikj mqgmohohkjjimnkmlg rl nqglifhonfghmnomfh:roni n o kgqngfihnmmhgmniil rkiqggijfofhgjgjnok o o n 90-(>-;@) V V V V |
  1
/:-,*=:1+r><>;L036;W6,+0-&r>++-6= {rn {rn {k {l n m m o |
  1
2>+:-6>3r>;:,4r>++-6= {rn {nj {rn {j lhi o |
  1
9><: {ni {nh {ng {m {rn {nf 90-(>-; ,6183: |
  1
300/ {rn {mo {mn {j |
  1
+0-*,r,*-9><: {rn kqinhikojlojlnikj mqljiijgflknnnnlgn rl nqglifhonfghmnomfh:roni n o kiqknmnkjlfmogijkl rkjqngogklkmllinjkk o o n 90-(>-;@) V V V V |
  1
300/ {rn {rn {mm {l |
  1
<0:;8: {rn {nk {nk {ml {mk -:):-,:; {i {rn |
  1
/:-,*=:1+r><>;L036;W6,+0-&r>++-6= {rn {rn {f {j n m l o |
  1
2>+:-6>3r>;:,4r>++-6= {rn {mj {rn {no lhi o |
  1
9><: {mi {mh {mg {m {rn {mf 90-(>-; ,6183: |
  1
300/ {rn {lo {ln {no |
  1
+0-*,r,*-9><: {rn kqinhikojlojlnikgi niqkofffmhmofnhkjg rl nqglifhonfghmnomfh:roni n o rfqglgifjfhnmhjolig nmqgmfgfhfhofjfkfl o o n 90-(>-;@) V V V V |
  1
300/ {rn {rn {ml {j |
  1
<0:;8: {rn {mn {mn {lm {ll -:):-,:; {nn {rn |
  1
<0:;8: {rn {mm {mm {lk {lj 90-(>-; {nl {rn |
  1
<0:;8: {rn {ml {ml {nk {mk 90-(>-; {mo {rn |
  1
:;8: {rn {li {li {ml {lh 90-(>-; |
  1
/:-,*=:1+r><>;L036;W6,+0-&r>++-6= {rn {rn {ni {no n m k o |
  1
2>+:-6>3r>;:,4r>++-6= {rn {lg {rn {nh lhi o |
  1
9><: {lf {ko {kn {m {rn {km 90-(>-; ,6183: |
  1
300/ {rn {kl {kk {nh |
  1
+0-*,r,*-9><: {rn kqinhikojlojlnikgi njqlffolnlkigomfhj rl nqglifhonfghmnomfh:roni n o oqgjmojghohfonmffhg mqnonjlmkhfgkojok o o n 90-(>-;@) V V V V |
  1
300/ {rn {rn {lm {no |
  1
<0:;8: {rn {ln {ln {kj {ki -:):-,:; {ng {rn |
  1
<0:;8: {rn {lm {lm {mn {ll 90-(>-; {lo {rn |
  1
:;8: {rn {kh {kh {lm {kg 90-(>-; |
  1
<0:;8: {rn {lk {lk {mm {lj -:):-,:; {kf {rn |
  1
:;8: {rn {jo {jo {mm {jn 90-(>-; |
  1
):-+:' {rn {mk {jm |
  1
:336/,:r<*-): {rn kqinhikojlojlnikj gqlmgmigoljkjhnffk rl nqglifhonfghmnomfh:roni n o nqimhihgmjonjnhfjh rmqfgfffiklgiljmkng:roni o n V V |
  1
/:-,*=:1+r><>;L036;W6,+0-&r>++-6= {rn {rn {mi {nh n m j o |
  1
2>+:-6>3r>;:,4r>++-6= {rn {jl {rn {mh lhi o |
  1
9><: {jk {jj {ji {m {rn {jh 90-(>-; ,6183: |
  1
300/ {rn {jg {jf {mh |
  1
<01:r,*-9><: {rn kqinhikojlojlnikgi niqffiohflnjnmgflk rl nqglifhonfghmnomfh:roni n o mqmjoijlnlkhjnfhnm rkqnlklgmhlinfhklih:roni o n V V o n mqmjoijlnlkhjnfhnm 90-(>-; V V V V |
  1
300/ {rn {rn {kj {nh |
  1
<0:;8: {rn {kk {kk {io {in -:):-,:; {mg {rn |
  1
<0:;8: {rn {kj {kj {ln {ki 90-(>-; {kl {rn |
  1
:;8: {rn {im {im {kj {il 90-(>-; |
  1
):-+:' {rn {ll {ik |
  1
:336/,:r<*-): {rn kqinhikojlojlnikgi nmqjklojkmjjokghif rl nqglifhonfghmnomfh:roni n o mqlfkjgnnlgjhikmlh rkqlfghhkngffgklimk:roni o n V V |
  1
300/ {rn {ij {lk {ii |
  1
):-+:' {rn {lj {ih |
  1
:336/,:r<*-): {rn kqinhikojlojlnikj iqhmnjmoonlglmhii rl nqglifhonfghmnomfh:roni n o nqkijimfjoklmhllnh rmqifmlnhhmngnjjgmh:roni o n V V |
  1
/061+ {rn iqmkjlnghgoiglkkoh gqlmgmigoljkjhnfml rl |
  1
/:-,*=:1+r><>;L036;W6,+0-&r>++-6= {rn {rn {lf {mh l m i o m g o m nk o |
  1
2>+:-6>3r>;:,4r>++-6= {rn {ig {rn {ko lhi o |
  1
9><: {if {ho {hn {m {rn {hm 90-(>-; ,6183: |
  1
300/ {rn {hl {hk {ko |
  1
+0-*,r,*-9><: {rn kqinhikojlojlnikgi nhqiomhfilomnljlgn rl nqglifhonfghmnomfh:roni n o mqklfffignnnlfnkmk roqiogklgolghhhhhgjg o o n 90-(>-;@) V V V V |
  1
300/ {rn {rn {io {mh |
  1
<0:;8: {rn {jf {jf {hj {hi -:):-,:; {kn {rn |
  1
<0:;8: {rn {io {io {kk {in 90-(>-; {jg {rn |
  1
:;8: {rn {hh {hh {io {hg 90-(>-; |
  1
):-+:' {rn {ki {hf |
  1
:336/,:r<*-): {rn kqinhikojlojlnikgi njqkmioimlnhlkfmn rl nqglifhonfghmnomfh:roni n o mqfjlknhllhjiljmjj rjqkmjllfillkfomoli:roni o n V V |
  1
/061+ {rn hqonmmmniifnogohml nmqjklojkmjjokghif rl |
  1
300/ {rn {rn {go {ii |
  1
9><: {gn {gm {kf {m {rn {gl 90-(>-; ,6183: |
  1
/061+ {rn iqoglmhoolkgjgfhig iqhmnjmoonlglmhjgf rl |
  1
/:-,*=:1+r><>;L036;W6,+0-&r>++-6= {rn {rn {jk {ko n m h o |
  1
2>+:-6>3r>;:,4r>++-6= {rn {gk {rn {jj lhi o |
  1
9><: {gj {gi {gh {m {rn {gg 90-(>-; ,6183: |
  1
300/ {rn {gf {fo {jj |
  1
<01:r,*-9><: {rn kqinhikojlojlnikgi ngqmnmhilinimhnjlk rl nqglifhonfghmnomfh:roni n o mqmjoijlnlkhjnfkmh rkqnlklgmhlinfhlgkk:roni o n V V o n mqmjoijlnlkhjnfkmh 90-(>-; V V V V |
  1
300/ {rn {rn {hj {ko |
  1
<0:;8: {rn {hk {hk {fn {fm -:):-,:; {ji {rn |
  1
<0:;8: {rn {hj {hj {jf {hi 90-(>-; {hl {rn |
  1
:;8: {rn {fl {fl {hj {fk 90-(>-; |
  1
):-+:' {rn {in {fj |
  1
:336/,:r<*-): {rn kqinhikojlojlnikgi niqfihjgghhnoonoon rl nqglifhonfghmnomfh:roni n o mqmjoijlnlkhjnfhnm rkqnlklgmhlinfhklih:roni o n V V |
  1
/061+ {rn hqjhnojhgigofjnhkn njqkmioimlnhlkfmn rl |
  1
<0:;8: {rn {go {go {fi {fh 90-(>-; {ij {rn |
  1
2>+:-6>3r>;:,4r>++-6= {rn {fg {rn {ii lhi o |
  1
9><: {ff {noo {non {m {rn {nom 90-(>-; ,6183: |
  1
<01:r,*-9><: {rn kqinhikojlojlnikj iqoghnfjfmokngnfim rl nqglifhonfghmnomfh:roni n o nqklillnmkjgnkkflm rmqilgkfhifkojlohlg:roni o n V V oqokinlgfikknlgljhlk oqffgfljolofongnfkj nqklillnmkjgnkkflm 90-(>-; V V V V |
  1
/:-,*=:1+r><>;L036;W6,+0-&r>++-6= {rn {rn {if {jj l m i o m g o m nk o |
  1
2>+:-6>3r>;:,4r>++-6= {rn {nol {rn {ho lhi o |
  1
9><: {nok {noj {noi {m {rn {noh 90-(>-; ,6183: |
  1
300/ {rn {nog {nof {ho |
  1
+0-*,r,*-9><: {rn kqinhikojlojlnikgi ngqgofiojkomgfgllg rl nqglifhonfghmnomfh:roni n o mqoogllkmimjnjojik oqinkgilhfonnlgggol o o n 90-(>-;@) V V V V |
  1
300/ {rn {rn {fn {jj |
  1
<0:;8: {rn {fo {fo {nno {nnn -:):-,:; {hn {rn |
  1
<0:;8: {rn {fn {fn {hk {fm 90-(>-; {gf {rn |
  1
:;8: {rn {nnm {nnm {fn {nnl 90-(>-; |
  1
):-+:' {rn {hi {nnk |
  1
:336/,:r<*-): {rn kqinhikojlojlnikgi nhqomkjifgjfmjigig rl nqglifhonfghmnomfh:roni n o mqmjoijlnlkhjnfhnm rkqnlklgmhlinfhklih:roni o n V V |
  1
/061+ {rn iqgigmfliijmglinfh niqfihjgghhnoonoon rl |
  1
<0:;8: {rn {fi {fi {go {fh -:):-,:; {nnj {rn |
  1
:;8: {rn {nni {nni {go {nnh 90-(>-; |
  1
/:-,*=:1+r><>;L036;W6,+0-&r>++-6= {rn {rn {gn {ii n m n o |
  1
/:-,*=:1+r><>;L036;W6,+0-&r>++-6= {rn {nng {rn {gm n n nooooooooo n |
  1
9><: {nnf {nmo {nmn {m {rn {nmm 90-(>-; ,6183: |
  1
300/ {rn {rn {nml {gm |
  1
/3>1:r,*-9><: {rn kqinhikojlojlnikj nkqkfffffflgjhhomh o o o n rnqglifhonfghmnomfh:roni rn o 90-(>-;@) V V V V |
  1
/:-,*=:1+r><>;L036;W6,+0-&r>++-6= {rn {rn {gj {ho n m f o |
  1
2>+:-6>3r>;:,4r>++-6= {rn {nmk {rn {gi lhi o |
  1
9><: {nmj {nmi {nmh {m {rn {nmg 90-(>-; ,6183: |
  1
300/ {rn {nmf {nlo {gi |
  1
+0-*,r,*-9><: {rn kqinhikojlojlnikgi nfqmikgfgkoommlnoh rl nqglifhonfghmnomfh:roni n o mqmjooljgnghknjlon oqiojhmnnhfomlnofjn o o n 90-(>-;@) V V V V |
  1
300/ {rn {rn {nno {ho |
  1
<0:;8: {rn {nof {nof {nln {nlm -:):-,:; {gh {rn |
  1
<0:;8: {rn {nno {nno {fo {nnn 90-(>-; {nog {rn |
  1
:;8: {rn {nll {nll {nno {nlk 90-(>-; |
  1
):-+:' {rn {fm {nlj |
  1
:336/,:r<*-): {rn kqinhikojlojlnikgi ngqngnommhkjonlggh rl nqglifhonfghmnomfh:roni n o mqmjoijlnlkhjnfkil rkqnlklgmhlinfhlfnl:roni o n V V |
  1
/061+ {rn iqgigmfliijmglinfh nhqomkjifgjfmjigig rl |
  1
300/ {rn {nli {fi {nlh |
  1
):-+:' {rn {fh {nlg |
  1
:336/,:r<*-): {rn kqinhikojlojlnikj jqkjmghngmhoolinfk rl nqglifhonfghmnomfh:roni n o nqkoholmfghlonijnm rmqjgkihhiiimfojjg:roni o n V V |
  1
2>+:-6>3r>;:,4r>++-6= {rn {rn {ff {gm lhi o |
  1
/:-,*=:1+r><>;L036;W6,+0-&r>++-6= {rn {nlf {rn {noo n n k o |
  1
9><: {nko {nkn {nkm {m {rn {nkl 90-(>-; ,6183: |
  1
300/ {rn {rn {nkk {noo |
  1
/3>1:r,*-9><: {rn hqinhikojlojlniknj riqnkmmfghjgjokifk:roog o n rjqjnmnfnmkjhjioloi:roni o o o n 90-(>-;@) V V V V |
  1
<0:;8: {rn {nkj {nki {nkh {nkg -:):-,:; {non {rn |
  1
/:-,*=:1+r><>;L036;W6,+0-&r>++-6= {rn {rn {nok {gi n m no o |
  1
2>+:-6>3r>;:,4r>++-6= {rn {nkf {rn {noj lhi o |
  1
9><: {njo {njn {njm {m {rn {njl 90-(>-; ,6183: |
  1
300/ {rn {njk {njj {noj |
  1
+0-*,r,*-9><: {rn kqinhikojlojlnikgi nfqhfgfjinkfkinmf rl nqglifhonfghmnomfh:roni n o mqmmhjolhhokhfhmkf oqhmifkknmfgklglohm o o n 90-(>-;@) V V V V |
  1
300/ {rn {rn {nln {gi |
  1
<0:;8: {rn {nlo {nlo {nji {njh -:):-,:; {noi {rn |
  1
<0:;8: {rn {nln {nln {nof {nlm 90-(>-; {nmf {rn |
  1
:;8: {rn {njg {njg {nln {njf 90-(>-; |
  1
):-+:' {rn {nnn {nio |
  1
:336/,:r<*-): {rn kqinhikojlojlnikgi ngqmkkjokkghjmfngn rl nqglifhonfghmnomfh:roni n o mqmjoijlnlkhjnfkmh rkqnlklgmhlinfhlgkk:roni o n V V |
  1
/061+ {rn iqgigmfliijmgljfkf ngqngnommhkjonlggh rl |
  1
300/ {rn {rn {nin {nlh |
  1
9><: {nim {ii {nnj {m {rn {nil 90-(>-; ,6183: |
  1
/061+ {rn iqomkihljnhgllmfim jqkjmghngmhoolinml rl |
  1
2>+:-6>3r>;:,4r>++-6= {rn {rn {nnf {noo lhi o |
  1
/:-,*=:1+r><>;L036;W6,+0-&r>++-6= {rn {nik {rn {nmo m n l o m mk o |
  1
9><: {nij {nii {nih {m {rn {nig 90-(>-; ,6183: |
  1
300/ {rn {rn {nif {nmo |
  1
/3>1:r,*-9><: {rn nqinhikojlojlniknj riqnkmmfghjgjokifk:roog o rnqglifhonfghmnomfh:roni rn o o ro rn 90-(>-;@) V V V V |
  1
<0:;8: {rn {nho {nhn {nhm {nhl -:):-,:; {nmn {rn |
  1
<0:;8: {rn {nhk {nml {nhn {nhj 90-(>-; {non {rn |
  1
<0:;8: {rn {nml {nhk {nhi {nhh 90-(>-; {non {rn |
  1
<0:;8: {rn {nhg {nhm {nml {nkg 90-(>-; {nhf {rn |
  1
:;8: {rn {ngo {ngn {nml {ngm 90-(>-; |
  1
/:-,*=:1+r><>;L036;W6,+0-&r>++-6= {rn {rn {nmj {noj n m nn o |
  1
2>+:-6>3r>;:,4r>++-6= {rn {ngl {rn {nmi lhi o |
  1
9><: {ngk {ngj {ngi {m {rn {ngh 90-(>-; ,6183: |
  1
300/ {rn {ngg {ngf {nmi |
  1
+0-*,r,*-9><: {rn kqinhikojlojlnikgi moqlllonlgfgiffkgk rl nqglifhonfghmnomfh:roni n o mqmjooljgnghknjlon oqiojhmnnhfomlnofjn o o n 90-(>-;@) V V V V |
  1
300/ {rn {rn {nji {noj |
  1
<0:;8: {rn {njj {njj {nfo {nfn -:):-,:; {nmh {rn |
  1
<0:;8: {rn {nji {nji {nlo {njh 90-(>-; {njk {rn |
  1
:;8: {rn {nfm {nfm {nji {nfl 90-(>-; |
  1
):-+:' {rn {nlm {nfk |
  1
:336/,:r<*-): {rn kqinhikojlojlnikgi ngqhghkingfkhmfml rl nqglifhonfghmnomfh:roni n o mqimmhffnggiknnhhf rkqgngoolfkihiljkom:roni o n V V |
  1
/061+ {rn iqgigmfliijmgljfnl ngqmkkjokkghjmfngn rl |
  1
<0:;8: {rn {nin {nin {nfj {nfi 90-(>-; {nli {rn |
  1
2>+:-6>3r>;:,4r>++-6= {rn {nfh {rn {nlh lhi o |
  1
+0-*,r,*-9><: {rn kqinhikojlojlnikj jqmgmknllglmoingll rl nqglifhonfghmnomfh:roni n o nqllmmlmklgklhofml oqnginkgllikhkijfih o o n 90-(>-;@) V V V V |
  1
2>+:-6>3r>;:,4r>++-6= {rn {rn {nko {nmo lhi o |
  1
2>+:-6>3r>;:,4r>++-6= {rn {nfg {rn {nkn lhi o |
  1
9><: {nff {moo {mon {m {rn {mom 90-(>-; ,6183: |
  1
300/ {rn {rn {mol {nkn |
  1
/3>1:r,*-9><: {rn nqinhikojlojlniknj mgqffffffflgjhhom o rn nqglifhonfghmnomfh:roni o o ro rn 90-(>-;@) V V V V |
  1
<0:;8: {rn {nif {nif {mok {moj -:):-,:; {nkm {rn |
  1
<0:;8: {rn {moi {nkk {moh {mog 90-(>-; {nmn {rn |
  1
<0:;8: {rn {nkk {moi {nkj {nhj -:):-,:; {nmn {rn |
  1
<0:;8: {rn {nkh {mof {nkk {nhl 90-(>-; {nhf {rn |
  1
:;8: {rn {mno {ngo {nkk {mnn 90-(>-; |
  1
<0:;8: {rn {nki {nkj {mnm {mnl 90-(>-; {non {rn |
  1
:;8: {rn {ngo {mnk {nhn {mnj 90-(>-; |
  1
<0:;8: {rn {mni {mol {nki {nhh -:):-,:; {nih {rn |
  1
:;8: {rn {mnh {ngn {nhi {mng 90-(>-; |
  1
<0:;8: {rn {mof {nkh {mol {mnf 90-(>-; {nhf {rn |
  1
300/ {rn {mmo {nhm {mmn |
  1
):-+:' {rn {nhj {mmm |
  1
):-+:' {rn {nkg {mml |
  1
61+<*-):r<*-): {rn 90-(>-; $ :'><+<*- 1*-=, m 0/:1 m 
  1
 oqlijkfjonhhnflonjk m iqgimmmfihmikknjol m 
  1
 hqinhikojlojlnijkg mkqkiflhgmgooonhgk o nqojnhhiifmjgkgnng 
  1
 kqinhikojlojlnifgl mlqlklmgkikojgojgg iqmljlffikhioggki:ronh nqkghkligilmknonhj 
  1
 nqinhikojlojlnikog mkqkiflhgmgooonhgk rjqjjnnnjnmlnmjhgmh:ronh nqojnhhiifmjgkgnmh 
  1
 o 
  1
 1*33@,*-9><: 
  1
 1*33@,*-9><: 
  1
 1*33=, 
  1
 1*33=, 
  1
 V V 
  1
 o 
  1
 o 
  1
 o 
  1
 Y n Y o " V V |
  1
/:-,*=:1+r><>;L036;W6,+0-&r>++-6= {rn {rn {njo {nmi n m nm o |
  1
2>+:-6>3r>;:,4r>++-6= {rn {mmk {rn {njn lhi o |
  1
9><: {mmj {mmi {mmh {m {rn {mmg 90-(>-; ,6183: |
  1
300/ {rn {mmf {mlo {njn |
  1
+0-*,r,*-9><: {rn kqinhikojlojlnikgi moqhggloigfiomkmjl rl nqglifhonfghmnomfh:roni n o mqoogllkmimjnjojik oqinkgilhfonnlgggol o o n 90-(>-;@) V V V V |
  1
300/ {rn {rn {nfo {nmi |
  1
<0:;8: {rn {ngf {ngf {mln {mlm -:):-,:; {njm {rn |
  1
<0:;8: {rn {nfo {nfo {njj {nfn 90-(>-; {ngg {rn |
  1
:;8: {rn {mll {mll {nfo {mlk 90-(>-; |
  1
):-+:' {rn {njh {mlj |
  1
:336/,:r<*-): {rn kqinhikojlojlnikgi nfqkoioohihkighjf rl nqglifhonfghmnomfh:roni n o mqglfofnmijjngnfmn rjqmnjlmiokimoioflm:roni o n V V |
  1
/061+ {rn hqmkoklfhnfnhmgmij ngqhghkingfkhmfml rl |
  1
<0:;8: {rn {nfj {nfj {nin {nfi -:):-,:; {mli {rn |
  1
:;8: {rn {mlh {mlh {nin {mlg 90-(>-; |
  1
/:-,*=:1+r><>;L036;W6,+0-&r>++-6= {rn {rn {nim {nlh n m ko o |
  1
/:-,*=:1+r><>;L036;W6,+0-&r>++-6= {rn {rn {nij {nkn n n m o |
  1
2>+:-6>3r>;:,4r>++-6= {rn {mlf {rn {nii lhi o |
  1
9><: {mko {rn {mkn {m {rn {mkm -:):-,:; ,6183: |
  1
300/ {rn {rn {mkl {nii |
  1
/3>1:r,*-9><: {rn hqinhikojlojlnijjh mgqffffffflgjhhonm o nqglifhonfghmnomfh:roni n ro o o n 90-(>-;@) V V V V |
  1
<0:;8: {rn {nhi {mkk {nhg {mnf -:):-,:; {nih {rn |
  1
<0:;8: {rn {mok {mok {nif {moj 90-(>-; {mkj {rn |
  1
:;8: {rn {mki {mki {nif {mkh 90-(>-; |
  1
<0:;8: {rn {nhn {nho {mkg {mkf -:):-,:; {nmn {rn |
  1
<0:;8: {rn {mjo {mjn {nho {mog -:):-,:; {mkn {rn |
  1
:;8: {rn {mno {mjm {nho {mjl 90-(>-; |
  1
<0:;8: {rn {nhm {nhg {mjo {mjk 90-(>-; {nhf {rn |
  1
):-+:' {rn {mog {mjj |
  1
61+<*-):r<*-): {rn 90-(>-; $ :'><+<*- 1*-=, m 0/:1 m 
  1
 oqlijkfjonhhnflokfg m iqgimmmfihmikknlin m 
  1
 hqinhikojlojlnijkg mkqkiflhgmgooonhgk ri nqojnhhiifmjgkgnng 
  1
 hqinhikojlojlnijjh mlqlklmgkikojgojgg rlqooooooooooooojll nqkghkligilmknonof 
  1
 hqinhikojlojlnijkg mkqkiflhgmgooonhgk o nqojnhhiifmjgkgnmk 
  1
 o 
  1
 1*33@,*-9><: 
  1
 1*33@,*-9><: 
  1
 1*33=, 
  1
 1*33=, 
  1
 V V 
  1
 o 
  1
 o 
  1
 o 
  1
 Y n Y o " V V |
  1
<0:;8: {rn {mkg {mji {nhk {mnl -:):-,:; {mon {rn |
  1
:;8: {rn {mnk {mnh {mnm {mjh 90-(>-; |
  1
):-+:' {rn {mnl {mjg |
  1
,+->687+r<*-): {rn hqinhikojlojlniknj riqnkmmfghjgjokifk:roog o jqjnmnfnmkjhjioloi:roni n o V V |
  1
<0:;8: {rn {mkk {nhi {mji {mjf 90-(>-; {nih {rn |
  1
):-+:' {rn {mnl {mio |
  1
,+->687+r<*-): {rn nqinhikojlojlniknj mgqffffffflgjhhom o rnqglifhonfghmnomfh:roni rn o V V |
  1
:;8: {rn {ngn {min {mol {mim 90-(>-; |
  1
300/ {rn {rn {mil {mmn |
  1
9><: {mik {mij {nhf {m {rn {mii 90-(>-; ,6183: |
  1
/061+ {rn hqinhikojlojlnijkg mkqkiflhgmgooonhgk o |
  1
/061+ {rn nqinhikojlojlnikog mkqkiflhgmgooonhgk rjqjjnnnjnmlnmjhgmh:ronh |
  1
/:-,*=:1+r><>;L036;W6,+0-&r>++-6= {rn {rn {ngk {njn n m nl o |
  1
2>+:-6>3r>;:,4r>++-6= {rn {mih {rn {ngj lhi o |
  1
9><: {mig {mif {mho {m {rn {mhn 90-(>-; ,6183: |
  1
300/ {rn {mhm {mhl {ngj |
  1
<01:r,*-9><: {rn kqinhikojlojlnikgi mnqlgjnkgigmijnojl rl nqglifhonfghmnomfh:roni n o mqmjoijlnlkhjnflji rkqnlklgmhlinfhlhni:roni o n V V o n mqmjoijlnlkhjnflji 90-(>-; V V V V |
  1
300/ {rn {rn {mln {njn |
  1
<0:;8: {rn {mlo {mlo {mhk {mhj -:):-,:; {ngi {rn |
  1
<0:;8: {rn {mln {mln {ngf {mlm 90-(>-; {mmf {rn |
  1
:;8: {rn {mhi {mhi {mln {mhh 90-(>-; |
  1
):-+:' {rn {nfn {mhg |
  1
:336/,:r<*-): {rn kqinhikojlojlnikgi moqnfnfokimkmljook rl nqglifhonfghmnomfh:roni n o mqglfofnmijjngnfmn rjqmnjlmiokimoioflm:roni o n V V |
  1
/061+ {rn hqkjihlnhfiokfgkoh nfqkoioohihkighjf rl |
  1
300/ {rn {mhf {nfj {mgo |
  1
):-+:' {rn {nfi {mgn |
  1
:336/,:r<*-): {rn kqinhikojlojlnikj jqnomhlggolmoliohm rl nqglifhonfghmnomfh:roni n o nqlgogfhofnijghnhn rmqjliiiigokghhiojl:roni o n V V |
  1
/:-,*=:1+r><>;L036;W6,+0-&r>++-6= {rn {rn {nff {nii m n n o m mm o |
  1
2>+:-6>3r>;:,4r>++-6= {rn {mgm {rn {moo lhi o |
  1
300/ {rn {rn {mjo {moo |
  1
/3>1:r,*-9><: {rn kqinhikojlojlnikj nkqkfffffflgjhhomh ri o o n rnqglifhonfghmnomfh:roni rn o 90-(>-;@) V V V V |
  1
<0:;8: {rn {mji {mkg {mjn {mgl 90-(>-; {mon {rn |
  1
<0:;8: {rn {mol {mni {mgk {mgj 90-(>-; {nih {rn |
  1
300/ {rn {rn {mok {mij |
  1
):-+:' {rn {moj {mgi |
  1
:336/,:r<*-): {rn kqinhikojlojlnikj riqnkmmfggnkonjgkjm:roog rl nqglifhonfghmnomfh:roni n ro nqoooooooooooooonl rnqglifhonfghmnolnf:roni o n V V |
  1
<0:;8: {rn {mkl {mnm {moi {mkf 90-(>-; {mon {rn |
  1
:;8: {rn {mnk {mjm {mkg {mgh 90-(>-; |
  1
<0:;8: {rn {mgk {moh {mof {mjk -:):-,:; {mkn {rn |
  1
<0:;8: {rn {moh {mgk {mkl {mgl -:):-,:; {mkn {rn |
  1
):-+:' {rn {mkf {mgg |
  1
,+->687+r<*-): {rn hqinhikojlojlniknj riqnkmmfghjgjokifk:roog ri jqjnmnfnmkjhjioloi:roni n o V V |
  1
:;8: {rn {min {mno {mjo {mgf 90-(>-; |
  1
/061+ {rn hqinhikojlojlnijkg mkqkiflhgmgooonhgk ri |
  1
<0:;8: {rn {mnm {mkl {mni {mjf -:):-,:; {mon {rn |
  1
,+->687+r<*-): {rn hqinhikojlojlnijjh mgqffffffflgjhhonm o rn nqglifhonfghmnomfh:roni o V V |
  1
/061+ {rn hqinhikojlojlnijjh mgqffffffflgjhhonm o |
  1
:;8: {rn {mnh {mfo {mni {mfn 90-(>-; |
  1
/061+ {rn nqinhikojlojlniknj mgqffffffflgjhhom o |
  1
):-+:' {rn {mjk {mfm |
  1
61+<*-):r<*-): {rn 90-(>-; $ :'><+<*- 1*-=, m 0/:1 m 
  1
 oqlijkfjonhhnflonfl m iqgimmmfihmikknkj m 
  1
 nqinhikojlojlnikog mkqkiflhgmgooonhgk rjqjjnnnjnmlnmjhgmh:ronh nqojnhhiifmjgkgnmh 
  1
 nqinhikojlojlnikok mlqlklmgkikojgojgg rmqfffffffffffffkgf nqkghkligilmknomnl 
  1
 nqinhikojlojlnikog mkqkiflhgmgooonhgk ri nqojnhhiifmjgkgnng 
  1
 o 
  1
 1*33@,*-9><: 
  1
 1*33@,*-9><: 
  1
 1*33=, 
  1
 1*33=, 
  1
 V V 
  1
 o 
  1
 o 
  1
 o 
  1
 Y n Y o " V V |
  1
<0:;8: {rn {mil {mil {mfl {mfk 90-(>-; {mmo {rn |
  1
2>+:-6>3r>;:,4r>++-6= {rn {mfj {rn {mmn lhi o |
  1
9><: {mfi {mfh {mfg {m {rn {mff 90-(>-; ,6183: |
  1
<01:r,*-9><: {rn kqinhikojlojlnikgi mkqnogogkjngogjfil rl nqglifhonfghmnomfh:roni n o lqjimokomikmhklhil riqjkllingnmnniknok:roni o n V V oqgglmilijkhhgnighn oqkigghiijlkkhmhoh lqjimokomikmhklhil 90-(>-; V V V V |
  1
/:-,*=:1+r><>;L036;W6,+0-&r>++-6= {rn {rn {mmj {ngj l m i o m g o m nk o |
  1
2>+:-6>3r>;:,4r>++-6= {rn {loo {rn {mmi lhi o |
  1
9><: {lon {lom {lol {m {rn {lok 90-(>-; ,6183: |
  1
300/ {rn {loj {loi {mmi |
  1
+0-*,r,*-9><: {rn kqinhikojlojlnikgi mnqfgfhgghfkhohnlg rl nqglifhonfghmnomfh:roni n o mqkmgnnomgiojjkhnn roqjffhjlhiiighhfnig o o n 90-(>-;@) V V V V |
  1
300/ {rn {rn {mhk {ngj |
  1
<0:;8: {rn {mhl {mhl {loh {log -:):-,:; {mmh {rn |
  1
<0:;8: {rn {mhk {mhk {mlo {mhj 90-(>-; {mhm {rn |
  1
:;8: {rn {lof {lof {mhk {lno 90-(>-; |
  1
):-+:' {rn {mlm {lnn |
  1
:336/,:r<*-): {rn kqinhikojlojlnikgi moqgnokjokoknfllin rl nqglifhonfghmnomfh:roni n o mqimmhffnggiknnhhf rkqgngoolfkihiljkom:roni o n V V |
  1
/061+ {rn hqkjihlnhfiokfgkoh moqnfnfokimkmljook rl |
  1
300/ {rn {rn {lnm {mgo |
  1
9><: {lnl {nlh {mli {m {rn {lnk 90-(>-; ,6183: |
  1
/061+ {rn jqffgjlhimmnfolimn jqnomhlggolmolioon rl |
  1
/:-,*=:1+r><>;L036;W6,+0-&r>++-6= {rn {rn {mko {moo n n nooooooooo m |
  1
:;8: {rn {mjm {mfo {mkl {lnj 90-(>-; |
  1
<0:;8: {rn {mjn {mjo {mkk {mgj -:):-,:; {mkn {rn |
  1
:;8: {rn {mfo {min {mkk {lni 90-(>-; |
  1
/061+ {rn jqinhikojlojlnikj riqnkmmfghjgjokifk:roog rl |
  1
,+->687+r<*-): {rn hqinhikojlojlnijjh mgqffffffflgjhhonm o o ro rn V V |
  1
/061+ {rn hqinhikojlojlnijjh mgqffffffflgjhhonm ri |
  1
61+<*-):r<*-): {rn 90-(>-; $ :'><+<*- 1*-=, m 0/:1 m 
  1
 oqlijkfjonhhnflonfg m iqgimmmfihmikknjfm m 
  1
 nqinhikojlojlnikog mkqkiflhgmgooonhgk ri nqojnhhiifmjgkgnmm 
  1
 kqinhikojlojlnjfim mlqlklmgkikojgojgj rjqfffffffffffffffn nqkghkligilmknongm 
  1
 hqinhikojlojlnijkg mkqkiflhgmgooonhgk ri nqojnhhiifmjgkgnnl 
  1
 o 
  1
 1*33@,*-9><: 
  1
 1*33@,*-9><: 
  1
 1*33=, 
  1
 1*33=, 
  1
 V V 
  1
 o 
  1
 o 
  1
 o 
  1
 Y n Y o " V V |
  1
):-+:' {rn {mjf {lnh |
  1
,+->687+r<*-): {rn nqinhikojlojlniknj mgqffffffflgjhhom o o ro rn V V |
  1
/061+ {rn nqinhikojlojlnikog mkqkiflhgmgooonhgk ri |
  1
<0:;8: {rn {mfl {mfl {mil {mfk -:):-,:; {lng {rn |
  1
:;8: {rn {lnf {lnf {mil {lmo 90-(>-; |
  1
/:-,*=:1+r><>;L036;W6,+0-&r>++-6= {rn {rn {mik {mmn n m mo o |
  1
2>+:-6>3r>;:,4r>++-6= {rn {lmn {rn {mij lhi o |
  1
9><: {lmm {lml {lmk {m {rn {lmj 90-(>-; ,6183: |
  1
300/ {rn {mkj {lmi {mij |
  1
<01:r,*-9><: {rn kqinhikojlojlnikj oqjfofokhfkonkojnoj rl nqglifhonfghmnomfh:roni n o nqoijmmloilmokgmjg rnqfjihglommofhjfmg:roni o n V V oqnofhnnfhjjmmkmjij oqfflfilkmnohogffhk nqoijmmloilmokgmjg 90-(>-; V V V V |
  1
/:-,*=:1+r><>;L036;W6,+0-&r>++-6= {rn {rn {mig {mmi n m nj o |
  1
2>+:-6>3r>;:,4r>++-6= {rn {lmh {rn {mif lhi o |
  1
9><: {lmg {lmf {llo {m {rn {lln 90-(>-; ,6183: |
  1
300/ {rn {llm {lll {mif |
  1
<01:r,*-9><: {rn kqinhikojlojlnikgi mmqimfgihinlfknjlg rl nqglifhonfghmnomfh:roni n o mqlhmmkmmjnhnglijm rkqljhhlglmojjljogk:roni o n V V oqgglmilijkhhgngnol oqkigghiijlkkhmkhii mqlhmmkmmjnhnglijm 90-(>-; V V V V |
  1
300/ {rn {rn {loh {mmi |
  1
<0:;8: {rn {loi {loi {llk {llj -:):-,:; {mho {rn |
  1
<0:;8: {rn {loh {loh {mhl {log 90-(>-; {loj {rn |
  1
:;8: {rn {lli {lli {loh {llh 90-(>-; |
  1
):-+:' {rn {mhj {llg |
  1
:336/,:r<*-): {rn kqinhikojlojlnikgi mnqljlkohgnnlflkn rl nqglifhonfghmnomfh:roni n o mqmjoijlnlkhjnflfm rkqnlklgmhlinfhlhg:roni o n V V |
  1
/061+ {rn hqmkoklfhnfnhmgmij moqgnokjokoknfllin rl |
  1
<0:;8: {rn {lnm {lnm {llf {lko 90-(>-; {mhf {rn |
  1
2>+:-6>3r>;:,4r>++-6= {rn {lkn {rn {mgo lhi o |
  1
<01:r,*-9><: {rn kqinhikojlojlnikj jqohhhlggolmoliogi rl nqglifhonfghmnomfh:roni n o nqlgogfhofnijghnhn rmqjliiiigokghhiojl:roni o n V V o n nqlgogfhofnijghnhn 90-(>-; V V V V |
  1
,+->687+r<*-): {rn hqinhikojlojlnijjh mgqffffffflgjhhonm ri rn nqglifhonfghmnomfh:roni o V V |
  1
,+->687+r<*-): {rn nqinhikojlojlniknj mgqffffffflgjhhom ri rnqglifhonfghmnomfh:roni rn o V V |
  1
/061+ {rn nqinhikojlojlniknj mgqffffffflgjhhom ri |
  1
300/ {rn {lkm {mfl {lkl |
  1
):-+:' {rn {mfk {lkk |
  1
:336/,:r<*-): {rn kqinhikojlojlnikgi mlqjkhhmlijkkmjknn rl nqglifhonfghmnomfh:roni n o mqjoiklfginohnmjhl rkqiokmjjlmfihklhhk:roni o n V V |
  1
/:-,*=:1+r><>;L036;W6,+0-&r>++-6= {rn {rn {mfi {mij n m mj o |
  1
2>+:-6>3r>;:,4r>++-6= {rn {lkj {rn {mfh lhi o |
  1
9><: {lki {lkh {lkg {m {rn {lkf 90-(>-; ,6183: |
  1
300/ {rn {ljo {ljn {mfh |
  1
<01:r,*-9><: {rn kqinhikojlojlnikj nqnfllfkokloknmiim rl nqglifhonfghmnomfh:roni n o nqnjmmigijkmkkmjmg rmqnniiglnhghihohgi:roni o n V V oqgglmilijkhhgnllim oqkigghiijlkkhllign nqnjmmigijkmkkmjmg 90-(>-; V V V V |
  1
<0:;8: {rn {lmi {lmi {ljm {ljl -:):-,:; {mfg {rn |
  1
/:-,*=:1+r><>;L036;W6,+0-&r>++-6= {rn {rn {lon {mif n m ni o |
  1
2>+:-6>3r>;:,4r>++-6= {rn {ljk {rn {lom lhi o |
  1
9><: {ljj {lkl {lji {m {rn {ljh 90-(>-; ,6183: |
  1
300/ {rn {ljg {ljf {lom |
  1
<01:r,*-9><: {rn kqinhikojlojlnikgi mmqhmkfihhollmgfhj rl nqglifhonfghmnomfh:roni n o mqjoiklfgihhjkmkmn rkqiokmjjlknfjogmnn:roni o n V V o n mqjoiklfgihhjkmkmn 90-(>-; V V V V |
  1
300/ {rn {rn {llk {mif |
  1
<0:;8: {rn {lll {lll {lio {lin -:):-,:; {lol {rn |
  1
<0:;8: {rn {llk {llk {loi {llj 90-(>-; {llm {rn |
  1
:;8: {rn {lim {lim {llk {lil 90-(>-; |
  1
):-+:' {rn {log {lik |
  1
:336/,:r<*-): {rn kqinhikojlojlnikgi mnqkniggfjjlfogh rl nqglifhonfghmnomfh:roni n o mqmjoijlnlkhjnflji rkqnlklgmhlinfhlhni:roni o n V V |
  1
/061+ {rn iqgigmfliijmgljghg mnqljlkohgnnlflkn rl |
  1
<0:;8: {rn {llf {llf {lnm {lko -:):-,:; {lij {rn |
  1
:;8: {rn {lii {lii {lnm {lih 90-(>-; |
  1
/:-,*=:1+r><>;L036;W6,+0-&r>++-6= {rn {rn {lnl {mgo n m lf o |
  1
300/ {rn {rn {lig {lkl |
  1
9><: {lif {mmn {lng {m {rn {lho 90-(>-; ,6183: |
  1
/061+ {rn hqnmkogolfniomfojg mlqjkhhmlijkkmjknn rl |
  1
/:-,*=:1+r><>;L036;W6,+0-&r>++-6= {rn {rn {lmm {mfh n m mi o |
  1
2>+:-6>3r>;:,4r>++-6= {rn {lhn {rn {lml lhi o |
  1
9><: {lhm {lhl {lhk {m {rn {lhj 90-(>-; ,6183: |
  1
300/ {rn {lhi {lhh {lml |
  1
<01:r,*-9><: {rn kqinhikojlojlnikj nqmmooolnmfmhfnilj rl nqglifhonfghmnomfh:roni n o nqnhkofnngmohggjhj rmqnjihhojnmoiooohi:roni o n V V o n nqnhkofnngmohggjhj 90-(>-; V V V V |
  1
300/ {rn {rn {ljm {mfh |
  1
<0:;8: {rn {ljn {ljn {lhg {lhf -:):-,:; {lmk {rn |
  1
<0:;8: {rn {ljm {ljm {lmi {ljl 90-(>-; {ljo {rn |
  1
:;8: {rn {lgo {lgo {ljm {lgn 90-(>-; |
  1
/:-,*=:1+r><>;L036;W6,+0-&r>++-6= {rn {rn {lmg {lom m m nh o m nf o |
  1
2>+:-6>3r>;:,4r>++-6= {rn {lgm {rn {lmf lhi o |
  1
300/ {rn {lgl {lgk {lmf |
  1
+0-*,r,*-9><: {rn kqinhikojlojlnikgi mlqnmkknkhjikihmff rl nqglifhonfghmnomfh:roni n o mqllgilnglfhngoonl oqknnligniomgnffhfn o o n 90-(>-;@) V V V V |
  1
300/ {rn {rn {lio {lom |
  1
<0:;8: {rn {ljf {ljf {lgj {lgi -:):-,:; {llo {rn |
  1
<0:;8: {rn {lio {lio {lll {lin 90-(>-; {ljg {rn |
  1
:;8: {rn {lgh {lgh {lio {lgg 90-(>-; |
  1
):-+:' {rn {llj {lgf |
  1
:336/,:r<*-): {rn kqinhikojlojlnikgi mmqjjgimflfjjgmhnh rl nqglifhonfghmnomfh:roni n o mqmlgokkiljigmkggl rkqnnnmmnmffnjinfjm:roni o n V V |
  1
/061+ {rn iqgigmfliijmgljgkm mnqkniggfjjlfogh rl |
  1
300/ {rn {lfo {llf {lfn |
  1
):-+:' {rn {lko {lfm |
  1
:336/,:r<*-): {rn kqinhikojlojlnikj jqojmhlggolmolin rl nqglifhonfghmnomfh:roni n o nqlgogfhofnijghnhn rmqjliiiigokghhiojl:roni o n V V |
  1
<0:;8: {rn {lig {lig {lgk {lfl 90-(>-; {lkm {rn |
  1
2>+:-6>3r>;:,4r>++-6= {rn {lfk {rn {lkl lhi o |
  1
<01:r,*-9><: {rn kqinhikojlojlnikgi mlqjmlginhfijonmnm rl nqglifhonfghmnomfh:roni n o mqjoiklfgikknmhjnj rkqiokmjjlljgnmiomh:roni o n V V o n mqjoiklfgikknmhjnj 90-(>-; V V V V |
  1
/:-,*=:1+r><>;L036;W6,+0-&r>++-6= {rn {rn {lki {lml n m mh o |
  1
2>+:-6>3r>;:,4r>++-6= {rn {lfj {rn {lkh lhi o |
  1
9><: {lfi {lfh {lfg {m {rn {lff 90-(>-; ,6183: |
  1
300/ {rn {koo {kon {lkh |
  1
+0-*,r,*-9><: {rn kqinhikojlojlnikj nqijmjmhngmhjkjokn rl nqglifhonfghmnomfh:roni n o oqffminjikjligonjhm oqkjjmljnffllhimmjg o o n 90-(>-;@) V V V V |
  1
300/ {rn {rn {lhg {lml |
  1
<0:;8: {rn {lhh {lhh {kom {kol -:):-,:; {lkg {rn |
  1
<0:;8: {rn {lhg {lhg {ljn {lhf 90-(>-; {lhi {rn |
  1
:;8: {rn {kok {kok {lhg {koj 90-(>-; |
  1
):-+:' {rn {ljl {koi |
  1
:336/,:r<*-): {rn kqinhikojlojlnikj nqngngofikfkjnogmi rl nqglifhonfghmnomfh:roni n o nqnlokkinmikofikgn rmqohijfjgkjkhknkfj:roni o n V V |
  1
/:-,*=:1+r><>;L036;W6,+0-&r>++-6= {rn {rn {ljj {lmf n m ng o |
  1
300/ {rn {rn {lgj {lmf |
  1
<0:;8: {rn {lgk {lgk {lig {lfl -:):-,:; {lji {rn |
  1
<0:;8: {rn {lgj {lgj {ljf {lgi 90-(>-; {lgl {rn |
  1
:;8: {rn {koh {koh {lgj {kog 90-(>-; |
  1
):-+:' {rn {lin {kof |
  1
:336/,:r<*-): {rn kqinhikojlojlnikgi mmqhonnojglmloolik rl nqglifhonfghmnomfh:roni n o mqjoiklfgihhjkmkmn rkqiokmjjlknfjogmnn:roni o n V V |
  1
/061+ {rn iqgjjigjniimnknlif mmqjjgimflfjjgmhnh rl |
  1
300/ {rn {rn {kno {lfn |
  1
9><: {knn {mgo {lij {m {rn {knm 90-(>-; ,6183: |
  1
/061+ {rn jqffgjlhimmnfolimn jqojmhlggolmoliomf rl |
  1
:;8: {rn {knl {knl {lig {knk 90-(>-; |
  1
/:-,*=:1+r><>;L036;W6,+0-&r>++-6= {rn {rn {lif {lkl m m nh o m nf o |
  1
/:-,*=:1+r><>;L036;W6,+0-&r>++-6= {rn {rn {lhm {lkh n m mg o |
  1
2>+:-6>3r>;:,4r>++-6= {rn {knj {rn {lhl lhi o |
  1
9><: {kni {knh {kng {m {rn {knf 90-(>-; ,6183: |
  1
300/ {rn {kmo {kmn {lhl |
  1
<01:r,*-9><: {rn kqinhikojlojlnikj mqoiihjfojlmninlnl rl nqglifhonfghmnomfh:roni n o nqmnnknlffoikfmfkk rmqmmjllnlffnlikhon:roni o n V V o n nqmnnknlffoikfmfkk 90-(>-; V V V V |
  1
300/ {rn {rn {kom {lkh |
  1
<0:;8: {rn {kon {kon {kmm {kml -:):-,:; {lhk {rn |
  1
<0:;8: {rn {kom {kom {lhh {kol 90-(>-; {koo {rn |
  1
:;8: {rn {kmk {kmk {kom {kmj 90-(>-; |
  1
):-+:' {rn {lhf {kmi |
  1
:336/,:r<*-): {rn kqinhikojlojlnikj nqmokfhgkliilnkkmh rl nqglifhonfghmnomfh:roni n o nqnhkofnngmohggjhj rmqnjihhojnmoiooohi:roni o n V V |
  1
/061+ {rn jqhkgogiijifknmflm nqngngofikfkjnogmi rl |
  1
):-+:' {rn {lgi {kmh |
  1
:336/,:r<*-): {rn kqinhikojlojlnikgi mmqhkggmfjhkljhjf rl nqglifhonfghmnomfh:roni n o mqjoiklfgihhjkmkmn rkqiokmjjlknfjogmnn:roni o n V V |
  1
/061+ {rn hqnmkogolfgmgjgfoh mmqhonnojglmloolik rl |
  1
<0:;8: {rn {kno {kno {kmg {kmf 90-(>-; {lfo {rn |
  1
2>+:-6>3r>;:,4r>++-6= {rn {klo {rn {lfn lhi o |
  1
<01:r,*-9><: {rn kqinhikojlojlnikj jqoknnjkkofinlkmik rl nqglifhonfghmnomfh:roni n o nqkomhnfinfkfllmng rmqjhihjknlgnhojlkk:roni o n V V roqgglmilijkhhgnllim oqkigghiijlkkhllign nqkomhnfinfkfllmng 90-(>-; V V V V |
  1
):-+:' {rn {lfl {kln |
  1
:336/,:r<*-): {rn kqinhikojlojlnikgi mlqkfffffflgjhhoof rl nqglifhonfghmnomfh:roni n o mqjoiklfgihhjkmkjh rkqiokmjjlknfjogmg:roni o n V V |
  1
/:-,*=:1+r><>;L036;W6,+0-&r>++-6= {rn {rn {lfi {lhl n m mf o |
  1
2>+:-6>3r>;:,4r>++-6= {rn {klm {rn {lfh lhi o |
  1
9><: {kll {klk {klj {m {rn {kli 90-(>-; ,6183: |
  1
300/ {rn {klh {klg {lfh |
  1
<01:r,*-9><: {rn kqinhikojlojlnikj mqofllignlfkjkomgh rl nqglifhonfghmnomfh:roni n o nqngfjfnkimgnkigfh rmqngjmkkoijgkljkn:roni o n V V roqgglmilijkhhgnllim oqkigghiijlkkhllign nqngfjfnkimgnkigfh 90-(>-; V V V V |
  1
300/ {rn {rn {kmm {lhl |
  1
<0:;8: {rn {kmn {kmn {klf {kko -:):-,:; {lfg {rn |
  1
<0:;8: {rn {kmm {kmm {kon {kml 90-(>-; {kmo {rn |
  1
:;8: {rn {kkn {kkn {kmm {kkm 90-(>-; |
  1
):-+:' {rn {kol {kkl |
  1
:336/,:r<*-): {rn kqinhikojlojlnikj nqmljomhgmnfmighhl rl nqglifhonfghmnomfh:roni n o nqnhkofnngmohggjhj rmqnjihhojnmoiooohi:roni o n V V |
  1
/061+ {rn jqhfnhlnhnminojomi nqmokfhgkliilnkkmh rl |
  1
/061+ {rn hqnmkogolfgmgjgfoh mmqhkggmfjhkljhjf rl |
  1
<0:;8: {rn {kmg {kmg {kno {kmf -:):-,:; {kkk {rn |
  1
:;8: {rn {kkj {kkj {kno {kki 90-(>-; |
  1
/:-,*=:1+r><>;L036;W6,+0-&r>++-6= {rn {rn {knn {lfn n m lg o |
  1
/061+ {rn hqnmkogolfgmgjgfkm mlqkfffffflgjhhoof rl |
  1
/:-,*=:1+r><>;L036;W6,+0-&r>++-6= {rn {rn {kni {lfh n m lo o |
  1
2>+:-6>3r>;:,4r>++-6= {rn {kkh {rn {knh lhi o |
  1
9><: {kkg {kkf {kjo {m {rn {kjn 90-(>-; ,6183: |
  1
300/ {rn {kjm {kjl {knh |
  1
<01:r,*-9><: {rn kqinhikojlojlnikj mqnmffjmjllokkmnog rl nqglifhonfghmnomfh:roni n o nqnihhigflkfgoogj rmqnkjnjihlmjjoinm:roni o n V V o n nqnihhigflkfgoogj 90-(>-; V V V V |
  1
300/ {rn {rn {klf {lfh |
  1
<0:;8: {rn {klg {klg {kjk {kjj -:):-,:; {kng {rn |
  1
<0:;8: {rn {klf {klf {kmn {kko 90-(>-; {klh {rn |
  1
:;8: {rn {kji {kji {klf {kjh 90-(>-; |
  1
):-+:' {rn {kml {kjg |
  1
:336/,:r<*-): {rn kqinhikojlojlnikj mqojnhlkliojigknhj rl nqglifhonfghmnomfh:roni n o nqmnnknlffoikfmfkk rmqmmjllnlffnlikhon:roni o n V V |
  1
/061+ {rn jqhfnhlnhnminojomi nqmljomhgmnfmighhl rl |
  1
300/ {rn {kjf {kmg {kio |
  1
):-+:' {rn {kmf {kin |
  1
:336/,:r<*-): {rn kqinhikojlojlnikj jqomfjhooniomlmkff rl nqglifhonfghmnomfh:roni n o nqkmkjkmnkhlmhfmij rmqinigknkhnkilkilj:roni o n V V |
  1
/:-,*=:1+r><>;L036;W6,+0-&r>++-6= {rn {rn {kll {knh n m ln o |
  1
2>+:-6>3r>;:,4r>++-6= {rn {kim {rn {klk lhi o |
  1
9><: {kil {kik {kij {m {rn {kii 90-(>-; ,6183: |
  1
300/ {rn {kih {kig {klk |
  1
+0-*,r,*-9><: {rn kqinhikojlojlnikj mqllkimhnnlokihgjj rl nqglifhonfghmnomfh:roni n o nqnnfnokmgnhjgkiom oqnginkgllikhkijfih o o n 90-(>-;@) V V V V |
  1
300/ {rn {rn {kjk {knh |
  1
<0:;8: {rn {kjl {kjl {kif {kho -:):-,:; {klj {rn |
  1
<0:;8: {rn {kjk {kjk {klg {kjj 90-(>-; {kjm {rn |
  1
:;8: {rn {khn {khn {kjk {khm 90-(>-; |
  1
):-+:' {rn {kko {khl |
  1
:336/,:r<*-): {rn kqinhikojlojlnikj mqognhglhkjgilgjmm rl nqglifhonfghmnomfh:roni n o nqmnnknlffoikfmfkk rmqmmjllnlffnlikhon:roni o n V V |
  1
/061+ {rn jqgmfojkjmnngoflfj mqojnhlkliojigknhj rl |
  1
300/ {rn {rn {khk {kio |
  1
9><: {khj {lfn {kkk {m {rn {khi 90-(>-; ,6183: |
  1
/061+ {rn iqokmngmihhgjfjhnj jqomfjhooniomlmkmg rl |
  1
/:-,*=:1+r><>;L036;W6,+0-&r>++-6= {rn {rn {kkg {klk n m lm o |
  1
2>+:-6>3r>;:,4r>++-6= {rn {khh {rn {kkf lhi o |
  1
9><: {khg {khf {kgo {m {rn {kgn 90-(>-; ,6183: |
  1
300/ {rn {kgm {kgl {kkf |
  1
<01:r,*-9><: {rn kqinhikojlojlnikj lqlnimgfkogglnkjni rl nqglifhonfghmnomfh:roni n o nqmiihjfohikohgnji rmqlmiffgihmlmojllm:roni o n V V oqogfkjoonlfhlgglfig oqffjffnlnmhnlnjknn nqmiihjfohikohgnji 90-(>-; V V V V |
  1
300/ {rn {rn {kif {klk |
  1
<0:;8: {rn {kig {kig {kgk {kgj -:):-,:; {kjo {rn |
  1
<0:;8: {rn {kif {kif {kjl {kho 90-(>-; {kih {rn |
  1
:;8: {rn {kgi {kgi {kif {kgh 90-(>-; |
  1
):-+:' {rn {kjj {kgg |
  1
:336/,:r<*-): {rn kqinhikojlojlnikj mqnokfjmjllokkmnml rl nqglifhonfghmnomfh:roni n o nqnihhigflkfgoogj rmqnkjnjihlmjjoinm:roni o n V V |
  1
/061+ {rn jqgmfojkjmnngoflfj mqognhglhkjgilgjmm rl |
  1
<0:;8: {rn {khk {khk {kgf {kfo 90-(>-; {kjf {rn |
  1
2>+:-6>3r>;:,4r>++-6= {rn {kfn {rn {kio lhi o |
  1
<01:r,*-9><: {rn kqinhikojlojlnikj jqonkjkjlmllhjjmfn rl nqglifhonfghmnomfh:roni n o nqkmkjkmnkhlmhfmij rmqinigknkhnkilkilj:roni o n V V o n nqkmkjkmnkhlmhfmij 90-(>-; V V V V |
  1
/:-,*=:1+r><>;L036;W6,+0-&r>++-6= {rn {rn {kil {kkf n m ll o |
  1
2>+:-6>3r>;:,4r>++-6= {rn {kfm {rn {kik lhi o |
  1
9><: {kfl {kfk {kfj {m {rn {kfi 90-(>-; ,6183: |
  1
300/ {rn {kfh {kfg {kik |
  1
<01:r,*-9><: {rn kqinhikojlojlnikj kqnkonmgfglgokhjhj rl nqglifhonfghmnomfh:roni n o nqlilknillokhjojog rmqjokjjjnihjlmmjnm:roni o n V V oqgglmilijkhhgnkllf oqkigghiijlkkhlngkf nqlilknillokhjojog 90-(>-; V V V V |
  1
300/ {rn {rn {kgk {kkf |
  1
<0:;8: {rn {kgl {kgl {kff {joo -:):-,:; {kij {rn |
  1
<0:;8: {rn {kgk {kgk {kig {kgj 90-(>-; {kgm {rn |
  1
:;8: {rn {jon {jon {kgk {jom 90-(>-; |
  1
):-+:' {rn {kho {jol |
  1
:336/,:r<*-): {rn kqinhikojlojlnikj mqnjkfjmjllokkmofk rl nqglifhonfghmnomfh:roni n o nqnihhigflkfgoogj rmqnkjnjihlmjjoinm:roni o n V V |
  1
/061+ {rn jqhgjkofkijjnnhlon mqnokfjmjllokkmnml rl |
  1
<0:;8: {rn {kgf {kgf {khk {kfo -:):-,:; {jok {rn |
  1
:;8: {rn {joj {joj {khk {joi 90-(>-; |
  1
/:-,*=:1+r><>;L036;W6,+0-&r>++-6= {rn {rn {khj {kio n m lh o |
  1
/:-,*=:1+r><>;L036;W6,+0-&r>++-6= {rn {rn {khg {kik n m lk o |
  1
2>+:-6>3r>;:,4r>++-6= {rn {joh {rn {khf lhi o |
  1
9><: {jog {kio {jok {m {rn {jof 90-(>-; ,6183: |
  1
300/ {rn {jno {jnn {khf |
  1
<01:r,*-9><: {rn kqinhikojlojlnikj kqnihhgflffklgjinl rl nqglifhonfghmnomfh:roni n o nqlghmnfllghjhkgfi rmqjkgmgojgklghoon:roni o n V V o n nqlghmnfllghjhkgfi 90-(>-; V V V V |
  1
300/ {rn {rn {kff {kik |
  1
<0:;8: {rn {kfg {kfg {jnm {jnl -:):-,:; {kgo {rn |
  1
<0:;8: {rn {kff {kff {kgl {joo 90-(>-; {kfh {rn |
  1
:;8: {rn {jnk {jnk {kff {jnj 90-(>-; |
  1
):-+:' {rn {kgj {jni |
  1
:336/,:r<*-): {rn kqinhikojlojlnikj mqjojogjjjigkkmmni rl nqglifhonfghmnomfh:roni n o nqnflfokgloimlonfn rmqnflnihjflfiljiki:roni o n V V |
  1
/061+ {rn jqhgjkofkijjnnhlon mqnjkfjmjllokkmofk rl |
  1
300/ {rn {jnh {kgf {kfk |
  1
):-+:' {rn {kfo {jng |
  1
:336/,:r<*-): {rn kqinhikojlojlnikj kqfffjmoilohmhgnjl rl nqglifhonfghmnomfh:roni n o nqkmkjkmnkhlmhfmij rmqinigknkhnkilkilj:roni o n V V |
  1
/:-,*=:1+r><>;L036;W6,+0-&r>++-6= {rn {rn {kfl {khf n m lj o |
  1
2>+:-6>3r>;:,4r>++-6= {rn {jnf {rn {kfk lhi o |
  1
+0-*,r,*-9><: {rn kqinhikojlojlnikj kqioolnlkjmfnlfong rl nqglifhonfghmnomfh:roni n o nqmojhklgomokiikhg oqkjjmljnffllhimmjg o o n 90-(>-;@) V V V V |
  1
300/ {rn {rn {jnm {khf |
  1
<0:;8: {rn {jnn {jnn {jmo {jmn -:):-,:; {kfj {rn |
  1
<0:;8: {rn {jnm {jnm {kfg {jnl 90-(>-; {jno {rn |
  1
:;8: {rn {jmm {jmm {jnm {jml 90-(>-; |
  1
):-+:' {rn {joo {jmk |
  1
:336/,:r<*-): {rn kqinhikojlojlnikj kqnmhkflmiogngigni rl nqglifhonfghmnomfh:roni n o nqllfinllmmnfminmn rmqkiogmfhjoihhjonk:roni o n V V |
  1
/061+ {rn jqgnnjkjlinnjkiikn mqjojogjjjigkkmmni rl |
  1
300/ {rn {rn {jmo {kfk |
  1
/061+ {rn iqokmngmihhgjfjhnj kqfffjmoilohmhgogm rl |
  1
/:-,*=:1+r><>;L036;W6,+0-&r>++-6= {rn {rn {jog {kfk n m li o |
  1
<0:;8: {rn {jmo {jmo {jnn {jmn 90-(>-; {jnh {rn |
  1
:;8: {rn {jmj {jmj {jmo {jmi 90-(>-; |
  1
):-+:' {rn {jnl {jmh |
  1
:336/,:r<*-): {rn kqinhikojlojlnikj kqnjmhikhoihfogkok rl nqglifhonfghmnomfh:roni n o nqlghmnfllghjhkgfi rmqjkgmgojgklghoon:roni o n V V |
  1
/061+ {rn jqfjhmjlgjmhmkmjhn kqnmhkflmiogngigni rl |
  1
):-+:' {rn {jmn {jmg |
  1
:336/,:r<*-): {rn kqinhikojlojlnikj kqngmgnkofmogimhjn rl nqglifhonfghmnomfh:roni n o nqlghmnfllghjhkgfi rmqjkgmgojgklghoon:roni o n V V |
  1
/061+ {rn iqookgjfgifmgfnlki kqnjmhikhoihfoglll rl |
  1
/061+ {rn iqookgjfgifmgfnlki kqngmgnkofmogimig rl |
  0
ENDBLK
  5
1F8
330
1F0
100
AcDbEntity
  8
0
100
AcDbBlockEnd
  0
BLOCK
  5
6AF
330
6AE
100
AcDbEntity
  8
ASHADE
100
AcDbBlockBegin
  2
AVE_RENDER
 70
     0
 10
0.0
 20
0.0
 30
0.0
  3
AVE_RENDER
  1
AVE_RENDER
  0
ENDBLK
  5
6B0
330
6AE
100
AcDbEntity
  8
0
100
AcDbBlockEnd
  0
BLOCK
  5
6BA
330
6B9
100
AcDbEntity
  8
ASHADE
100
AcDbBlockBegin
  2
AVE_GLOBAL
 70
     0
 10
0.0
 20
0.0
 30
0.0
  3
AVE_GLOBAL
  1
AVE_GLOBAL
  0
ENDBLK
  5
6BB
330
6B9
100
AcDbEntity
  8
0
100
AcDbBlockEnd
  0
BLOCK
  5
8EB
330
8EA
100
AcDbEntity
  8
ASHADE
100
AcDbBlockBegin
  2
RM_SDB
 70
     2
 10
0.0
 20
0.0
 30
0.0
  3
RM_SDB
  1
RM_SDB
  0
ATTDEF
  5
8EC
330
8EA
100
AcDbEntity
  8
0
100
AcDbText
 10
0.0
 20
0.0
 30
0.0
 40
0.2
  1

100
AcDbAttributeDefinition
  3

  2
NAME
 70
     1
  0
ATTDEF
  5
8ED
330
8EA
100
AcDbEntity
  8
0
100
AcDbText
 10
0.0
 20
0.0
 30
0.0
 40
0.2
  1

100
AcDbAttributeDefinition
  3

  2
ACADCOLOR
 70
     1
  0
ATTDEF
  5
8EE
330
8EA
100
AcDbEntity
  8
0
100
AcDbText
 10
0.0
 20
0.0
 30
0.0
 40
0.2
  1

100
AcDbAttributeDefinition
  3

  2
COLOR
 70
     1
  0
ATTDEF
  5
8EF
330
8EA
100
AcDbEntity
  8
0
100
AcDbText
 10
0.0
 20
0.0
 30
0.0
 40
0.2
  1

100
AcDbAttributeDefinition
  3

  2
OPACITY
 70
     1
  0
ATTDEF
  5
8F0
330
8EA
100
AcDbEntity
  8
0
100
AcDbText
 10
0.0
 20
0.0
 30
0.0
 40
0.2
  1

100
AcDbAttributeDefinition
  3

  2
SURFACE
 70
     1
  0
ATTDEF
  5
8F1
330
8EA
100
AcDbEntity
  8
0
100
AcDbText
 10
0.0
 20
0.0
 30
0.0
 40
0.2
  1

100
AcDbAttributeDefinition
  3

  2
SURF1
 70
     1
  0
ATTDEF
  5
8F2
330
8EA
100
AcDbEntity
  8
0
100
AcDbText
 10
0.0
 20
0.0
 30
0.0
 40
0.2
  1

100
AcDbAttributeDefinition
  3

  2
SURF2
 70
     1
  0
ATTDEF
  5
8F3
330
8EA
100
AcDbEntity
  8
0
100
AcDbText
 10
0.0
 20
0.0
 30
0.0
 40
0.2
  1

100
AcDbAttributeDefinition
  3

  2
SURF3
 70
     1
  0
ATTDEF
  5
8F4
330
8EA
100
AcDbEntity
  8
0
100
AcDbText
 10
0.0
 20
0.0
 30
0.0
 40
0.2
  1

100
AcDbAttributeDefinition
  3

  2
SURF4
 70
     1
  0
ATTDEF
  5
8F5
330
8EA
100
AcDbEntity
  8
0
100
AcDbText
 10
0.0
 20
0.0
 30
0.0
 40
0.2
  1

100
AcDbAttributeDefinition
  3

  2
SHADINGRATE
 70
     1
  0
ATTDEF
  5
8F6
330
8EA
100
AcDbEntity
  8
0
100
AcDbText
 10
0.0
 20
0.0
 30
0.0
 40
0.2
  1

100
AcDbAttributeDefinition
  3

  2
DISPLACEMENT
 70
     1
  0
ATTDEF
  5
8F7
330
8EA
100
AcDbEntity
  8
0
100
AcDbText
 10
0.0
 20
0.0
 30
0.0
 40
0.2
  1

100
AcDbAttributeDefinition
  3

  2
DISP1
 70
     1
  0
ATTDEF
  5
8F8
330
8EA
100
AcDbEntity
  8
0
100
AcDbText
 10
0.0
 20
0.0
 30
0.0
 40
0.2
  1

100
AcDbAttributeDefinition
  3

  2
DISP2
 70
     1
  0
ATTDEF
  5
8F9
330
8EA
100
AcDbEntity
  8
0
100
AcDbText
 10
0.0
 20
0.0
 30
0.0
 40
0.2
  1

100
AcDbAttributeDefinition
  3

  2
DISP3
 70
     1
  0
ATTDEF
  5
8FA
330
8EA
100
AcDbEntity
  8
0
100
AcDbText
 10
0.0
 20
0.0
 30
0.0
 40
0.2
  1

100
AcDbAttributeDefinition
  3

  2
DISP4
 70
     1
  0
ATTDEF
  5
8FB
330
8EA
100
AcDbEntity
  8
0
100
AcDbText
 10
0.0
 20
0.0
 30
0.0
 40
0.2
  1

100
AcDbAttributeDefinition
  3

  2
DBOUND
 70
     1
  0
ATTDEF
  5
8FC
330
8EA
100
AcDbEntity
  8
0
100
AcDbText
 10
0.0
 20
0.0
 30
0.0
 40
0.2
  1

100
AcDbAttributeDefinition
  3

  2
SMOOTH
 70
     1
  0
ATTDEF
  5
8FD
330
8EA
100
AcDbEntity
  8
0
100
AcDbText
 10
0.0
 20
0.0
 30
0.0
 40
0.2
  1

100
AcDbAttributeDefinition
  3

  2
ATMOSHPERE
 70
     1
  0
ATTDEF
  5
8FE
330
8EA
100
AcDbEntity
  8
0
100
AcDbText
 10
0.0
 20
0.0
 30
0.0
 40
0.2
  1

100
AcDbAttributeDefinition
  3

  2
ATMO1
 70
     1
  0
ATTDEF
  5
8FF
330
8EA
100
AcDbEntity
  8
0
100
AcDbText
 10
0.0
 20
0.0
 30
0.0
 40
0.2
  1

100
AcDbAttributeDefinition
  3

  2
ATMO2
 70
     1
  0
ATTDEF
  5
900
330
8EA
100
AcDbEntity
  8
0
100
AcDbText
 10
0.0
 20
0.0
 30
0.0
 40
0.2
  1

100
AcDbAttributeDefinition
  3

  2
ATMO3
 70
     1
  0
ATTDEF
  5
901
330
8EA
100
AcDbEntity
  8
0
100
AcDbText
 10
0.0
 20
0.0
 30
0.0
 40
0.2
  1

100
AcDbAttributeDefinition
  3

  2
ATMO4
 70
     1
  0
ATTDEF
  5
902
330
8EA
100
AcDbEntity
  8
0
100
AcDbText
 10
0.0
 20
0.0
 30
0.0
 40
0.2
  1

100
AcDbAttributeDefinition
  3

  2
TCCORD
 70
     1
  0
ENDBLK
  5
903
330
8EA
100
AcDbEntity
  8
0
100
AcDbBlockEnd
  0
ENDSEC
  0
SECTION
  2
ENTITIES
  0
INSERT
  5
6B1
330
1F
100
AcDbEntity
  8
ASHADE
 62
     1
100
AcDbBlockReference
  2
AVE_RENDER
 10
0.0
 20
0.0
 30
0.0
1001
AVE_RENDER
1002
{
1070
     7
1000
Pref
1070
    50
1070
    20
1070
     1
1070
     0
1000

1070
    10
1070
     1
1070
    10
1040
1.0
1070
     1
1040
0.6999999880790711
1040
1.0
1040
0.2000000029802322
1040
2.0
1010
-1.0
1020
-1.0
1030
-1.0
1040
0.3000000119209289
1070
    49
1070
     0
1070
     0
1010
1.0
1020
1.0
1030
1.0
1040
45.0
1070
     1
1070
     0
1000
WCS
1040
0.0
1070
     0
1040
10.0
1002
}
  0
INSERT
  5
6B2
330
1F
100
AcDbEntity
  8
ASHADE
 62
     3
100
AcDbBlockReference
  2
AVE_RENDER
 10
0.0
 20
0.0
 30
0.0
1001
AVE_RENDER
1002
{
1070
     0
1000
Full Opt
1070
     0
1070
     1
1070
     1
1070
     1
1070
     0
1070
     0
1070
     0
1070
     1
1070
     1
1040
0.0001
1040
0.0001
1002
}
  0
INSERT
  5
6B3
330
1F
100
AcDbEntity
  8
ASHADE
 62
     4
100
AcDbBlockReference
  2
AVE_RENDER
 10
0.0
 20
0.0
 30
0.0
1001
AVE_RENDER
1002
{
1070
     0
1000
Quick Opt
1070
     0
1070
     1
1070
     1
1070
     1
1070
     0
1070
     0
1070
     1
1002
}
  0
INSERT
  5
6B4
330
1F
100
AcDbEntity
  8
ASHADE
 62
     5
100
AcDbBlockReference
  2
AVE_RENDER
 10
0.0
 20
0.0
 30
0.0
1001
AVE_RENDER
1002
{
1070
     1
1000
Scanl Opt
1070
     2
1070
     0
1070
     2
1040
2.0
1040
4.0
1070
     0
1070
     1
1070
     0
1040
0.03
1002
}
  0
INSERT
  5
6B5
330
1F
100
AcDbEntity
  8
ASHADE
 62
     6
100
AcDbBlockReference
  2
AVE_RENDER
 10
0.0
 20
0.0
 30
0.0
1001
AVE_RENDER
1002
{
1070
     2
1000
Raytr Opt
1070
     2
1070
     0
1070
     2
1040
2.0
1040
4.0
1070
     0
1070
     1
1070
     1
1040
0.03
1070
     3
1040
0.03
1002
}
  0
INSERT
  5
6B6
330
1F
100
AcDbEntity
  8
ASHADE
 62
     7
100
AcDbBlockReference
  2
AVE_RENDER
 10
0.0
 20
0.0
 30
0.0
1001
AVE_RENDER
1002
{
1070
     0
1000
RFile Opt
1070
     1
1070
   640
1070
   480
1070
 10000
1070
     1
1070
     8
1070
     8
1070
     0
1070
     0
1070
     0
1070
     0
1070
     0
1070
     0
1070
     0
1002
}
  0
INSERT
  5
6B7
330
1F
100
AcDbEntity
  8
ASHADE
 62
     8
100
AcDbBlockReference
  2
AVE_RENDER
 10
0.0
 20
0.0
 30
0.0
1001
AVE_RENDER
1002
{
1070
     0
1000
Fog Opt
1070
     0
1070
     0
1040
0.0
1040
1.0
1040
0.0
1040
1.0
1010
0.5
1020
0.5
1030
0.5
1002
}
  0
INSERT
  5
6B8
330
1F
100
AcDbEntity
  8
ASHADE
 62
     9
100
AcDbBlockReference
  2
AVE_RENDER
 10
0.0
 20
0.0
 30
0.0
1001
AVE_RENDER
1002
{
1070
     0
1000
BG Opt
1070
     0
1070
     0
1010
0.0
1020
0.0
1030
0.0
1010
1.0
1020
0.0
1030
0.0
1010
0.0
1020
1.0
1030
0.0
1010
0.0
1020
0.0
1030
1.0
1040
0.5
1040
0.5
1040
0.0
1000

1070
     1
1000

1070
     1
1070
     1
1040
1.0
1040
1.0
1040
0.0
1040
0.0
1070
     0
1002
}
  0
INSERT
  5
6BC
330
1F
100
AcDbEntity
  8
ASHADE
 62
     1
100
AcDbBlockReference
  2
AVE_GLOBAL
 10
0.0
 20
0.0
 30
0.0
1001
AVE_MATERIAL
1002
{
1000
*GLOBAL*
1000
2
1000
Global finish.
1002
{
1002
}
1002
{
1070
    63
1002
{
1002
{
1010
-1.0
1020
-1.0
1030
-1.0
1002
}
1040
0.6999999880790711
1000

1040
0.0
1002
{
1002
}
1040
0.0
1002
{
1002
}
1040
0.0
1002
}
1002
{
1002
{
1010
-1.0
1020
-1.0
1030
-1.0
1002
}
1040
1.0
1000

1040
0.0
1002
{
1002
}
1040
0.0
1002
{
1002
}
1040
0.0
1002
}
1002
{
1002
{
1010
-1.0
1020
-1.0
1030
-1.0
1002
}
1040
0.2000000029802322
1000

1040
0.0
1002
{
1002
}
1040
0.0
1002
{
1002
}
1040
0.0
1002
}
1002
{
1070
     0
1002
{
1070
     1
1002
{
1040
1.0
1040
1.0
1000

1040
0.0
1002
{
1002
}
1040
0.0
1002
{
1002
}
1040
0.0
1002
}
1002
}
1040
1.0
1040
0.0
1040
0.0
1002
}
1002
{
1040
1.0
1040
1.0
1000

1040
0.0
1002
{
1002
}
1040
0.0
1002
{
1002
}
1040
0.0
1002
}
1002
{
1040
0.5
1040
1.0
1000

1040
0.0
1002
{
1002
}
1040
0.0
1002
{
1002
}
1040
0.0
1002
}
1002
{
1070
     0
1040
0.0
1002
{
1002
}
1040
1.0
1002
{
1002
}
1040
0.0
1002
}
1002
{
1040
0.0
1002
{
1002
{
1010
0.0
1020
0.0
1030
0.0
1002
}
1040
1.0
1000

1040
0.0
1002
{
1002
}
1040
0.0
1002
{
1002
}
1040
0.0
1002
}
1002
}
1002
{
1002
{
1070
     1
1002
{
1040
0.0
1040
1.0
1000

1040
0.0
1002
{
1002
}
1040
0.0
1002
{
1002
}
1040
0.0
1002
}
1002
}
1040
0.0
1002
{
1002
}
1010
1.0
1020
0.0
1030
0.0
1010
0.0
1020
1.0
1030
0.0
1010
0.0
1020
0.0
1030
1.0
1070
     0
1002
}
1002
{
1002
{
1040
1.0
1040
1.0
1002
{
1070
     1
1002
{
1040
1.0
1040
1.0
1000

1040
0.0
1002
{
1002
}
1040
0.0
1002
{
1002
}
1040
0.0
1002
}
1002
}
1002
}
1070
     0
1040
0.0
1002
{
1002
}
1002
}
1002
{
1002
}
1002
}
1002
{
1071
        3
1070
     3
1070
     0
1002
{
1070
     2
1070
     0
1070
     0
1040
0.0
1002
}
1070
     0
1070
     2
1002
{
1002
}
1002
}
1002
{
1040
8030.0
1040
190.3000030517578
1040
0.3050000071525574
1040
228.0
1040
545.0
1040
14.0
1040
17.39999961853027
1040
0.4560000002384186
1002
}
1000

1002
}
  0
POLYLINE
  5
6D9
330
1F
100
AcDbEntity
  8
0
 62
     7
100
AcDbPolyFaceMesh
 66
     1
 10
0.0
 20
0.0
 30
0.0
 70
    64
 71
   177
 72
   350
1001
AVE_ENTITY_MATERIAL
1002
{
1000

1002
{
1071
        0
1070
     0
1070
     0
1002
{
1070
     0
1070
     0
1070
     0
1040
0.0
1002
}
1070
     0
1070
     0
1002
{
1002
}
1002
}
1002
{
1002
}
1002
{
1002
}
1011
0.0
1021
0.0
1031
0.0
1011
1.0
1021
0.0
1031
0.0
1011
0.0
1021
1.0
1031
0.0
1011
0.0
1021
0.0
1031
1.0
1002
}
  0
VERTEX
  5
6DA
330
6D9
100
AcDbEntity
  8
0
 62
     7
100
AcDbVertex
100
AcDbPolyFaceMeshVertex
 10
9.825611114501953
 20
4.190942287445068
 30
0.404854416847229
 70
   192
  0
VERTEX
  5
6DB
330
6D9
100
AcDbEntity
  8
0
 62
     7
100
AcDbVertex
100
AcDbPolyFaceMeshVertex
 10
9.965999603271484
 20
4.190942287445068
 30
0.3868671357631683
 70
   192
  0
VERTEX
  5
6DC
330
6D9
100
AcDbEntity
  8
0
 62
     7
100
AcDbVertex
100
AcDbPolyFaceMeshVertex
 10
10.48852348327637
 20
4.190942287445068
 30
0.404854416847229
 70
   192
  0
VERTEX
  5
6DD
330
6D9
100
AcDbEntity
  8
0
 62
     7
100
AcDbVertex
100
AcDbPolyFaceMeshVertex
 10
10.89017391204834
 20
4.190942287445068
 30
0.5
 70
   192
  0
VERTEX
  5
6DE
330
6D9
100
AcDbEntity
  8
0
 62
     7
100
AcDbVertex
100
AcDbPolyFaceMeshVertex
 10
8.640173912048339
 20
4.190942287445068
 30
0.5
 70
   192
  0
VERTEX
  5
6DF
330
6D9
100
AcDbEntity
  8
0
 62
     7
100
AcDbVertex
100
AcDbPolyFaceMeshVertex
 10
10.6289119720459
 20
4.190942287445068
 30
0.3868671357631683
 70
   192
  0
VERTEX
  5
6E0
330
6D9
100
AcDbEntity
  8
0
 62
     7
100
AcDbVertex
100
AcDbPolyFaceMeshVertex
 10
10.89017391204834
 20
4.190942287445068
 30
0.3948103785514831
 70
   192
  0
VERTEX
  5
6E1
330
6D9
100
AcDbEntity
  8
0
 62
     7
100
AcDbVertex
100
AcDbPolyFaceMeshVertex
 10
9.162698745727539
 20
4.190942287445068
 30
0.404854416847229
 70
   192
  0
VERTEX
  5
6E2
330
6D9
100
AcDbEntity
  8
0
 62
     7
100
AcDbVertex
100
AcDbPolyFaceMeshVertex
 10
9.30308723449707
 20
4.190942287445068
 30
0.3868671357631683
 70
   192
  0
VERTEX
  5
6E3
330
6D9
100
AcDbEntity
  8
0
 62
     7
100
AcDbVertex
100
AcDbPolyFaceMeshVertex
 10
8.640173912048339
 20
4.190942287445068
 30
0.3868671357631683
 70
   192
  0
VERTEX
  5
6E4
330
6D9
100
AcDbEntity
  8
0
 62
     7
100
AcDbVertex
100
AcDbPolyFaceMeshVertex
 10
8.640173912048339
 20
4.190942287445068
 30
0.375
 70
   192
  0
VERTEX
  5
6E5
330
6D9
100
AcDbEntity
  8
0
 62
     7
100
AcDbVertex
100
AcDbPolyFaceMeshVertex
 10
9.162698745727539
 20
4.190942287445068
 30
0.375
 70
   192
  0
VERTEX
  5
6E6
330
6D9
100
AcDbEntity
  8
0
 62
     7
100
AcDbVertex
100
AcDbPolyFaceMeshVertex
 10
9.30308723449707
 20
4.190942287445068
 30
0.375
 70
   192
  0
VERTEX
  5
6E7
330
6D9
100
AcDbEntity
  8
0
 62
     7
100
AcDbVertex
100
AcDbPolyFaceMeshVertex
 10
9.825611114501953
 20
4.190942287445068
 30
0.375
 70
   192
  0
VERTEX
  5
6E8
330
6D9
100
AcDbEntity
  8
0
 62
     7
100
AcDbVertex
100
AcDbPolyFaceMeshVertex
 10
9.965999603271484
 20
4.190942287445068
 30
0.375
 70
   192
  0
VERTEX
  5
6E9
330
6D9
100
AcDbEntity
  8
0
 62
     7
100
AcDbVertex
100
AcDbPolyFaceMeshVertex
 10
10.48852348327637
 20
4.190942287445068
 30
0.375
 70
   192
  0
VERTEX
  5
6EA
330
6D9
100
AcDbEntity
  8
0
 62
     7
100
AcDbVertex
100
AcDbPolyFaceMeshVertex
 10
10.6289119720459
 20
4.190942287445068
 30
0.375
 70
   192
  0
VERTEX
  5
6EB
330
6D9
100
AcDbEntity
  8
0
 62
     7
100
AcDbVertex
100
AcDbPolyFaceMeshVertex
 10
10.89017391204834
 20
5.115117073059082
 30
0.40625
 70
   192
  0
VERTEX
  5
6EC
330
6D9
100
AcDbEntity
  8
0
 62
     7
100
AcDbVertex
100
AcDbPolyFaceMeshVertex
 10
10.89017391204834
 20
5.778029441833496
 30
0.40625
 70
   192
  0
VERTEX
  5
6ED
330
6D9
100
AcDbEntity
  8
0
 62
     7
100
AcDbVertex
100
AcDbPolyFaceMeshVertex
 10
10.89017391204834
 20
6.440942287445068
 30
0.5
 70
   192
  0
VERTEX
  5
6EE
330
6D9
100
AcDbEntity
  8
0
 62
     7
100
AcDbVertex
100
AcDbPolyFaceMeshVertex
 10
10.89017391204834
 20
5.778029441833496
 30
0.375
 70
   192
  0
VERTEX
  5
6EF
330
6D9
100
AcDbEntity
  8
0
 62
     7
100
AcDbVertex
100
AcDbPolyFaceMeshVertex
 10
10.89017391204834
 20
6.440942287445068
 30
0.375
 70
   192
  0
VERTEX
  5
6F0
330
6D9
100
AcDbEntity
  8
0
 62
     7
100
AcDbVertex
100
AcDbPolyFaceMeshVertex
 10
10.89017391204834
 20
4.452204227447509
 30
0.40625
 70
   192
  0
VERTEX
  5
6F1
330
6D9
100
AcDbEntity
  8
0
 62
     7
100
AcDbVertex
100
AcDbPolyFaceMeshVertex
 10
10.89017391204834
 20
5.115117073059082
 30
0.375
 70
   192
  0
VERTEX
  5
6F2
330
6D9
100
AcDbEntity
  8
0
 62
     7
100
AcDbVertex
100
AcDbPolyFaceMeshVertex
 10
10.89017391204834
 20
4.452204227447509
 30
0.375
 70
   192
  0
VERTEX
  5
6F3
330
6D9
100
AcDbEntity
  8
0
 62
     7
100
AcDbVertex
100
AcDbPolyFaceMeshVertex
 10
8.901436805725097
 20
6.440942287445068
 30
0.40625
 70
   192
  0
VERTEX
  5
6F4
330
6D9
100
AcDbEntity
  8
0
 62
     7
100
AcDbVertex
100
AcDbPolyFaceMeshVertex
 10
8.640173912048339
 20
6.440942287445068
 30
0.5
 70
   192
  0
VERTEX
  5
6F5
330
6D9
100
AcDbEntity
  8
0
 62
     7
100
AcDbVertex
100
AcDbPolyFaceMeshVertex
 10
9.564349174499511
 20
6.440942287445068
 30
0.40625
 70
   192
  0
VERTEX
  5
6F6
330
6D9
100
AcDbEntity
  8
0
 62
     7
100
AcDbVertex
100
AcDbPolyFaceMeshVertex
 10
9.564349174499511
 20
6.440942287445068
 30
0.375
 70
   192
  0
VERTEX
  5
6F7
330
6D9
100
AcDbEntity
  8
0
 62
     7
100
AcDbVertex
100
AcDbPolyFaceMeshVertex
 10
8.901436805725097
 20
6.440942287445068
 30
0.375
 70
   192
  0
VERTEX
  5
6F8
330
6D9
100
AcDbEntity
  8
0
 62
     7
100
AcDbVertex
100
AcDbPolyFaceMeshVertex
 10
8.640173912048339
 20
6.440942287445068
 30
0.3948103785514831
 70
   192
  0
VERTEX
  5
6F9
330
6D9
100
AcDbEntity
  8
0
 62
     7
100
AcDbVertex
100
AcDbPolyFaceMeshVertex
 10
10.22726154327392
 20
6.440942287445068
 30
0.40625
 70
   192
  0
VERTEX
  5
6FA
330
6D9
100
AcDbEntity
  8
0
 62
     7
100
AcDbVertex
100
AcDbPolyFaceMeshVertex
 10
10.22726154327392
 20
6.440942287445068
 30
0.375
 70
   192
  0
VERTEX
  5
6FB
330
6D9
100
AcDbEntity
  8
0
 62
     7
100
AcDbVertex
100
AcDbPolyFaceMeshVertex
 10
8.640173912048339
 20
4.853854656219482
 30
0.404854416847229
 70
   192
  0
VERTEX
  5
6FC
330
6D9
100
AcDbEntity
  8
0
 62
     7
100
AcDbVertex
100
AcDbPolyFaceMeshVertex
 10
8.640173912048339
 20
5.376379013061523
 30
0.404854416847229
 70
   192
  0
VERTEX
  5
6FD
330
6D9
100
AcDbEntity
  8
0
 62
     7
100
AcDbVertex
100
AcDbPolyFaceMeshVertex
 10
8.640173912048339
 20
5.516767501831054
 30
0.3868671357631683
 70
   192
  0
VERTEX
  5
6FE
330
6D9
100
AcDbEntity
  8
0
 62
     7
100
AcDbVertex
100
AcDbPolyFaceMeshVertex
 10
8.640173912048339
 20
5.376379013061523
 30
0.3868671357631683
 70
   192
  0
VERTEX
  5
6FF
330
6D9
100
AcDbEntity
  8
0
 62
     7
100
AcDbVertex
100
AcDbPolyFaceMeshVertex
 10
8.640173912048339
 20
5.516767501831054
 30
0.375
 70
   192
  0
VERTEX
  5
700
330
6D9
100
AcDbEntity
  8
0
 62
     7
100
AcDbVertex
100
AcDbPolyFaceMeshVertex
 10
8.640173912048339
 20
6.179679870605468
 30
0.404854416847229
 70
   192
  0
VERTEX
  5
701
330
6D9
100
AcDbEntity
  8
0
 62
     7
100
AcDbVertex
100
AcDbPolyFaceMeshVertex
 10
8.640173912048339
 20
4.853854656219482
 30
0.375
 70
   192
  0
VERTEX
  5
702
330
6D9
100
AcDbEntity
  8
0
 62
     7
100
AcDbVertex
100
AcDbPolyFaceMeshVertex
 10
8.640173912048339
 20
6.179679870605468
 30
0.375
 70
   192
  0
VERTEX
  5
703
330
6D9
100
AcDbEntity
  8
0
 62
     7
100
AcDbVertex
100
AcDbPolyFaceMeshVertex
 10
8.265173912048339
 20
3.815942049026489
 30
0.0
 70
   192
  0
VERTEX
  5
704
330
6D9
100
AcDbEntity
  8
0
 62
     7
100
AcDbVertex
100
AcDbPolyFaceMeshVertex
 10
8.265173912048339
 20
6.815942287445068
 30
0.0
 70
   192
  0
VERTEX
  5
705
330
6D9
100
AcDbEntity
  8
0
 62
     7
100
AcDbVertex
100
AcDbPolyFaceMeshVertex
 10
8.265173912048339
 20
3.815942049026489
 30
0.5
 70
   192
  0
VERTEX
  5
706
330
6D9
100
AcDbEntity
  8
0
 62
     7
100
AcDbVertex
100
AcDbPolyFaceMeshVertex
 10
8.265173912048339
 20
6.815942287445068
 30
0.5
 70
   192
  0
VERTEX
  5
707
330
6D9
100
AcDbEntity
  8
0
 62
     7
100
AcDbVertex
100
AcDbPolyFaceMeshVertex
 10
11.26517391204834
 20
6.815942287445068
 30
0.0
 70
   192
  0
VERTEX
  5
708
330
6D9
100
AcDbEntity
  8
0
 62
     7
100
AcDbVertex
100
AcDbPolyFaceMeshVertex
 10
11.26517391204834
 20
6.815942287445068
 30
0.5
 70
   192
  0
VERTEX
  5
709
330
6D9
100
AcDbEntity
  8
0
 62
     7
100
AcDbVertex
100
AcDbPolyFaceMeshVertex
 10
11.26517391204834
 20
3.815942049026489
 30
0.0
 70
   192
  0
VERTEX
  5
70A
330
6D9
100
AcDbEntity
  8
0
 62
     7
100
AcDbVertex
100
AcDbPolyFaceMeshVertex
 10
11.26517391204834
 20
3.815942049026489
 30
0.5
 70
   192
  0
VERTEX
  5
70B
330
6D9
100
AcDbEntity
  8
0
 62
     7
100
AcDbVertex
100
AcDbPolyFaceMeshVertex
 10
8.727490425109863
 20
6.266995906829833
 30
0.3992173075675964
 70
   192
  0
VERTEX
  5
70C
330
6D9
100
AcDbEntity
  8
0
 62
     7
100
AcDbVertex
100
AcDbPolyFaceMeshVertex
 10
9.122525215148925
 20
5.99911880493164
 30
0.3923805058002472
 70
   192
  0
VERTEX
  5
70D
330
6D9
100
AcDbEntity
  8
0
 62
     7
100
AcDbVertex
100
AcDbPolyFaceMeshVertex
 10
9.067164421081542
 20
5.943757534027099
 30
0.3984634876251221
 70
   192
  0
VERTEX
  5
70E
330
6D9
100
AcDbEntity
  8
0
 62
     7
100
AcDbVertex
100
AcDbPolyFaceMeshVertex
 10
8.814613342285156
 20
6.354118824005126
 30
0.389261782169342
 70
   192
  0
VERTEX
  5
70F
330
6D9
100
AcDbEntity
  8
0
 62
     7
100
AcDbVertex
100
AcDbPolyFaceMeshVertex
 10
9.177777290344238
 20
6.054370403289794
 30
0.3845580518245697
 70
   192
  0
VERTEX
  5
710
330
6D9
100
AcDbEntity
  8
0
 62
     7
100
AcDbVertex
100
AcDbPolyFaceMeshVertex
 10
9.232892990112304
 20
6.109485626220703
 30
0.375
 70
   192
  0
VERTEX
  5
711
330
6D9
100
AcDbEntity
  8
0
 62
     7
100
AcDbVertex
100
AcDbPolyFaceMeshVertex
 10
8.924756050109863
 20
5.801348686218261
 30
0.4060960114002228
 70
   192
  0
VERTEX
  5
712
330
6D9
100
AcDbEntity
  8
0
 62
     7
100
AcDbVertex
100
AcDbPolyFaceMeshVertex
 10
8.782270431518554
 20
5.658864021301269
 30
0.4022263586521149
 70
   192
  0
VERTEX
  5
713
330
6D9
100
AcDbEntity
  8
0
 62
     7
100
AcDbVertex
100
AcDbPolyFaceMeshVertex
 10
9.01180362701416
 20
5.888396263122558
 30
0.3923805058002472
 70
   192
  0
VERTEX
  5
714
330
6D9
100
AcDbEntity
  8
0
 62
     7
100
AcDbVertex
100
AcDbPolyFaceMeshVertex
 10
8.956551551818847
 20
5.833144664764404
 30
0.3845580518245697
 70
   192
  0
VERTEX
  5
715
330
6D9
100
AcDbEntity
  8
0
 62
     7
100
AcDbVertex
100
AcDbPolyFaceMeshVertex
 10
8.901436805725097
 20
5.778029441833496
 30
0.375
 70
   192
  0
VERTEX
  5
716
330
6D9
100
AcDbEntity
  8
0
 62
     7
100
AcDbVertex
100
AcDbPolyFaceMeshVertex
 10
8.703829765319824
 20
5.312723636627197
 30
0.3951746523380279
 70
   192
  0
VERTEX
  5
717
330
6D9
100
AcDbEntity
  8
0
 62
     7
100
AcDbVertex
100
AcDbPolyFaceMeshVertex
 10
8.703883171081542
 20
5.31266975402832
 30
0.4011687636375428
 70
   192
  0
VERTEX
  5
718
330
6D9
100
AcDbEntity
  8
0
 62
     7
100
AcDbVertex
100
AcDbPolyFaceMeshVertex
 10
8.672037124633789
 20
5.344515800476074
 30
0.4032992124557496
 70
   192
  0
VERTEX
  5
719
330
6D9
100
AcDbEntity
  8
0
 62
     7
100
AcDbVertex
100
AcDbPolyFaceMeshVertex
 10
8.735708236694335
 20
5.280845165252685
 30
0.3984634876251221
 70
   192
  0
VERTEX
  5
71A
330
6D9
100
AcDbEntity
  8
0
 62
     7
100
AcDbVertex
100
AcDbPolyFaceMeshVertex
 10
8.671982765197753
 20
5.344570159912109
 30
0.39130899310112
 70
   192
  0
VERTEX
  5
71B
330
6D9
100
AcDbEntity
  8
0
 62
     7
100
AcDbVertex
100
AcDbPolyFaceMeshVertex
 10
8.791069030761718
 20
5.225483894348144
 30
0.3923805058002472
 70
   192
  0
VERTEX
  5
71C
330
6D9
100
AcDbEntity
  8
0
 62
     7
100
AcDbVertex
100
AcDbPolyFaceMeshVertex
 10
8.846321105957031
 20
5.170231819152832
 30
0.3845580518245697
 70
   192
  0
VERTEX
  5
71D
330
6D9
100
AcDbEntity
  8
0
 62
     7
100
AcDbVertex
100
AcDbPolyFaceMeshVertex
 10
8.901436805725097
 20
5.115117073059082
 30
0.375
 70
   192
  0
VERTEX
  5
71E
330
6D9
100
AcDbEntity
  8
0
 62
     7
100
AcDbVertex
100
AcDbPolyFaceMeshVertex
 10
8.814613342285156
 20
5.02829360961914
 30
0.389261782169342
 70
   192
  0
VERTEX
  5
71F
330
6D9
100
AcDbEntity
  8
0
 62
     7
100
AcDbVertex
100
AcDbPolyFaceMeshVertex
 10
8.727490425109863
 20
4.941170692443847
 30
0.3992173075675964
 70
   192
  0
VERTEX
  5
720
330
6D9
100
AcDbEntity
  8
0
 62
     7
100
AcDbVertex
100
AcDbPolyFaceMeshVertex
 10
9.122525215148925
 20
4.673293590545654
 30
0.3923805058002472
 70
   192
  0
VERTEX
  5
721
330
6D9
100
AcDbEntity
  8
0
 62
     7
100
AcDbVertex
100
AcDbPolyFaceMeshVertex
 10
9.067164421081542
 20
4.617932319641113
 30
0.3984634876251221
 70
   192
  0
VERTEX
  5
722
330
6D9
100
AcDbEntity
  8
0
 62
     7
100
AcDbVertex
100
AcDbPolyFaceMeshVertex
 10
9.177777290344238
 20
4.728545188903808
 30
0.3845580518245697
 70
   192
  0
VERTEX
  5
723
330
6D9
100
AcDbEntity
  8
0
 62
     7
100
AcDbVertex
100
AcDbPolyFaceMeshVertex
 10
9.232892990112304
 20
4.783660411834716
 30
0.375
 70
   192
  0
VERTEX
  5
724
330
6D9
100
AcDbEntity
  8
0
 62
     7
100
AcDbVertex
100
AcDbPolyFaceMeshVertex
 10
8.924756050109863
 20
4.475523471832275
 30
0.4060960114002228
 70
   192
  0
VERTEX
  5
725
330
6D9
100
AcDbEntity
  8
0
 62
     7
100
AcDbVertex
100
AcDbPolyFaceMeshVertex
 10
8.782270431518554
 20
4.333038806915283
 30
0.4022263586521149
 70
   192
  0
VERTEX
  5
726
330
6D9
100
AcDbEntity
  8
0
 62
     7
100
AcDbVertex
100
AcDbPolyFaceMeshVertex
 10
10.55871772766113
 20
6.109485626220703
 30
0.375
 70
   192
  0
VERTEX
  5
727
330
6D9
100
AcDbEntity
  8
0
 62
     7
100
AcDbVertex
100
AcDbPolyFaceMeshVertex
 10
10.44859600067138
 20
6.219607830047607
 30
0.3923497200012207
 70
   192
  0
VERTEX
  5
728
330
6D9
100
AcDbEntity
  8
0
 62
     7
100
AcDbVertex
100
AcDbPolyFaceMeshVertex
 10
10.33803749084472
 20
6.330165863037109
 30
0.4027732014656067
 70
   192
  0
VERTEX
  5
729
330
6D9
100
AcDbEntity
  8
0
 62
     7
100
AcDbVertex
100
AcDbPolyFaceMeshVertex
 10
9.895805358886718
 20
6.109485626220703
 30
0.375
 70
   192
  0
VERTEX
  5
72A
330
6D9
100
AcDbEntity
  8
0
 62
     7
100
AcDbVertex
100
AcDbPolyFaceMeshVertex
 10
9.785682678222656
 20
6.219607830047607
 30
0.3923497200012207
 70
   192
  0
VERTEX
  5
72B
330
6D9
100
AcDbEntity
  8
0
 62
     7
100
AcDbVertex
100
AcDbPolyFaceMeshVertex
 10
9.675125122070312
 20
6.330165863037109
 30
0.4027732014656067
 70
   192
  0
VERTEX
  5
72C
330
6D9
100
AcDbEntity
  8
0
 62
     7
100
AcDbVertex
100
AcDbPolyFaceMeshVertex
 10
9.122770309448242
 20
6.219607830047607
 30
0.3923497200012207
 70
   192
  0
VERTEX
  5
72D
330
6D9
100
AcDbEntity
  8
0
 62
     7
100
AcDbVertex
100
AcDbPolyFaceMeshVertex
 10
9.012212753295898
 20
6.330165863037109
 30
0.4027732014656067
 70
   192
  0
VERTEX
  5
72E
330
6D9
100
AcDbEntity
  8
0
 62
     7
100
AcDbVertex
100
AcDbPolyFaceMeshVertex
 10
10.71582221984863
 20
4.277852058410644
 30
0.3976310193538666
 70
   192
  0
VERTEX
  5
72F
330
6D9
100
AcDbEntity
  8
0
 62
     7
100
AcDbVertex
100
AcDbPolyFaceMeshVertex
 10
10.80294513702392
 20
4.364974975585937
 30
0.4040946066379548
 70
   192
  0
VERTEX
  5
730
330
6D9
100
AcDbEntity
  8
0
 62
     7
100
AcDbVertex
100
AcDbPolyFaceMeshVertex
 10
10.28237628936767
 20
4.507319450378417
 30
0.3845580518245697
 70
   192
  0
VERTEX
  5
731
330
6D9
100
AcDbEntity
  8
0
 62
     7
100
AcDbVertex
100
AcDbPolyFaceMeshVertex
 10
10.33762836456299
 20
4.562571048736572
 30
0.3923805058002472
 70
   192
  0
VERTEX
  5
732
330
6D9
100
AcDbEntity
  8
0
 62
     7
100
AcDbVertex
100
AcDbPolyFaceMeshVertex
 10
10.39299011230468
 20
4.617932319641113
 30
0.3984634876251221
 70
   192
  0
VERTEX
  5
733
330
6D9
100
AcDbEntity
  8
0
 62
     7
100
AcDbVertex
100
AcDbPolyFaceMeshVertex
 10
10.55896377563476
 20
4.783906459808349
 30
0.4062499701976777
 70
   192
  0
VERTEX
  5
734
330
6D9
100
AcDbEntity
  8
0
 62
     7
100
AcDbVertex
100
AcDbPolyFaceMeshVertex
 10
10.72493648529053
 20
4.949879169464111
 30
0.3984172642230987
 70
   192
  0
VERTEX
  5
735
330
6D9
100
AcDbEntity
  8
0
 62
     7
100
AcDbVertex
100
AcDbPolyFaceMeshVertex
 10
10.22726154327392
 20
4.452204227447509
 30
0.375
 70
   192
  0
VERTEX
  5
736
330
6D9
100
AcDbEntity
  8
0
 62
     7
100
AcDbVertex
100
AcDbPolyFaceMeshVertex
 10
10.77980709075927
 20
5.225483894348144
 30
0.3923805058002472
 70
   192
  0
VERTEX
  5
737
330
6D9
100
AcDbEntity
  8
0
 62
     7
100
AcDbVertex
100
AcDbPolyFaceMeshVertex
 10
10.77964401245117
 20
5.225647449493408
 30
0.4027886092662812
 70
   192
  0
VERTEX
  5
738
330
6D9
100
AcDbEntity
  8
0
 62
     7
100
AcDbVertex
100
AcDbPolyFaceMeshVertex
 10
10.83489513397217
 20
5.170395851135253
 30
0.4053845405578614
 70
   192
  0
VERTEX
  5
739
330
6D9
100
AcDbEntity
  8
0
 62
     7
100
AcDbVertex
100
AcDbPolyFaceMeshVertex
 10
10.72444629669189
 20
5.280845165252685
 30
0.3984634876251221
 70
   192
  0
VERTEX
  5
73A
330
6D9
100
AcDbEntity
  8
0
 62
     7
100
AcDbVertex
100
AcDbPolyFaceMeshVertex
 10
10.83505916595459
 20
5.170231819152832
 30
0.3845580518245697
 70
   192
  0
VERTEX
  5
73B
330
6D9
100
AcDbEntity
  8
0
 62
     7
100
AcDbVertex
100
AcDbPolyFaceMeshVertex
 10
10.66908454895019
 20
5.336205959320068
 30
0.3923805058002472
 70
   192
  0
VERTEX
  5
73C
330
6D9
100
AcDbEntity
  8
0
 62
     7
100
AcDbVertex
100
AcDbPolyFaceMeshVertex
 10
10.6138334274292
 20
5.39145803451538
 30
0.3845580518245697
 70
   192
  0
VERTEX
  5
73D
330
6D9
100
AcDbEntity
  8
0
 62
     7
100
AcDbVertex
100
AcDbPolyFaceMeshVertex
 10
10.55871772766113
 20
5.446573257446289
 30
0.375
 70
   192
  0
VERTEX
  5
73E
330
6D9
100
AcDbEntity
  8
0
 62
     7
100
AcDbVertex
100
AcDbPolyFaceMeshVertex
 10
10.66884040832519
 20
5.556695461273193
 30
0.3923497200012207
 70
   192
  0
VERTEX
  5
73F
330
6D9
100
AcDbEntity
  8
0
 62
     7
100
AcDbVertex
100
AcDbPolyFaceMeshVertex
 10
10.77939796447754
 20
5.667253494262695
 30
0.4027732014656067
 70
   192
  0
VERTEX
  5
740
330
6D9
100
AcDbEntity
  8
0
 62
     7
100
AcDbVertex
100
AcDbPolyFaceMeshVertex
 10
10.39299011230468
 20
5.943757534027099
 30
0.3984634876251221
 70
   192
  0
VERTEX
  5
741
330
6D9
100
AcDbEntity
  8
0
 62
     7
100
AcDbVertex
100
AcDbPolyFaceMeshVertex
 10
10.55896377563476
 20
6.109731674194335
 30
0.4062499701976777
 70
   192
  0
VERTEX
  5
742
330
6D9
100
AcDbEntity
  8
0
 62
     7
100
AcDbVertex
100
AcDbPolyFaceMeshVertex
 10
10.28237628936767
 20
5.833144664764404
 30
0.3845580518245697
 70
   192
  0
VERTEX
  5
743
330
6D9
100
AcDbEntity
  8
0
 62
     7
100
AcDbVertex
100
AcDbPolyFaceMeshVertex
 10
10.22726154327392
 20
5.778029441833496
 30
0.375
 70
   192
  0
VERTEX
  5
744
330
6D9
100
AcDbEntity
  8
0
 62
     7
100
AcDbVertex
100
AcDbPolyFaceMeshVertex
 10
10.33762836456299
 20
5.888396263122558
 30
0.3923805058002472
 70
   192
  0
VERTEX
  5
745
330
6D9
100
AcDbEntity
  8
0
 62
     7
100
AcDbVertex
100
AcDbPolyFaceMeshVertex
 10
10.72493648529053
 20
6.275704383850097
 30
0.3984172642230987
 70
   192
  0
VERTEX
  5
746
330
6D9
100
AcDbEntity
  8
0
 62
     7
100
AcDbVertex
100
AcDbPolyFaceMeshVertex
 10
10.44835090637207
 20
5.99911880493164
 30
0.3923805058002472
 70
   192
  0
VERTEX
  5
747
330
6D9
100
AcDbEntity
  8
0
 62
     7
100
AcDbVertex
100
AcDbPolyFaceMeshVertex
 10
10.50360298156738
 20
6.054370403289794
 30
0.3845580518245697
 70
   192
  0
VERTEX
  5
748
330
6D9
100
AcDbEntity
  8
0
 62
     7
100
AcDbVertex
100
AcDbPolyFaceMeshVertex
 10
10.06202411651611
 20
6.275704383850097
 30
0.3984172642230987
 70
   192
  0
VERTEX
  5
749
330
6D9
100
AcDbEntity
  8
0
 62
     7
100
AcDbVertex
100
AcDbPolyFaceMeshVertex
 10
9.896051406860351
 20
6.109731674194335
 30
0.4062499701976777
 70
   192
  0
VERTEX
  5
74A
330
6D9
100
AcDbEntity
  8
0
 62
     7
100
AcDbVertex
100
AcDbPolyFaceMeshVertex
 10
9.730076789855957
 20
5.943757534027099
 30
0.3984634876251221
 70
   192
  0
VERTEX
  5
74B
330
6D9
100
AcDbEntity
  8
0
 62
     7
100
AcDbVertex
100
AcDbPolyFaceMeshVertex
 10
9.785438537597656
 20
5.99911880493164
 30
0.3923805058002472
 70
   192
  0
VERTEX
  5
74C
330
6D9
100
AcDbEntity
  8
0
 62
     7
100
AcDbVertex
100
AcDbPolyFaceMeshVertex
 10
9.840689659118652
 20
6.054370403289794
 30
0.3845580518245697
 70
   192
  0
VERTEX
  5
74D
330
6D9
100
AcDbEntity
  8
0
 62
     7
100
AcDbVertex
100
AcDbPolyFaceMeshVertex
 10
10.22701549530029
 20
5.777783870697021
 30
0.4062499701976777
 70
   192
  0
VERTEX
  5
74E
330
6D9
100
AcDbEntity
  8
0
 62
     7
100
AcDbVertex
100
AcDbPolyFaceMeshVertex
 10
10.06104278564453
 20
5.611810684204101
 30
0.3984172642230987
 70
   192
  0
VERTEX
  5
74F
330
6D9
100
AcDbEntity
  8
0
 62
     7
100
AcDbVertex
100
AcDbPolyFaceMeshVertex
 10
9.895805358886718
 20
5.446573257446289
 30
0.375
 70
   192
  0
VERTEX
  5
750
330
6D9
100
AcDbEntity
  8
0
 62
     7
100
AcDbVertex
100
AcDbPolyFaceMeshVertex
 10
9.619463920593261
 20
5.833144664764404
 30
0.3845580518245697
 70
   192
  0
VERTEX
  5
751
330
6D9
100
AcDbEntity
  8
0
 62
     7
100
AcDbVertex
100
AcDbPolyFaceMeshVertex
 10
9.564349174499511
 20
5.778029441833496
 30
0.375
 70
   192
  0
VERTEX
  5
752
330
6D9
100
AcDbEntity
  8
0
 62
     7
100
AcDbVertex
100
AcDbPolyFaceMeshVertex
 10
9.674715995788574
 20
5.888396263122558
 30
0.3923805058002472
 70
   192
  0
VERTEX
  5
753
330
6D9
100
AcDbEntity
  8
0
 62
     7
100
AcDbVertex
100
AcDbPolyFaceMeshVertex
 10
9.399111747741699
 20
6.275704383850097
 30
0.3984172642230987
 70
   192
  0
VERTEX
  5
754
330
6D9
100
AcDbEntity
  8
0
 62
     7
100
AcDbVertex
100
AcDbPolyFaceMeshVertex
 10
9.233138084411621
 20
6.109731674194335
 30
0.4062499701976777
 70
   192
  0
VERTEX
  5
755
330
6D9
100
AcDbEntity
  8
0
 62
     7
100
AcDbVertex
100
AcDbPolyFaceMeshVertex
 10
9.564103126525878
 20
5.777783870697021
 30
0.4062499701976777
 70
   192
  0
VERTEX
  5
756
330
6D9
100
AcDbEntity
  8
0
 62
     7
100
AcDbVertex
100
AcDbPolyFaceMeshVertex
 10
9.398130416870117
 20
5.611810684204101
 30
0.3984172642230987
 70
   192
  0
VERTEX
  5
757
330
6D9
100
AcDbEntity
  8
0
 62
     7
100
AcDbVertex
100
AcDbPolyFaceMeshVertex
 10
9.232892990112304
 20
5.446573257446289
 30
0.375
 70
   192
  0
VERTEX
  5
758
330
6D9
100
AcDbEntity
  8
0
 62
     7
100
AcDbVertex
100
AcDbPolyFaceMeshVertex
 10
10.22750759124756
 20
5.114871025085449
 30
0.4062499701976777
 70
   192
  0
VERTEX
  5
759
330
6D9
100
AcDbEntity
  8
0
 62
     7
100
AcDbVertex
100
AcDbPolyFaceMeshVertex
 10
10.39348030090332
 20
4.948898315429687
 30
0.3984172642230987
 70
   192
  0
VERTEX
  5
75A
330
6D9
100
AcDbEntity
  8
0
 62
     7
100
AcDbVertex
100
AcDbPolyFaceMeshVertex
 10
10.22726154327392
 20
5.115117073059082
 30
0.375
 70
   192
  0
VERTEX
  5
75B
330
6D9
100
AcDbEntity
  8
0
 62
     7
100
AcDbVertex
100
AcDbPolyFaceMeshVertex
 10
10.55871772766113
 20
4.783660411834716
 30
0.375
 70
   192
  0
VERTEX
  5
75C
330
6D9
100
AcDbEntity
  8
0
 62
     7
100
AcDbVertex
100
AcDbPolyFaceMeshVertex
 10
10.17214679718017
 20
5.170231819152832
 30
0.3845580518245697
 70
   192
  0
VERTEX
  5
75D
330
6D9
100
AcDbEntity
  8
0
 62
     7
100
AcDbVertex
100
AcDbPolyFaceMeshVertex
 10
10.11689472198486
 20
5.225483894348144
 30
0.3923805058002472
 70
   192
  0
VERTEX
  5
75E
330
6D9
100
AcDbEntity
  8
0
 62
     7
100
AcDbVertex
100
AcDbPolyFaceMeshVertex
 10
10.06153297424316
 20
5.280845165252685
 30
0.3984634876251221
 70
   192
  0
VERTEX
  5
75F
330
6D9
100
AcDbEntity
  8
0
 62
     7
100
AcDbVertex
100
AcDbPolyFaceMeshVertex
 10
10.39249897003174
 20
5.612792015075683
 30
0.3984172642230987
 70
   192
  0
VERTEX
  5
760
330
6D9
100
AcDbEntity
  8
0
 62
     7
100
AcDbVertex
100
AcDbPolyFaceMeshVertex
 10
10.00617218017578
 20
5.336205959320068
 30
0.3923805058002472
 70
   192
  0
VERTEX
  5
761
330
6D9
100
AcDbEntity
  8
0
 62
     7
100
AcDbVertex
100
AcDbPolyFaceMeshVertex
 10
10.5584716796875
 20
5.446818828582763
 30
0.4062499701976777
 70
   192
  0
VERTEX
  5
762
330
6D9
100
AcDbEntity
  8
0
 62
     7
100
AcDbVertex
100
AcDbPolyFaceMeshVertex
 10
9.950920104980468
 20
5.39145803451538
 30
0.3845580518245697
 70
   192
  0
VERTEX
  5
763
330
6D9
100
AcDbEntity
  8
0
 62
     7
100
AcDbVertex
100
AcDbPolyFaceMeshVertex
 10
9.895559310913085
 20
5.446818828582763
 30
0.4062499701976777
 70
   192
  0
VERTEX
  5
764
330
6D9
100
AcDbEntity
  8
0
 62
     7
100
AcDbVertex
100
AcDbPolyFaceMeshVertex
 10
9.729586601257324
 20
5.612792015075683
 30
0.3984172642230987
 70
   192
  0
VERTEX
  5
765
330
6D9
100
AcDbEntity
  8
0
 62
     7
100
AcDbVertex
100
AcDbPolyFaceMeshVertex
 10
9.564594268798828
 20
5.114871025085449
 30
0.4062499701976777
 70
   192
  0
VERTEX
  5
766
330
6D9
100
AcDbEntity
  8
0
 62
     7
100
AcDbVertex
100
AcDbPolyFaceMeshVertex
 10
9.730567932128906
 20
4.948898315429687
 30
0.3984172642230987
 70
   192
  0
VERTEX
  5
767
330
6D9
100
AcDbEntity
  8
0
 62
     7
100
AcDbVertex
100
AcDbPolyFaceMeshVertex
 10
9.564349174499511
 20
5.115117073059082
 30
0.375
 70
   192
  0
VERTEX
  5
768
330
6D9
100
AcDbEntity
  8
0
 62
     7
100
AcDbVertex
100
AcDbPolyFaceMeshVertex
 10
9.895805358886718
 20
4.783660411834716
 30
0.375
 70
   192
  0
VERTEX
  5
769
330
6D9
100
AcDbEntity
  8
0
 62
     7
100
AcDbVertex
100
AcDbPolyFaceMeshVertex
 10
9.509233474731445
 20
5.170231819152832
 30
0.3845580518245697
 70
   192
  0
VERTEX
  5
76A
330
6D9
100
AcDbEntity
  8
0
 62
     7
100
AcDbVertex
100
AcDbPolyFaceMeshVertex
 10
9.453982353210449
 20
5.225483894348144
 30
0.3923805058002472
 70
   192
  0
VERTEX
  5
76B
330
6D9
100
AcDbEntity
  8
0
 62
     7
100
AcDbVertex
100
AcDbPolyFaceMeshVertex
 10
9.39862060546875
 20
5.280845165252685
 30
0.3984634876251221
 70
   192
  0
VERTEX
  5
76C
330
6D9
100
AcDbEntity
  8
0
 62
     7
100
AcDbVertex
100
AcDbPolyFaceMeshVertex
 10
9.343259811401367
 20
5.336205959320068
 30
0.3923805058002472
 70
   192
  0
VERTEX
  5
76D
330
6D9
100
AcDbEntity
  8
0
 62
     7
100
AcDbVertex
100
AcDbPolyFaceMeshVertex
 10
9.288007736206054
 20
5.39145803451538
 30
0.3845580518245697
 70
   192
  0
VERTEX
  5
76E
330
6D9
100
AcDbEntity
  8
0
 62
     7
100
AcDbVertex
100
AcDbPolyFaceMeshVertex
 10
9.232646942138671
 20
5.446818828582763
 30
0.4062499701976777
 70
   192
  0
VERTEX
  5
76F
330
6D9
100
AcDbEntity
  8
0
 62
     7
100
AcDbVertex
100
AcDbPolyFaceMeshVertex
 10
9.06667423248291
 20
5.612792015075683
 30
0.3984172642230987
 70
   192
  0
VERTEX
  5
770
330
6D9
100
AcDbEntity
  8
0
 62
     7
100
AcDbVertex
100
AcDbPolyFaceMeshVertex
 10
8.901681900024414
 20
5.114871025085449
 30
0.4062499701976777
 70
   192
  0
VERTEX
  5
771
330
6D9
100
AcDbEntity
  8
0
 62
     7
100
AcDbVertex
100
AcDbPolyFaceMeshVertex
 10
9.067654609680175
 20
4.948898315429687
 30
0.3984172642230987
 70
   192
  0
VERTEX
  5
772
330
6D9
100
AcDbEntity
  8
0
 62
     7
100
AcDbVertex
100
AcDbPolyFaceMeshVertex
 10
10.44835090637207
 20
4.673293590545654
 30
0.3923805058002472
 70
   192
  0
VERTEX
  5
773
330
6D9
100
AcDbEntity
  8
0
 62
     7
100
AcDbVertex
100
AcDbPolyFaceMeshVertex
 10
10.50360298156738
 20
4.728545188903808
 30
0.3845580518245697
 70
   192
  0
VERTEX
  5
774
330
6D9
100
AcDbEntity
  8
0
 62
     7
100
AcDbVertex
100
AcDbPolyFaceMeshVertex
 10
10.06202411651611
 20
4.949879169464111
 30
0.3984172642230987
 70
   192
  0
VERTEX
  5
775
330
6D9
100
AcDbEntity
  8
0
 62
     7
100
AcDbVertex
100
AcDbPolyFaceMeshVertex
 10
9.896051406860351
 20
4.783906459808349
 30
0.4062499701976777
 70
   192
  0
VERTEX
  5
776
330
6D9
100
AcDbEntity
  8
0
 62
     7
100
AcDbVertex
100
AcDbPolyFaceMeshVertex
 10
9.730076789855957
 20
4.617932319641113
 30
0.3984634876251221
 70
   192
  0
VERTEX
  5
777
330
6D9
100
AcDbEntity
  8
0
 62
     7
100
AcDbVertex
100
AcDbPolyFaceMeshVertex
 10
9.785438537597656
 20
4.673293590545654
 30
0.3923805058002472
 70
   192
  0
VERTEX
  5
778
330
6D9
100
AcDbEntity
  8
0
 62
     7
100
AcDbVertex
100
AcDbPolyFaceMeshVertex
 10
9.840689659118652
 20
4.728545188903808
 30
0.3845580518245697
 70
   192
  0
VERTEX
  5
779
330
6D9
100
AcDbEntity
  8
0
 62
     7
100
AcDbVertex
100
AcDbPolyFaceMeshVertex
 10
9.619463920593261
 20
4.507319450378417
 30
0.3845580518245697
 70
   192
  0
VERTEX
  5
77A
330
6D9
100
AcDbEntity
  8
0
 62
     7
100
AcDbVertex
100
AcDbPolyFaceMeshVertex
 10
9.674715995788574
 20
4.562571048736572
 30
0.3923805058002472
 70
   192
  0
VERTEX
  5
77B
330
6D9
100
AcDbEntity
  8
0
 62
     7
100
AcDbVertex
100
AcDbPolyFaceMeshVertex
 10
10.25058078765869
 20
4.475523471832275
 30
0.4060960114002228
 70
   192
  0
VERTEX
  5
77C
330
6D9
100
AcDbEntity
  8
0
 62
     7
100
AcDbVertex
100
AcDbPolyFaceMeshVertex
 10
10.1080961227417
 20
4.333038806915283
 30
0.4022263586521149
 70
   192
  0
VERTEX
  5
77D
330
6D9
100
AcDbEntity
  8
0
 62
     7
100
AcDbVertex
100
AcDbPolyFaceMeshVertex
 10
9.564349174499511
 20
4.452204227447509
 30
0.375
 70
   192
  0
VERTEX
  5
77E
330
6D9
100
AcDbEntity
  8
0
 62
     7
100
AcDbVertex
100
AcDbPolyFaceMeshVertex
 10
9.399111747741699
 20
4.949879169464111
 30
0.3984172642230987
 70
   192
  0
VERTEX
  5
77F
330
6D9
100
AcDbEntity
  8
0
 62
     7
100
AcDbVertex
100
AcDbPolyFaceMeshVertex
 10
9.233138084411621
 20
4.783906459808349
 30
0.4062499701976777
 70
   192
  0
VERTEX
  5
780
330
6D9
100
AcDbEntity
  8
0
 62
     7
100
AcDbVertex
100
AcDbPolyFaceMeshVertex
 10
8.956551551818847
 20
4.507319450378417
 30
0.3845580518245697
 70
   192
  0
VERTEX
  5
781
330
6D9
100
AcDbEntity
  8
0
 62
     7
100
AcDbVertex
100
AcDbPolyFaceMeshVertex
 10
9.01180362701416
 20
4.562571048736572
 30
0.3923805058002472
 70
   192
  0
VERTEX
  5
782
330
6D9
100
AcDbEntity
  8
0
 62
     7
100
AcDbVertex
100
AcDbPolyFaceMeshVertex
 10
9.587668418884277
 20
4.475523471832275
 30
0.4060960114002228
 70
   192
  0
VERTEX
  5
783
330
6D9
100
AcDbEntity
  8
0
 62
     7
100
AcDbVertex
100
AcDbPolyFaceMeshVertex
 10
9.445183753967285
 20
4.333038806915283
 30
0.4022263586521149
 70
   192
  0
VERTEX
  5
784
330
6D9
100
AcDbEntity
  8
0
 62
     7
100
AcDbVertex
100
AcDbPolyFaceMeshVertex
 10
8.901436805725097
 20
4.452204227447509
 30
0.375
 70
   192
  0
VERTEX
  5
785
330
6D9
100
AcDbEntity
  8
0
 62
     7
100
AcDbVertex
100
AcDbPolyFaceMeshVertex
 10
10.31408500671386
 20
4.365381240844726
 30
0.389261782169342
 70
   192
  0
VERTEX
  5
786
330
6D9
100
AcDbEntity
  8
0
 62
     7
100
AcDbVertex
100
AcDbPolyFaceMeshVertex
 10
10.40120792388916
 20
4.278257846832275
 30
0.3992173075675964
 70
   192
  0
VERTEX
  5
787
330
6D9
100
AcDbEntity
  8
0
 62
     7
100
AcDbVertex
100
AcDbPolyFaceMeshVertex
 10
9.738295555114746
 20
4.278257846832275
 30
0.3992173075675964
 70
   192
  0
VERTEX
  5
788
330
6D9
100
AcDbEntity
  8
0
 62
     7
100
AcDbVertex
100
AcDbPolyFaceMeshVertex
 10
9.651172637939453
 20
4.365381240844726
 30
0.389261782169342
 70
   192
  0
VERTEX
  5
789
330
6D9
100
AcDbEntity
  8
0
 62
     7
100
AcDbVertex
100
AcDbPolyFaceMeshVertex
 10
9.075382232666015
 20
4.278257846832275
 30
0.3992173075675964
 70
   192
  0
VERTEX
  5
78A
330
6D9
100
AcDbEntity
  8
0
 62
     7
100
AcDbVertex
100
AcDbPolyFaceMeshVertex
 10
8.988259315490722
 20
4.365381240844726
 30
0.389261782169342
 70
   192
  0
VERTEX
  5
78B
330
6D9
100
AcDbEntity
  8
0
 62
     7
100
AcDbFaceRecord
 10
0.0
 20
0.0
 30
0.0
 70
   128
 71
     1
 72
     2
 73
     3
  0
VERTEX
  5
78C
330
6D9
100
AcDbEntity
  8
0
 62
     7
100
AcDbFaceRecord
 10
0.0
 20
0.0
 30
0.0
 70
   128
 71
     1
 72
     4
 73
     5
  0
VERTEX
  5
78D
330
6D9
100
AcDbEntity
  8
0
 62
     7
100
AcDbFaceRecord
 10
0.0
 20
0.0
 30
0.0
 70
   128
 71
     3
 72
     4
 73
     1
  0
VERTEX
  5
78E
330
6D9
100
AcDbEntity
  8
0
 62
     7
100
AcDbFaceRecord
 10
0.0
 20
0.0
 30
0.0
 70
   128
 71
     3
 72
     6
 73
     4
  0
VERTEX
  5
78F
330
6D9
100
AcDbEntity
  8
0
 62
     7
100
AcDbFaceRecord
 10
0.0
 20
0.0
 30
0.0
 70
   128
 71
     6
 72
     7
 73
     4
  0
VERTEX
  5
790
330
6D9
100
AcDbEntity
  8
0
 62
     7
100
AcDbFaceRecord
 10
0.0
 20
0.0
 30
0.0
 70
   128
 71
     1
 72
     8
 73
     9
  0
VERTEX
  5
791
330
6D9
100
AcDbEntity
  8
0
 62
     7
100
AcDbFaceRecord
 10
0.0
 20
0.0
 30
0.0
 70
   128
 71
     5
 72
     8
 73
     1
  0
VERTEX
  5
792
330
6D9
100
AcDbEntity
  8
0
 62
     7
100
AcDbFaceRecord
 10
0.0
 20
0.0
 30
0.0
 70
   128
 71
     5
 72
    10
 73
     8
  0
VERTEX
  5
793
330
6D9
100
AcDbEntity
  8
0
 62
     7
100
AcDbFaceRecord
 10
0.0
 20
0.0
 30
0.0
 70
   128
 71
    10
 72
    11
 73
     8
  0
VERTEX
  5
794
330
6D9
100
AcDbEntity
  8
0
 62
     7
100
AcDbFaceRecord
 10
0.0
 20
0.0
 30
0.0
 70
   128
 71
     8
 72
    12
 73
     9
  0
VERTEX
  5
795
330
6D9
100
AcDbEntity
  8
0
 62
     7
100
AcDbFaceRecord
 10
0.0
 20
0.0
 30
0.0
 70
   128
 71
     9
 72
    13
 73
     1
  0
VERTEX
  5
796
330
6D9
100
AcDbEntity
  8
0
 62
     7
100
AcDbFaceRecord
 10
0.0
 20
0.0
 30
0.0
 70
   128
 71
     1
 72
    14
 73
     2
  0
VERTEX
  5
797
330
6D9
100
AcDbEntity
  8
0
 62
     7
100
AcDbFaceRecord
 10
0.0
 20
0.0
 30
0.0
 70
   128
 71
     2
 72
    15
 73
     3
  0
VERTEX
  5
798
330
6D9
100
AcDbEntity
  8
0
 62
     7
100
AcDbFaceRecord
 10
0.0
 20
0.0
 30
0.0
 70
   128
 71
     3
 72
    16
 73
     6
  0
VERTEX
  5
799
330
6D9
100
AcDbEntity
  8
0
 62
     7
100
AcDbFaceRecord
 10
0.0
 20
0.0
 30
0.0
 70
   128
 71
     6
 72
    17
 73
     7
  0
VERTEX
  5
79A
330
6D9
100
AcDbEntity
  8
0
 62
     7
100
AcDbFaceRecord
 10
0.0
 20
0.0
 30
0.0
 70
   128
 71
    18
 72
    19
 73
    20
  0
VERTEX
  5
79B
330
6D9
100
AcDbEntity
  8
0
 62
     7
100
AcDbFaceRecord
 10
0.0
 20
0.0
 30
0.0
 70
   128
 71
    20
 72
     4
 73
    18
  0
VERTEX
  5
79C
330
6D9
100
AcDbEntity
  8
0
 62
     7
100
AcDbFaceRecord
 10
0.0
 20
0.0
 30
0.0
 70
   128
 71
    18
 72
    21
 73
    19
  0
VERTEX
  5
79D
330
6D9
100
AcDbEntity
  8
0
 62
     7
100
AcDbFaceRecord
 10
0.0
 20
0.0
 30
0.0
 70
   128
 71
    19
 72
    22
 73
    20
  0
VERTEX
  5
79E
330
6D9
100
AcDbEntity
  8
0
 62
     7
100
AcDbFaceRecord
 10
0.0
 20
0.0
 30
0.0
 70
   128
 71
    18
 72
    23
 73
    24
  0
VERTEX
  5
79F
330
6D9
100
AcDbEntity
  8
0
 62
     7
100
AcDbFaceRecord
 10
0.0
 20
0.0
 30
0.0
 70
   128
 71
     4
 72
    23
 73
    18
  0
VERTEX
  5
7A0
330
6D9
100
AcDbEntity
  8
0
 62
     7
100
AcDbFaceRecord
 10
0.0
 20
0.0
 30
0.0
 70
   128
 71
     4
 72
     7
 73
    23
  0
VERTEX
  5
7A1
330
6D9
100
AcDbEntity
  8
0
 62
     7
100
AcDbFaceRecord
 10
0.0
 20
0.0
 30
0.0
 70
   128
 71
     7
 72
    25
 73
    23
  0
VERTEX
  5
7A2
330
6D9
100
AcDbEntity
  8
0
 62
     7
100
AcDbFaceRecord
 10
0.0
 20
0.0
 30
0.0
 70
   128
 71
    26
 72
    27
 73
    28
  0
VERTEX
  5
7A3
330
6D9
100
AcDbEntity
  8
0
 62
     7
100
AcDbFaceRecord
 10
0.0
 20
0.0
 30
0.0
 70
   128
 71
    27
 72
    20
 73
    28
  0
VERTEX
  5
7A4
330
6D9
100
AcDbEntity
  8
0
 62
     7
100
AcDbFaceRecord
 10
0.0
 20
0.0
 30
0.0
 70
   128
 71
    28
 72
    29
 73
    26
  0
VERTEX
  5
7A5
330
6D9
100
AcDbEntity
  8
0
 62
     7
100
AcDbFaceRecord
 10
0.0
 20
0.0
 30
0.0
 70
   128
 71
    30
 72
    31
 73
    26
  0
VERTEX
  5
7A6
330
6D9
100
AcDbEntity
  8
0
 62
     7
100
AcDbFaceRecord
 10
0.0
 20
0.0
 30
0.0
 70
   128
 71
    26
 72
    31
 73
    27
  0
VERTEX
  5
7A7
330
6D9
100
AcDbEntity
  8
0
 62
     7
100
AcDbFaceRecord
 10
0.0
 20
0.0
 30
0.0
 70
   128
 71
    28
 72
    32
 73
    33
  0
VERTEX
  5
7A8
330
6D9
100
AcDbEntity
  8
0
 62
     7
100
AcDbFaceRecord
 10
0.0
 20
0.0
 30
0.0
 70
   128
 71
    20
 72
    32
 73
    28
  0
VERTEX
  5
7A9
330
6D9
100
AcDbEntity
  8
0
 62
     7
100
AcDbFaceRecord
 10
0.0
 20
0.0
 30
0.0
 70
   128
 71
    20
 72
    22
 73
    32
  0
VERTEX
  5
7AA
330
6D9
100
AcDbEntity
  8
0
 62
     7
100
AcDbFaceRecord
 10
0.0
 20
0.0
 30
0.0
 70
   128
 71
    34
 72
     5
 73
    35
  0
VERTEX
  5
7AB
330
6D9
100
AcDbEntity
  8
0
 62
     7
100
AcDbFaceRecord
 10
0.0
 20
0.0
 30
0.0
 70
   128
 71
    36
 72
    37
 73
    35
  0
VERTEX
  5
7AC
330
6D9
100
AcDbEntity
  8
0
 62
     7
100
AcDbFaceRecord
 10
0.0
 20
0.0
 30
0.0
 70
   128
 71
    36
 72
    38
 73
    37
  0
VERTEX
  5
7AD
330
6D9
100
AcDbEntity
  8
0
 62
     7
100
AcDbFaceRecord
 10
0.0
 20
0.0
 30
0.0
 70
   128
 71
    36
 72
    27
 73
    39
  0
VERTEX
  5
7AE
330
6D9
100
AcDbEntity
  8
0
 62
     7
100
AcDbFaceRecord
 10
0.0
 20
0.0
 30
0.0
 70
   128
 71
    35
 72
    27
 73
    36
  0
VERTEX
  5
7AF
330
6D9
100
AcDbEntity
  8
0
 62
     7
100
AcDbFaceRecord
 10
0.0
 20
0.0
 30
0.0
 70
   128
 71
    35
 72
    40
 73
    34
  0
VERTEX
  5
7B0
330
6D9
100
AcDbEntity
  8
0
 62
     7
100
AcDbFaceRecord
 10
0.0
 20
0.0
 30
0.0
 70
   128
 71
    34
 72
    10
 73
     5
  0
VERTEX
  5
7B1
330
6D9
100
AcDbEntity
  8
0
 62
     7
100
AcDbFaceRecord
 10
0.0
 20
0.0
 30
0.0
 70
   128
 71
    35
 72
     5
 73
    27
  0
VERTEX
  5
7B2
330
6D9
100
AcDbEntity
  8
0
 62
     7
100
AcDbFaceRecord
 10
0.0
 20
0.0
 30
0.0
 70
   128
 71
    27
 72
    31
 73
    39
  0
VERTEX
  5
7B3
330
6D9
100
AcDbEntity
  8
0
 62
     7
100
AcDbFaceRecord
 10
0.0
 20
0.0
 30
0.0
 70
   128
 71
    31
 72
    41
 73
    39
  0
VERTEX
  5
7B4
330
6D9
100
AcDbEntity
  8
0
 62
     7
100
AcDbFaceRecord
 10
0.0
 20
0.0
 30
0.0
 70
   128
 71
    42
 72
    43
 73
    44
  0
VERTEX
  5
7B5
330
6D9
100
AcDbEntity
  8
0
 62
     7
100
AcDbFaceRecord
 10
0.0
 20
0.0
 30
0.0
 70
   128
 71
    43
 72
    45
 73
    44
  0
VERTEX
  5
7B6
330
6D9
100
AcDbEntity
  8
0
 62
     7
100
AcDbFaceRecord
 10
0.0
 20
0.0
 30
0.0
 70
   128
 71
    43
 72
    46
 73
    45
  0
VERTEX
  5
7B7
330
6D9
100
AcDbEntity
  8
0
 62
     7
100
AcDbFaceRecord
 10
0.0
 20
0.0
 30
0.0
 70
   128
 71
    46
 72
    47
 73
    45
  0
VERTEX
  5
7B8
330
6D9
100
AcDbEntity
  8
0
 62
     7
100
AcDbFaceRecord
 10
0.0
 20
0.0
 30
0.0
 70
   128
 71
    46
 72
    48
 73
    47
  0
VERTEX
  5
7B9
330
6D9
100
AcDbEntity
  8
0
 62
     7
100
AcDbFaceRecord
 10
0.0
 20
0.0
 30
0.0
 70
   128
 71
    48
 72
    49
 73
    47
  0
VERTEX
  5
7BA
330
6D9
100
AcDbEntity
  8
0
 62
     7
100
AcDbFaceRecord
 10
0.0
 20
0.0
 30
0.0
 70
   128
 71
    48
 72
    42
 73
    49
  0
VERTEX
  5
7BB
330
6D9
100
AcDbEntity
  8
0
 62
     7
100
AcDbFaceRecord
 10
0.0
 20
0.0
 30
0.0
 70
   128
 71
    42
 72
    44
 73
    49
  0
VERTEX
  5
7BC
330
6D9
100
AcDbEntity
  8
0
 62
     7
100
AcDbFaceRecord
 10
0.0
 20
0.0
 30
0.0
 70
   128
 71
    45
 72
    47
 73
    20
  0
VERTEX
  5
7BD
330
6D9
100
AcDbEntity
  8
0
 62
     7
100
AcDbFaceRecord
 10
0.0
 20
0.0
 30
0.0
 70
   128
 71
    47
 72
    49
 73
    20
  0
VERTEX
  5
7BE
330
6D9
100
AcDbEntity
  8
0
 62
     7
100
AcDbFaceRecord
 10
0.0
 20
0.0
 30
0.0
 70
   128
 71
    44
 72
    27
 73
     5
  0
VERTEX
  5
7BF
330
6D9
100
AcDbEntity
  8
0
 62
     7
100
AcDbFaceRecord
 10
0.0
 20
0.0
 30
0.0
 70
   128
 71
    44
 72
    45
 73
    27
  0
VERTEX
  5
7C0
330
6D9
100
AcDbEntity
  8
0
 62
     7
100
AcDbFaceRecord
 10
0.0
 20
0.0
 30
0.0
 70
   128
 71
    45
 72
    20
 73
    27
  0
VERTEX
  5
7C1
330
6D9
100
AcDbEntity
  8
0
 62
     7
100
AcDbFaceRecord
 10
0.0
 20
0.0
 30
0.0
 70
   128
 71
     5
 72
    49
 73
    44
  0
VERTEX
  5
7C2
330
6D9
100
AcDbEntity
  8
0
 62
     7
100
AcDbFaceRecord
 10
0.0
 20
0.0
 30
0.0
 70
   128
 71
     5
 72
     4
 73
    49
  0
VERTEX
  5
7C3
330
6D9
100
AcDbEntity
  8
0
 62
     7
100
AcDbFaceRecord
 10
0.0
 20
0.0
 30
0.0
 70
   128
 71
    49
 72
     4
 73
    20
  0
VERTEX
  5
7C4
330
6D9
100
AcDbEntity
  8
0
 62
     7
100
AcDbFaceRecord
 10
0.0
 20
0.0
 30
0.0
 70
   128
 71
    43
 72
    42
 73
    46
  0
VERTEX
  5
7C5
330
6D9
100
AcDbEntity
  8
0
 62
     7
100
AcDbFaceRecord
 10
0.0
 20
0.0
 30
0.0
 70
   128
 71
    42
 72
    48
 73
    46
  0
VERTEX
  5
7C6
330
6D9
100
AcDbEntity
  8
0
 62
     7
100
AcDbFaceRecord
 10
0.0
 20
0.0
 30
0.0
 70
   128
 71
    41
 72
    31
 73
    30
  0
VERTEX
  5
7C7
330
6D9
100
AcDbEntity
  8
0
 62
     7
100
AcDbFaceRecord
 10
0.0
 20
0.0
 30
0.0
 70
   128
 71
    50
 72
    51
 73
    52
  0
VERTEX
  5
7C8
330
6D9
100
AcDbEntity
  8
0
 62
     7
100
AcDbFaceRecord
 10
0.0
 20
0.0
 30
0.0
 70
   128
 71
    50
 72
    53
 73
    51
  0
VERTEX
  5
7C9
330
6D9
100
AcDbEntity
  8
0
 62
     7
100
AcDbFaceRecord
 10
0.0
 20
0.0
 30
0.0
 70
   128
 71
    53
 72
    30
 73
    54
  0
VERTEX
  5
7CA
330
6D9
100
AcDbEntity
  8
0
 62
     7
100
AcDbFaceRecord
 10
0.0
 20
0.0
 30
0.0
 70
   128
 71
    30
 72
    55
 73
    54
  0
VERTEX
  5
7CB
330
6D9
100
AcDbEntity
  8
0
 62
     7
100
AcDbFaceRecord
 10
0.0
 20
0.0
 30
0.0
 70
   128
 71
    53
 72
    54
 73
    51
  0
VERTEX
  5
7CC
330
6D9
100
AcDbEntity
  8
0
 62
     7
100
AcDbFaceRecord
 10
0.0
 20
0.0
 30
0.0
 70
   128
 71
    52
 72
    39
 73
    50
  0
VERTEX
  5
7CD
330
6D9
100
AcDbEntity
  8
0
 62
     7
100
AcDbFaceRecord
 10
0.0
 20
0.0
 30
0.0
 70
   128
 71
    52
 72
    56
 73
    39
  0
VERTEX
  5
7CE
330
6D9
100
AcDbEntity
  8
0
 62
     7
100
AcDbFaceRecord
 10
0.0
 20
0.0
 30
0.0
 70
   128
 71
    56
 72
    57
 73
    39
  0
VERTEX
  5
7CF
330
6D9
100
AcDbEntity
  8
0
 62
     7
100
AcDbFaceRecord
 10
0.0
 20
0.0
 30
0.0
 70
   128
 71
    57
 72
    36
 73
    39
  0
VERTEX
  5
7D0
330
6D9
100
AcDbEntity
  8
0
 62
     7
100
AcDbFaceRecord
 10
0.0
 20
0.0
 30
0.0
 70
   128
 71
    56
 72
    58
 73
    59
  0
VERTEX
  5
7D1
330
6D9
100
AcDbEntity
  8
0
 62
     7
100
AcDbFaceRecord
 10
0.0
 20
0.0
 30
0.0
 70
   128
 71
    56
 72
    52
 73
    58
  0
VERTEX
  5
7D2
330
6D9
100
AcDbEntity
  8
0
 62
     7
100
AcDbFaceRecord
 10
0.0
 20
0.0
 30
0.0
 70
   128
 71
    59
 72
    60
 73
    56
  0
VERTEX
  5
7D3
330
6D9
100
AcDbEntity
  8
0
 62
     7
100
AcDbFaceRecord
 10
0.0
 20
0.0
 30
0.0
 70
   128
 71
    60
 72
    57
 73
    56
  0
VERTEX
  5
7D4
330
6D9
100
AcDbEntity
  8
0
 62
     7
100
AcDbFaceRecord
 10
0.0
 20
0.0
 30
0.0
 70
   128
 71
    60
 72
    38
 73
    57
  0
VERTEX
  5
7D5
330
6D9
100
AcDbEntity
  8
0
 62
     7
100
AcDbFaceRecord
 10
0.0
 20
0.0
 30
0.0
 70
   128
 71
    38
 72
    36
 73
    57
  0
VERTEX
  5
7D6
330
6D9
100
AcDbEntity
  8
0
 62
     7
100
AcDbFaceRecord
 10
0.0
 20
0.0
 30
0.0
 70
   128
 71
    61
 72
    62
 73
    63
  0
VERTEX
  5
7D7
330
6D9
100
AcDbEntity
  8
0
 62
     7
100
AcDbFaceRecord
 10
0.0
 20
0.0
 30
0.0
 70
   128
 71
    61
 72
    64
 73
    62
  0
VERTEX
  5
7D8
330
6D9
100
AcDbEntity
  8
0
 62
     7
100
AcDbFaceRecord
 10
0.0
 20
0.0
 30
0.0
 70
   128
 71
    63
 72
    65
 73
    61
  0
VERTEX
  5
7D9
330
6D9
100
AcDbEntity
  8
0
 62
     7
100
AcDbFaceRecord
 10
0.0
 20
0.0
 30
0.0
 70
   128
 71
    63
 72
    35
 73
    65
  0
VERTEX
  5
7DA
330
6D9
100
AcDbEntity
  8
0
 62
     7
100
AcDbFaceRecord
 10
0.0
 20
0.0
 30
0.0
 70
   128
 71
    35
 72
    37
 73
    65
  0
VERTEX
  5
7DB
330
6D9
100
AcDbEntity
  8
0
 62
     7
100
AcDbFaceRecord
 10
0.0
 20
0.0
 30
0.0
 70
   128
 71
    63
 72
    62
 73
    40
  0
VERTEX
  5
7DC
330
6D9
100
AcDbEntity
  8
0
 62
     7
100
AcDbFaceRecord
 10
0.0
 20
0.0
 30
0.0
 70
   128
 71
    62
 72
    64
 73
    40
  0
VERTEX
  5
7DD
330
6D9
100
AcDbEntity
  8
0
 62
     7
100
AcDbFaceRecord
 10
0.0
 20
0.0
 30
0.0
 70
   128
 71
    64
 72
    66
 73
    40
  0
VERTEX
  5
7DE
330
6D9
100
AcDbEntity
  8
0
 62
     7
100
AcDbFaceRecord
 10
0.0
 20
0.0
 30
0.0
 70
   128
 71
    66
 72
    67
 73
    40
  0
VERTEX
  5
7DF
330
6D9
100
AcDbEntity
  8
0
 62
     7
100
AcDbFaceRecord
 10
0.0
 20
0.0
 30
0.0
 70
   128
 71
    67
 72
    68
 73
    40
  0
VERTEX
  5
7E0
330
6D9
100
AcDbEntity
  8
0
 62
     7
100
AcDbFaceRecord
 10
0.0
 20
0.0
 30
0.0
 70
   128
 71
    40
 72
    35
 73
    63
  0
VERTEX
  5
7E1
330
6D9
100
AcDbEntity
  8
0
 62
     7
100
AcDbFaceRecord
 10
0.0
 20
0.0
 30
0.0
 70
   128
 71
    68
 72
    69
 73
    40
  0
VERTEX
  5
7E2
330
6D9
100
AcDbEntity
  8
0
 62
     7
100
AcDbFaceRecord
 10
0.0
 20
0.0
 30
0.0
 70
   128
 71
    69
 72
    70
 73
    40
  0
VERTEX
  5
7E3
330
6D9
100
AcDbEntity
  8
0
 62
     7
100
AcDbFaceRecord
 10
0.0
 20
0.0
 30
0.0
 70
   128
 71
    70
 72
    34
 73
    40
  0
VERTEX
  5
7E4
330
6D9
100
AcDbEntity
  8
0
 62
     7
100
AcDbFaceRecord
 10
0.0
 20
0.0
 30
0.0
 70
   128
 71
    70
 72
    71
 73
    72
  0
VERTEX
  5
7E5
330
6D9
100
AcDbEntity
  8
0
 62
     7
100
AcDbFaceRecord
 10
0.0
 20
0.0
 30
0.0
 70
   128
 71
    70
 72
    69
 73
    71
  0
VERTEX
  5
7E6
330
6D9
100
AcDbEntity
  8
0
 62
     7
100
AcDbFaceRecord
 10
0.0
 20
0.0
 30
0.0
 70
   128
 71
    69
 72
    68
 73
    73
  0
VERTEX
  5
7E7
330
6D9
100
AcDbEntity
  8
0
 62
     7
100
AcDbFaceRecord
 10
0.0
 20
0.0
 30
0.0
 70
   128
 71
    68
 72
    74
 73
    73
  0
VERTEX
  5
7E8
330
6D9
100
AcDbEntity
  8
0
 62
     7
100
AcDbFaceRecord
 10
0.0
 20
0.0
 30
0.0
 70
   128
 71
    69
 72
    73
 73
    71
  0
VERTEX
  5
7E9
330
6D9
100
AcDbEntity
  8
0
 62
     7
100
AcDbFaceRecord
 10
0.0
 20
0.0
 30
0.0
 70
   128
 71
    72
 72
    34
 73
    70
  0
VERTEX
  5
7EA
330
6D9
100
AcDbEntity
  8
0
 62
     7
100
AcDbFaceRecord
 10
0.0
 20
0.0
 30
0.0
 70
   128
 71
    72
 72
    75
 73
    34
  0
VERTEX
  5
7EB
330
6D9
100
AcDbEntity
  8
0
 62
     7
100
AcDbFaceRecord
 10
0.0
 20
0.0
 30
0.0
 70
   128
 71
    75
 72
    76
 73
    34
  0
VERTEX
  5
7EC
330
6D9
100
AcDbEntity
  8
0
 62
     7
100
AcDbFaceRecord
 10
0.0
 20
0.0
 30
0.0
 70
   128
 71
    76
 72
    10
 73
    34
  0
VERTEX
  5
7ED
330
6D9
100
AcDbEntity
  8
0
 62
     7
100
AcDbFaceRecord
 10
0.0
 20
0.0
 30
0.0
 70
   128
 71
    77
 72
    78
 73
    22
  0
VERTEX
  5
7EE
330
6D9
100
AcDbEntity
  8
0
 62
     7
100
AcDbFaceRecord
 10
0.0
 20
0.0
 30
0.0
 70
   128
 71
    78
 72
    79
 73
    22
  0
VERTEX
  5
7EF
330
6D9
100
AcDbEntity
  8
0
 62
     7
100
AcDbFaceRecord
 10
0.0
 20
0.0
 30
0.0
 70
   128
 71
    79
 72
    32
 73
    22
  0
VERTEX
  5
7F0
330
6D9
100
AcDbEntity
  8
0
 62
     7
100
AcDbFaceRecord
 10
0.0
 20
0.0
 30
0.0
 70
   128
 71
    79
 72
    78
 73
    33
  0
VERTEX
  5
7F1
330
6D9
100
AcDbEntity
  8
0
 62
     7
100
AcDbFaceRecord
 10
0.0
 20
0.0
 30
0.0
 70
   128
 71
    78
 72
    77
 73
    33
  0
VERTEX
  5
7F2
330
6D9
100
AcDbEntity
  8
0
 62
     7
100
AcDbFaceRecord
 10
0.0
 20
0.0
 30
0.0
 70
   128
 71
    33
 72
    32
 73
    79
  0
VERTEX
  5
7F3
330
6D9
100
AcDbEntity
  8
0
 62
     7
100
AcDbFaceRecord
 10
0.0
 20
0.0
 30
0.0
 70
   128
 71
    80
 72
    81
 73
    33
  0
VERTEX
  5
7F4
330
6D9
100
AcDbEntity
  8
0
 62
     7
100
AcDbFaceRecord
 10
0.0
 20
0.0
 30
0.0
 70
   128
 71
    81
 72
    82
 73
    33
  0
VERTEX
  5
7F5
330
6D9
100
AcDbEntity
  8
0
 62
     7
100
AcDbFaceRecord
 10
0.0
 20
0.0
 30
0.0
 70
   128
 71
    82
 72
    28
 73
    33
  0
VERTEX
  5
7F6
330
6D9
100
AcDbEntity
  8
0
 62
     7
100
AcDbFaceRecord
 10
0.0
 20
0.0
 30
0.0
 70
   128
 71
    82
 72
    81
 73
    29
  0
VERTEX
  5
7F7
330
6D9
100
AcDbEntity
  8
0
 62
     7
100
AcDbFaceRecord
 10
0.0
 20
0.0
 30
0.0
 70
   128
 71
    81
 72
    80
 73
    29
  0
VERTEX
  5
7F8
330
6D9
100
AcDbEntity
  8
0
 62
     7
100
AcDbFaceRecord
 10
0.0
 20
0.0
 30
0.0
 70
   128
 71
    29
 72
    28
 73
    82
  0
VERTEX
  5
7F9
330
6D9
100
AcDbEntity
  8
0
 62
     7
100
AcDbFaceRecord
 10
0.0
 20
0.0
 30
0.0
 70
   128
 71
    55
 72
    83
 73
    29
  0
VERTEX
  5
7FA
330
6D9
100
AcDbEntity
  8
0
 62
     7
100
AcDbFaceRecord
 10
0.0
 20
0.0
 30
0.0
 70
   128
 71
    83
 72
    84
 73
    29
  0
VERTEX
  5
7FB
330
6D9
100
AcDbEntity
  8
0
 62
     7
100
AcDbFaceRecord
 10
0.0
 20
0.0
 30
0.0
 70
   128
 71
    84
 72
    26
 73
    29
  0
VERTEX
  5
7FC
330
6D9
100
AcDbEntity
  8
0
 62
     7
100
AcDbFaceRecord
 10
0.0
 20
0.0
 30
0.0
 70
   128
 71
    84
 72
    83
 73
    30
  0
VERTEX
  5
7FD
330
6D9
100
AcDbEntity
  8
0
 62
     7
100
AcDbFaceRecord
 10
0.0
 20
0.0
 30
0.0
 70
   128
 71
    83
 72
    55
 73
    30
  0
VERTEX
  5
7FE
330
6D9
100
AcDbEntity
  8
0
 62
     7
100
AcDbFaceRecord
 10
0.0
 20
0.0
 30
0.0
 70
   128
 71
    30
 72
    26
 73
    84
  0
VERTEX
  5
7FF
330
6D9
100
AcDbEntity
  8
0
 62
     7
100
AcDbFaceRecord
 10
0.0
 20
0.0
 30
0.0
 70
   128
 71
     7
 72
    17
 73
    25
  0
VERTEX
  5
800
330
6D9
100
AcDbEntity
  8
0
 62
     7
100
AcDbFaceRecord
 10
0.0
 20
0.0
 30
0.0
 70
   128
 71
    85
 72
    86
 73
    25
  0
VERTEX
  5
801
330
6D9
100
AcDbEntity
  8
0
 62
     7
100
AcDbFaceRecord
 10
0.0
 20
0.0
 30
0.0
 70
   128
 71
    86
 72
    23
 73
    25
  0
VERTEX
  5
802
330
6D9
100
AcDbEntity
  8
0
 62
     7
100
AcDbFaceRecord
 10
0.0
 20
0.0
 30
0.0
 70
   128
 71
    25
 72
    17
 73
    85
  0
VERTEX
  5
803
330
6D9
100
AcDbEntity
  8
0
 62
     7
100
AcDbFaceRecord
 10
0.0
 20
0.0
 30
0.0
 70
   128
 71
    17
 72
     6
 73
    85
  0
VERTEX
  5
804
330
6D9
100
AcDbEntity
  8
0
 62
     7
100
AcDbFaceRecord
 10
0.0
 20
0.0
 30
0.0
 70
   128
 71
    16
 72
    87
 73
     6
  0
VERTEX
  5
805
330
6D9
100
AcDbEntity
  8
0
 62
     7
100
AcDbFaceRecord
 10
0.0
 20
0.0
 30
0.0
 70
   128
 71
    87
 72
    88
 73
     6
  0
VERTEX
  5
806
330
6D9
100
AcDbEntity
  8
0
 62
     7
100
AcDbFaceRecord
 10
0.0
 20
0.0
 30
0.0
 70
   128
 71
    89
 72
    86
 73
    85
  0
VERTEX
  5
807
330
6D9
100
AcDbEntity
  8
0
 62
     7
100
AcDbFaceRecord
 10
0.0
 20
0.0
 30
0.0
 70
   128
 71
    89
 72
    90
 73
    86
  0
VERTEX
  5
808
330
6D9
100
AcDbEntity
  8
0
 62
     7
100
AcDbFaceRecord
 10
0.0
 20
0.0
 30
0.0
 70
   128
 71
    90
 72
    91
 73
    23
  0
VERTEX
  5
809
330
6D9
100
AcDbEntity
  8
0
 62
     7
100
AcDbFaceRecord
 10
0.0
 20
0.0
 30
0.0
 70
   128
 71
    91
 72
    24
 73
    23
  0
VERTEX
  5
80A
330
6D9
100
AcDbEntity
  8
0
 62
     7
100
AcDbFaceRecord
 10
0.0
 20
0.0
 30
0.0
 70
   128
 71
    90
 72
    23
 73
    86
  0
VERTEX
  5
80B
330
6D9
100
AcDbEntity
  8
0
 62
     7
100
AcDbFaceRecord
 10
0.0
 20
0.0
 30
0.0
 70
   128
 71
    85
 72
    88
 73
    89
  0
VERTEX
  5
80C
330
6D9
100
AcDbEntity
  8
0
 62
     7
100
AcDbFaceRecord
 10
0.0
 20
0.0
 30
0.0
 70
   128
 71
    88
 72
    85
 73
     6
  0
VERTEX
  5
80D
330
6D9
100
AcDbEntity
  8
0
 62
     7
100
AcDbFaceRecord
 10
0.0
 20
0.0
 30
0.0
 70
   128
 71
    16
 72
    92
 73
    87
  0
VERTEX
  5
80E
330
6D9
100
AcDbEntity
  8
0
 62
     7
100
AcDbFaceRecord
 10
0.0
 20
0.0
 30
0.0
 70
   128
 71
    93
 72
    94
 73
    95
  0
VERTEX
  5
80F
330
6D9
100
AcDbEntity
  8
0
 62
     7
100
AcDbFaceRecord
 10
0.0
 20
0.0
 30
0.0
 70
   128
 71
    93
 72
    96
 73
    94
  0
VERTEX
  5
810
330
6D9
100
AcDbEntity
  8
0
 62
     7
100
AcDbFaceRecord
 10
0.0
 20
0.0
 30
0.0
 70
   128
 71
    95
 72
    97
 73
    93
  0
VERTEX
  5
811
330
6D9
100
AcDbEntity
  8
0
 62
     7
100
AcDbFaceRecord
 10
0.0
 20
0.0
 30
0.0
 70
   128
 71
    95
 72
    18
 73
    97
  0
VERTEX
  5
812
330
6D9
100
AcDbEntity
  8
0
 62
     7
100
AcDbFaceRecord
 10
0.0
 20
0.0
 30
0.0
 70
   128
 71
    18
 72
    24
 73
    97
  0
VERTEX
  5
813
330
6D9
100
AcDbEntity
  8
0
 62
     7
100
AcDbFaceRecord
 10
0.0
 20
0.0
 30
0.0
 70
   128
 71
    95
 72
    94
 73
    21
  0
VERTEX
  5
814
330
6D9
100
AcDbEntity
  8
0
 62
     7
100
AcDbFaceRecord
 10
0.0
 20
0.0
 30
0.0
 70
   128
 71
    94
 72
    96
 73
    21
  0
VERTEX
  5
815
330
6D9
100
AcDbEntity
  8
0
 62
     7
100
AcDbFaceRecord
 10
0.0
 20
0.0
 30
0.0
 70
   128
 71
    96
 72
    98
 73
    21
  0
VERTEX
  5
816
330
6D9
100
AcDbEntity
  8
0
 62
     7
100
AcDbFaceRecord
 10
0.0
 20
0.0
 30
0.0
 70
   128
 71
    98
 72
    99
 73
    21
  0
VERTEX
  5
817
330
6D9
100
AcDbEntity
  8
0
 62
     7
100
AcDbFaceRecord
 10
0.0
 20
0.0
 30
0.0
 70
   128
 71
    99
 72
   100
 73
    21
  0
VERTEX
  5
818
330
6D9
100
AcDbEntity
  8
0
 62
     7
100
AcDbFaceRecord
 10
0.0
 20
0.0
 30
0.0
 70
   128
 71
    21
 72
    18
 73
    95
  0
VERTEX
  5
819
330
6D9
100
AcDbEntity
  8
0
 62
     7
100
AcDbFaceRecord
 10
0.0
 20
0.0
 30
0.0
 70
   128
 71
   100
 72
   101
 73
    21
  0
VERTEX
  5
81A
330
6D9
100
AcDbEntity
  8
0
 62
     7
100
AcDbFaceRecord
 10
0.0
 20
0.0
 30
0.0
 70
   128
 71
   101
 72
   102
 73
    21
  0
VERTEX
  5
81B
330
6D9
100
AcDbEntity
  8
0
 62
     7
100
AcDbFaceRecord
 10
0.0
 20
0.0
 30
0.0
 70
   128
 71
   102
 72
    19
 73
    21
  0
VERTEX
  5
81C
330
6D9
100
AcDbEntity
  8
0
 62
     7
100
AcDbFaceRecord
 10
0.0
 20
0.0
 30
0.0
 70
   128
 71
   102
 72
   103
 73
   104
  0
VERTEX
  5
81D
330
6D9
100
AcDbEntity
  8
0
 62
     7
100
AcDbFaceRecord
 10
0.0
 20
0.0
 30
0.0
 70
   128
 71
   102
 72
   101
 73
   103
  0
VERTEX
  5
81E
330
6D9
100
AcDbEntity
  8
0
 62
     7
100
AcDbFaceRecord
 10
0.0
 20
0.0
 30
0.0
 70
   128
 71
   101
 72
   100
 73
   105
  0
VERTEX
  5
81F
330
6D9
100
AcDbEntity
  8
0
 62
     7
100
AcDbFaceRecord
 10
0.0
 20
0.0
 30
0.0
 70
   128
 71
   100
 72
   106
 73
   105
  0
VERTEX
  5
820
330
6D9
100
AcDbEntity
  8
0
 62
     7
100
AcDbFaceRecord
 10
0.0
 20
0.0
 30
0.0
 70
   128
 71
   105
 72
   107
 73
   101
  0
VERTEX
  5
821
330
6D9
100
AcDbEntity
  8
0
 62
     7
100
AcDbFaceRecord
 10
0.0
 20
0.0
 30
0.0
 70
   128
 71
   101
 72
   107
 73
   103
  0
VERTEX
  5
822
330
6D9
100
AcDbEntity
  8
0
 62
     7
100
AcDbFaceRecord
 10
0.0
 20
0.0
 30
0.0
 70
   128
 71
   104
 72
    19
 73
   102
  0
VERTEX
  5
823
330
6D9
100
AcDbEntity
  8
0
 62
     7
100
AcDbFaceRecord
 10
0.0
 20
0.0
 30
0.0
 70
   128
 71
   104
 72
   108
 73
    19
  0
VERTEX
  5
824
330
6D9
100
AcDbEntity
  8
0
 62
     7
100
AcDbFaceRecord
 10
0.0
 20
0.0
 30
0.0
 70
   128
 71
   108
 72
    22
 73
    19
  0
VERTEX
  5
825
330
6D9
100
AcDbEntity
  8
0
 62
     7
100
AcDbFaceRecord
 10
0.0
 20
0.0
 30
0.0
 70
   128
 71
    22
 72
   108
 73
    77
  0
VERTEX
  5
826
330
6D9
100
AcDbEntity
  8
0
 62
     7
100
AcDbFaceRecord
 10
0.0
 20
0.0
 30
0.0
 70
   128
 71
   108
 72
   104
 73
    77
  0
VERTEX
  5
827
330
6D9
100
AcDbEntity
  8
0
 62
     7
100
AcDbFaceRecord
 10
0.0
 20
0.0
 30
0.0
 70
   128
 71
   103
 72
   109
 73
   104
  0
VERTEX
  5
828
330
6D9
100
AcDbEntity
  8
0
 62
     7
100
AcDbFaceRecord
 10
0.0
 20
0.0
 30
0.0
 70
   128
 71
   109
 72
   110
 73
   104
  0
VERTEX
  5
829
330
6D9
100
AcDbEntity
  8
0
 62
     7
100
AcDbFaceRecord
 10
0.0
 20
0.0
 30
0.0
 70
   128
 71
   104
 72
   110
 73
    77
  0
VERTEX
  5
82A
330
6D9
100
AcDbEntity
  8
0
 62
     7
100
AcDbFaceRecord
 10
0.0
 20
0.0
 30
0.0
 70
   128
 71
    33
 72
   111
 73
    80
  0
VERTEX
  5
82B
330
6D9
100
AcDbEntity
  8
0
 62
     7
100
AcDbFaceRecord
 10
0.0
 20
0.0
 30
0.0
 70
   128
 71
   111
 72
   112
 73
    80
  0
VERTEX
  5
82C
330
6D9
100
AcDbEntity
  8
0
 62
     7
100
AcDbFaceRecord
 10
0.0
 20
0.0
 30
0.0
 70
   128
 71
   113
 72
   114
 73
   112
  0
VERTEX
  5
82D
330
6D9
100
AcDbEntity
  8
0
 62
     7
100
AcDbFaceRecord
 10
0.0
 20
0.0
 30
0.0
 70
   128
 71
   114
 72
   115
 73
   112
  0
VERTEX
  5
82E
330
6D9
100
AcDbEntity
  8
0
 62
     7
100
AcDbFaceRecord
 10
0.0
 20
0.0
 30
0.0
 70
   128
 71
   112
 72
   115
 73
    80
  0
VERTEX
  5
82F
330
6D9
100
AcDbEntity
  8
0
 62
     7
100
AcDbFaceRecord
 10
0.0
 20
0.0
 30
0.0
 70
   128
 71
   110
 72
   111
 73
    33
  0
VERTEX
  5
830
330
6D9
100
AcDbEntity
  8
0
 62
     7
100
AcDbFaceRecord
 10
0.0
 20
0.0
 30
0.0
 70
   128
 71
   110
 72
   109
 73
   111
  0
VERTEX
  5
831
330
6D9
100
AcDbEntity
  8
0
 62
     7
100
AcDbFaceRecord
 10
0.0
 20
0.0
 30
0.0
 70
   128
 71
   109
 72
   103
 73
   111
  0
VERTEX
  5
832
330
6D9
100
AcDbEntity
  8
0
 62
     7
100
AcDbFaceRecord
 10
0.0
 20
0.0
 30
0.0
 70
   128
 71
   116
 72
   113
 73
   112
  0
VERTEX
  5
833
330
6D9
100
AcDbEntity
  8
0
 62
     7
100
AcDbFaceRecord
 10
0.0
 20
0.0
 30
0.0
 70
   128
 71
   116
 72
   117
 73
   113
  0
VERTEX
  5
834
330
6D9
100
AcDbEntity
  8
0
 62
     7
100
AcDbFaceRecord
 10
0.0
 20
0.0
 30
0.0
 70
   128
 71
   117
 72
   118
 73
   119
  0
VERTEX
  5
835
330
6D9
100
AcDbEntity
  8
0
 62
     7
100
AcDbFaceRecord
 10
0.0
 20
0.0
 30
0.0
 70
   128
 71
   118
 72
   120
 73
   119
  0
VERTEX
  5
836
330
6D9
100
AcDbEntity
  8
0
 62
     7
100
AcDbFaceRecord
 10
0.0
 20
0.0
 30
0.0
 70
   128
 71
   119
 72
   121
 73
   117
  0
VERTEX
  5
837
330
6D9
100
AcDbEntity
  8
0
 62
     7
100
AcDbFaceRecord
 10
0.0
 20
0.0
 30
0.0
 70
   128
 71
   117
 72
   121
 73
   113
  0
VERTEX
  5
838
330
6D9
100
AcDbEntity
  8
0
 62
     7
100
AcDbFaceRecord
 10
0.0
 20
0.0
 30
0.0
 70
   128
 71
   112
 72
   103
 73
   116
  0
VERTEX
  5
839
330
6D9
100
AcDbEntity
  8
0
 62
     7
100
AcDbFaceRecord
 10
0.0
 20
0.0
 30
0.0
 70
   128
 71
   103
 72
   112
 73
   111
  0
VERTEX
  5
83A
330
6D9
100
AcDbEntity
  8
0
 62
     7
100
AcDbFaceRecord
 10
0.0
 20
0.0
 30
0.0
 70
   128
 71
    33
 72
    77
 73
   110
  0
VERTEX
  5
83B
330
6D9
100
AcDbEntity
  8
0
 62
     7
100
AcDbFaceRecord
 10
0.0
 20
0.0
 30
0.0
 70
   128
 71
   118
 72
   117
 73
   106
  0
VERTEX
  5
83C
330
6D9
100
AcDbEntity
  8
0
 62
     7
100
AcDbFaceRecord
 10
0.0
 20
0.0
 30
0.0
 70
   128
 71
   117
 72
   116
 73
   106
  0
VERTEX
  5
83D
330
6D9
100
AcDbEntity
  8
0
 62
     7
100
AcDbFaceRecord
 10
0.0
 20
0.0
 30
0.0
 70
   128
 71
   103
 72
   107
 73
   116
  0
VERTEX
  5
83E
330
6D9
100
AcDbEntity
  8
0
 62
     7
100
AcDbFaceRecord
 10
0.0
 20
0.0
 30
0.0
 70
   128
 71
   107
 72
   105
 73
   116
  0
VERTEX
  5
83F
330
6D9
100
AcDbEntity
  8
0
 62
     7
100
AcDbFaceRecord
 10
0.0
 20
0.0
 30
0.0
 70
   128
 71
   116
 72
   105
 73
   106
  0
VERTEX
  5
840
330
6D9
100
AcDbEntity
  8
0
 62
     7
100
AcDbFaceRecord
 10
0.0
 20
0.0
 30
0.0
 70
   128
 71
    29
 72
   122
 73
    55
  0
VERTEX
  5
841
330
6D9
100
AcDbEntity
  8
0
 62
     7
100
AcDbFaceRecord
 10
0.0
 20
0.0
 30
0.0
 70
   128
 71
   122
 72
   123
 73
    55
  0
VERTEX
  5
842
330
6D9
100
AcDbEntity
  8
0
 62
     7
100
AcDbFaceRecord
 10
0.0
 20
0.0
 30
0.0
 70
   128
 71
    52
 72
    51
 73
   123
  0
VERTEX
  5
843
330
6D9
100
AcDbEntity
  8
0
 62
     7
100
AcDbFaceRecord
 10
0.0
 20
0.0
 30
0.0
 70
   128
 71
    51
 72
    54
 73
   123
  0
VERTEX
  5
844
330
6D9
100
AcDbEntity
  8
0
 62
     7
100
AcDbFaceRecord
 10
0.0
 20
0.0
 30
0.0
 70
   128
 71
   123
 72
    54
 73
    55
  0
VERTEX
  5
845
330
6D9
100
AcDbEntity
  8
0
 62
     7
100
AcDbFaceRecord
 10
0.0
 20
0.0
 30
0.0
 70
   128
 71
   115
 72
   122
 73
    29
  0
VERTEX
  5
846
330
6D9
100
AcDbEntity
  8
0
 62
     7
100
AcDbFaceRecord
 10
0.0
 20
0.0
 30
0.0
 70
   128
 71
   115
 72
   114
 73
   122
  0
VERTEX
  5
847
330
6D9
100
AcDbEntity
  8
0
 62
     7
100
AcDbFaceRecord
 10
0.0
 20
0.0
 30
0.0
 70
   128
 71
   114
 72
   113
 73
   122
  0
VERTEX
  5
848
330
6D9
100
AcDbEntity
  8
0
 62
     7
100
AcDbFaceRecord
 10
0.0
 20
0.0
 30
0.0
 70
   128
 71
   124
 72
    52
 73
   123
  0
VERTEX
  5
849
330
6D9
100
AcDbEntity
  8
0
 62
     7
100
AcDbFaceRecord
 10
0.0
 20
0.0
 30
0.0
 70
   128
 71
   124
 72
   125
 73
    52
  0
VERTEX
  5
84A
330
6D9
100
AcDbEntity
  8
0
 62
     7
100
AcDbFaceRecord
 10
0.0
 20
0.0
 30
0.0
 70
   128
 71
   125
 72
   126
 73
    59
  0
VERTEX
  5
84B
330
6D9
100
AcDbEntity
  8
0
 62
     7
100
AcDbFaceRecord
 10
0.0
 20
0.0
 30
0.0
 70
   128
 71
   126
 72
    60
 73
    59
  0
VERTEX
  5
84C
330
6D9
100
AcDbEntity
  8
0
 62
     7
100
AcDbFaceRecord
 10
0.0
 20
0.0
 30
0.0
 70
   128
 71
    59
 72
    58
 73
   125
  0
VERTEX
  5
84D
330
6D9
100
AcDbEntity
  8
0
 62
     7
100
AcDbFaceRecord
 10
0.0
 20
0.0
 30
0.0
 70
   128
 71
   125
 72
    58
 73
    52
  0
VERTEX
  5
84E
330
6D9
100
AcDbEntity
  8
0
 62
     7
100
AcDbFaceRecord
 10
0.0
 20
0.0
 30
0.0
 70
   128
 71
   123
 72
   113
 73
   124
  0
VERTEX
  5
84F
330
6D9
100
AcDbEntity
  8
0
 62
     7
100
AcDbFaceRecord
 10
0.0
 20
0.0
 30
0.0
 70
   128
 71
   113
 72
   123
 73
   122
  0
VERTEX
  5
850
330
6D9
100
AcDbEntity
  8
0
 62
     7
100
AcDbFaceRecord
 10
0.0
 20
0.0
 30
0.0
 70
   128
 71
    29
 72
    80
 73
   115
  0
VERTEX
  5
851
330
6D9
100
AcDbEntity
  8
0
 62
     7
100
AcDbFaceRecord
 10
0.0
 20
0.0
 30
0.0
 70
   128
 71
   126
 72
   125
 73
   120
  0
VERTEX
  5
852
330
6D9
100
AcDbEntity
  8
0
 62
     7
100
AcDbFaceRecord
 10
0.0
 20
0.0
 30
0.0
 70
   128
 71
   125
 72
   124
 73
   120
  0
VERTEX
  5
853
330
6D9
100
AcDbEntity
  8
0
 62
     7
100
AcDbFaceRecord
 10
0.0
 20
0.0
 30
0.0
 70
   128
 71
   113
 72
   121
 73
   124
  0
VERTEX
  5
854
330
6D9
100
AcDbEntity
  8
0
 62
     7
100
AcDbFaceRecord
 10
0.0
 20
0.0
 30
0.0
 70
   128
 71
   121
 72
   119
 73
   124
  0
VERTEX
  5
855
330
6D9
100
AcDbEntity
  8
0
 62
     7
100
AcDbFaceRecord
 10
0.0
 20
0.0
 30
0.0
 70
   128
 71
   124
 72
   119
 73
   120
  0
VERTEX
  5
856
330
6D9
100
AcDbEntity
  8
0
 62
     7
100
AcDbFaceRecord
 10
0.0
 20
0.0
 30
0.0
 70
   128
 71
    30
 72
    53
 73
    41
  0
VERTEX
  5
857
330
6D9
100
AcDbEntity
  8
0
 62
     7
100
AcDbFaceRecord
 10
0.0
 20
0.0
 30
0.0
 70
   128
 71
    53
 72
    50
 73
    41
  0
VERTEX
  5
858
330
6D9
100
AcDbEntity
  8
0
 62
     7
100
AcDbFaceRecord
 10
0.0
 20
0.0
 30
0.0
 70
   128
 71
    50
 72
    39
 73
    41
  0
VERTEX
  5
859
330
6D9
100
AcDbEntity
  8
0
 62
     7
100
AcDbFaceRecord
 10
0.0
 20
0.0
 30
0.0
 70
   128
 71
   127
 72
   128
 73
   129
  0
VERTEX
  5
85A
330
6D9
100
AcDbEntity
  8
0
 62
     7
100
AcDbFaceRecord
 10
0.0
 20
0.0
 30
0.0
 70
   128
 71
   128
 72
   130
 73
   129
  0
VERTEX
  5
85B
330
6D9
100
AcDbEntity
  8
0
 62
     7
100
AcDbFaceRecord
 10
0.0
 20
0.0
 30
0.0
 70
   128
 71
   129
 72
   131
 73
   127
  0
VERTEX
  5
85C
330
6D9
100
AcDbEntity
  8
0
 62
     7
100
AcDbFaceRecord
 10
0.0
 20
0.0
 30
0.0
 70
   128
 71
   131
 72
   132
 73
   127
  0
VERTEX
  5
85D
330
6D9
100
AcDbEntity
  8
0
 62
     7
100
AcDbFaceRecord
 10
0.0
 20
0.0
 30
0.0
 70
   128
 71
   132
 72
   133
 73
   127
  0
VERTEX
  5
85E
330
6D9
100
AcDbEntity
  8
0
 62
     7
100
AcDbFaceRecord
 10
0.0
 20
0.0
 30
0.0
 70
   128
 71
   134
 72
   133
 73
   135
  0
VERTEX
  5
85F
330
6D9
100
AcDbEntity
  8
0
 62
     7
100
AcDbFaceRecord
 10
0.0
 20
0.0
 30
0.0
 70
   128
 71
   134
 72
   136
 73
   133
  0
VERTEX
  5
860
330
6D9
100
AcDbEntity
  8
0
 62
     7
100
AcDbFaceRecord
 10
0.0
 20
0.0
 30
0.0
 70
   128
 71
    96
 72
   128
 73
   127
  0
VERTEX
  5
861
330
6D9
100
AcDbEntity
  8
0
 62
     7
100
AcDbFaceRecord
 10
0.0
 20
0.0
 30
0.0
 70
   128
 71
    96
 72
    93
 73
   128
  0
VERTEX
  5
862
330
6D9
100
AcDbEntity
  8
0
 62
     7
100
AcDbFaceRecord
 10
0.0
 20
0.0
 30
0.0
 70
   128
 71
    93
 72
    97
 73
   128
  0
VERTEX
  5
863
330
6D9
100
AcDbEntity
  8
0
 62
     7
100
AcDbFaceRecord
 10
0.0
 20
0.0
 30
0.0
 70
   128
 71
    24
 72
   130
 73
    97
  0
VERTEX
  5
864
330
6D9
100
AcDbEntity
  8
0
 62
     7
100
AcDbFaceRecord
 10
0.0
 20
0.0
 30
0.0
 70
   128
 71
    97
 72
   130
 73
   128
  0
VERTEX
  5
865
330
6D9
100
AcDbEntity
  8
0
 62
     7
100
AcDbFaceRecord
 10
0.0
 20
0.0
 30
0.0
 70
   128
 71
   127
 72
   136
 73
    96
  0
VERTEX
  5
866
330
6D9
100
AcDbEntity
  8
0
 62
     7
100
AcDbFaceRecord
 10
0.0
 20
0.0
 30
0.0
 70
   128
 71
   136
 72
   127
 73
   133
  0
VERTEX
  5
867
330
6D9
100
AcDbEntity
  8
0
 62
     7
100
AcDbFaceRecord
 10
0.0
 20
0.0
 30
0.0
 70
   128
 71
   135
 72
   137
 73
   134
  0
VERTEX
  5
868
330
6D9
100
AcDbEntity
  8
0
 62
     7
100
AcDbFaceRecord
 10
0.0
 20
0.0
 30
0.0
 70
   128
 71
   137
 72
   106
 73
   134
  0
VERTEX
  5
869
330
6D9
100
AcDbEntity
  8
0
 62
     7
100
AcDbFaceRecord
 10
0.0
 20
0.0
 30
0.0
 70
   128
 71
   137
 72
   118
 73
   106
  0
VERTEX
  5
86A
330
6D9
100
AcDbEntity
  8
0
 62
     7
100
AcDbFaceRecord
 10
0.0
 20
0.0
 30
0.0
 70
   128
 71
   136
 72
   134
 73
   100
  0
VERTEX
  5
86B
330
6D9
100
AcDbEntity
  8
0
 62
     7
100
AcDbFaceRecord
 10
0.0
 20
0.0
 30
0.0
 70
   128
 71
   134
 72
   106
 73
   100
  0
VERTEX
  5
86C
330
6D9
100
AcDbEntity
  8
0
 62
     7
100
AcDbFaceRecord
 10
0.0
 20
0.0
 30
0.0
 70
   128
 71
   100
 72
    99
 73
   136
  0
VERTEX
  5
86D
330
6D9
100
AcDbEntity
  8
0
 62
     7
100
AcDbFaceRecord
 10
0.0
 20
0.0
 30
0.0
 70
   128
 71
    99
 72
    98
 73
   136
  0
VERTEX
  5
86E
330
6D9
100
AcDbEntity
  8
0
 62
     7
100
AcDbFaceRecord
 10
0.0
 20
0.0
 30
0.0
 70
   128
 71
    98
 72
    96
 73
   136
  0
VERTEX
  5
86F
330
6D9
100
AcDbEntity
  8
0
 62
     7
100
AcDbFaceRecord
 10
0.0
 20
0.0
 30
0.0
 70
   128
 71
   138
 72
   139
 73
   118
  0
VERTEX
  5
870
330
6D9
100
AcDbEntity
  8
0
 62
     7
100
AcDbFaceRecord
 10
0.0
 20
0.0
 30
0.0
 70
   128
 71
   139
 72
   120
 73
   118
  0
VERTEX
  5
871
330
6D9
100
AcDbEntity
  8
0
 62
     7
100
AcDbFaceRecord
 10
0.0
 20
0.0
 30
0.0
 70
   128
 71
   118
 72
   137
 73
   138
  0
VERTEX
  5
872
330
6D9
100
AcDbEntity
  8
0
 62
     7
100
AcDbFaceRecord
 10
0.0
 20
0.0
 30
0.0
 70
   128
 71
   137
 72
   135
 73
   138
  0
VERTEX
  5
873
330
6D9
100
AcDbEntity
  8
0
 62
     7
100
AcDbFaceRecord
 10
0.0
 20
0.0
 30
0.0
 70
   128
 71
   135
 72
   133
 73
   138
  0
VERTEX
  5
874
330
6D9
100
AcDbEntity
  8
0
 62
     7
100
AcDbFaceRecord
 10
0.0
 20
0.0
 30
0.0
 70
   128
 71
   140
 72
   141
 73
   142
  0
VERTEX
  5
875
330
6D9
100
AcDbEntity
  8
0
 62
     7
100
AcDbFaceRecord
 10
0.0
 20
0.0
 30
0.0
 70
   128
 71
   141
 72
   143
 73
   142
  0
VERTEX
  5
876
330
6D9
100
AcDbEntity
  8
0
 62
     7
100
AcDbFaceRecord
 10
0.0
 20
0.0
 30
0.0
 70
   128
 71
   142
 72
   144
 73
   140
  0
VERTEX
  5
877
330
6D9
100
AcDbEntity
  8
0
 62
     7
100
AcDbFaceRecord
 10
0.0
 20
0.0
 30
0.0
 70
   128
 71
   144
 72
   145
 73
   140
  0
VERTEX
  5
878
330
6D9
100
AcDbEntity
  8
0
 62
     7
100
AcDbFaceRecord
 10
0.0
 20
0.0
 30
0.0
 70
   128
 71
   145
 72
   146
 73
   140
  0
VERTEX
  5
879
330
6D9
100
AcDbEntity
  8
0
 62
     7
100
AcDbFaceRecord
 10
0.0
 20
0.0
 30
0.0
 70
   128
 71
   139
 72
   146
 73
   147
  0
VERTEX
  5
87A
330
6D9
100
AcDbEntity
  8
0
 62
     7
100
AcDbFaceRecord
 10
0.0
 20
0.0
 30
0.0
 70
   128
 71
   139
 72
   138
 73
   146
  0
VERTEX
  5
87B
330
6D9
100
AcDbEntity
  8
0
 62
     7
100
AcDbFaceRecord
 10
0.0
 20
0.0
 30
0.0
 70
   128
 71
   133
 72
   141
 73
   140
  0
VERTEX
  5
87C
330
6D9
100
AcDbEntity
  8
0
 62
     7
100
AcDbFaceRecord
 10
0.0
 20
0.0
 30
0.0
 70
   128
 71
   133
 72
   132
 73
   141
  0
VERTEX
  5
87D
330
6D9
100
AcDbEntity
  8
0
 62
     7
100
AcDbFaceRecord
 10
0.0
 20
0.0
 30
0.0
 70
   128
 71
   132
 72
   131
 73
   141
  0
VERTEX
  5
87E
330
6D9
100
AcDbEntity
  8
0
 62
     7
100
AcDbFaceRecord
 10
0.0
 20
0.0
 30
0.0
 70
   128
 71
   129
 72
   143
 73
   131
  0
VERTEX
  5
87F
330
6D9
100
AcDbEntity
  8
0
 62
     7
100
AcDbFaceRecord
 10
0.0
 20
0.0
 30
0.0
 70
   128
 71
   131
 72
   143
 73
   141
  0
VERTEX
  5
880
330
6D9
100
AcDbEntity
  8
0
 62
     7
100
AcDbFaceRecord
 10
0.0
 20
0.0
 30
0.0
 70
   128
 71
   140
 72
   138
 73
   133
  0
VERTEX
  5
881
330
6D9
100
AcDbEntity
  8
0
 62
     7
100
AcDbFaceRecord
 10
0.0
 20
0.0
 30
0.0
 70
   128
 71
   138
 72
   140
 73
   146
  0
VERTEX
  5
882
330
6D9
100
AcDbEntity
  8
0
 62
     7
100
AcDbFaceRecord
 10
0.0
 20
0.0
 30
0.0
 70
   128
 71
   147
 72
   148
 73
   139
  0
VERTEX
  5
883
330
6D9
100
AcDbEntity
  8
0
 62
     7
100
AcDbFaceRecord
 10
0.0
 20
0.0
 30
0.0
 70
   128
 71
   148
 72
   120
 73
   139
  0
VERTEX
  5
884
330
6D9
100
AcDbEntity
  8
0
 62
     7
100
AcDbFaceRecord
 10
0.0
 20
0.0
 30
0.0
 70
   128
 71
   148
 72
   126
 73
   120
  0
VERTEX
  5
885
330
6D9
100
AcDbEntity
  8
0
 62
     7
100
AcDbFaceRecord
 10
0.0
 20
0.0
 30
0.0
 70
   128
 71
   149
 72
   150
 73
   126
  0
VERTEX
  5
886
330
6D9
100
AcDbEntity
  8
0
 62
     7
100
AcDbFaceRecord
 10
0.0
 20
0.0
 30
0.0
 70
   128
 71
   150
 72
    60
 73
   126
  0
VERTEX
  5
887
330
6D9
100
AcDbEntity
  8
0
 62
     7
100
AcDbFaceRecord
 10
0.0
 20
0.0
 30
0.0
 70
   128
 71
   126
 72
   148
 73
   149
  0
VERTEX
  5
888
330
6D9
100
AcDbEntity
  8
0
 62
     7
100
AcDbFaceRecord
 10
0.0
 20
0.0
 30
0.0
 70
   128
 71
   148
 72
   147
 73
   149
  0
VERTEX
  5
889
330
6D9
100
AcDbEntity
  8
0
 62
     7
100
AcDbFaceRecord
 10
0.0
 20
0.0
 30
0.0
 70
   128
 71
   147
 72
   146
 73
   149
  0
VERTEX
  5
88A
330
6D9
100
AcDbEntity
  8
0
 62
     7
100
AcDbFaceRecord
 10
0.0
 20
0.0
 30
0.0
 70
   128
 71
   151
 72
   152
 73
    68
  0
VERTEX
  5
88B
330
6D9
100
AcDbEntity
  8
0
 62
     7
100
AcDbFaceRecord
 10
0.0
 20
0.0
 30
0.0
 70
   128
 71
   152
 72
    74
 73
    68
  0
VERTEX
  5
88C
330
6D9
100
AcDbEntity
  8
0
 62
     7
100
AcDbFaceRecord
 10
0.0
 20
0.0
 30
0.0
 70
   128
 71
    68
 72
    67
 73
   151
  0
VERTEX
  5
88D
330
6D9
100
AcDbEntity
  8
0
 62
     7
100
AcDbFaceRecord
 10
0.0
 20
0.0
 30
0.0
 70
   128
 71
    67
 72
    66
 73
   151
  0
VERTEX
  5
88E
330
6D9
100
AcDbEntity
  8
0
 62
     7
100
AcDbFaceRecord
 10
0.0
 20
0.0
 30
0.0
 70
   128
 71
    66
 72
    64
 73
   151
  0
VERTEX
  5
88F
330
6D9
100
AcDbEntity
  8
0
 62
     7
100
AcDbFaceRecord
 10
0.0
 20
0.0
 30
0.0
 70
   128
 71
   150
 72
    64
 73
    61
  0
VERTEX
  5
890
330
6D9
100
AcDbEntity
  8
0
 62
     7
100
AcDbFaceRecord
 10
0.0
 20
0.0
 30
0.0
 70
   128
 71
   150
 72
   149
 73
    64
  0
VERTEX
  5
891
330
6D9
100
AcDbEntity
  8
0
 62
     7
100
AcDbFaceRecord
 10
0.0
 20
0.0
 30
0.0
 70
   128
 71
   146
 72
   152
 73
   151
  0
VERTEX
  5
892
330
6D9
100
AcDbEntity
  8
0
 62
     7
100
AcDbFaceRecord
 10
0.0
 20
0.0
 30
0.0
 70
   128
 71
   146
 72
   145
 73
   152
  0
VERTEX
  5
893
330
6D9
100
AcDbEntity
  8
0
 62
     7
100
AcDbFaceRecord
 10
0.0
 20
0.0
 30
0.0
 70
   128
 71
   145
 72
   144
 73
   152
  0
VERTEX
  5
894
330
6D9
100
AcDbEntity
  8
0
 62
     7
100
AcDbFaceRecord
 10
0.0
 20
0.0
 30
0.0
 70
   128
 71
   142
 72
    74
 73
   144
  0
VERTEX
  5
895
330
6D9
100
AcDbEntity
  8
0
 62
     7
100
AcDbFaceRecord
 10
0.0
 20
0.0
 30
0.0
 70
   128
 71
   144
 72
    74
 73
   152
  0
VERTEX
  5
896
330
6D9
100
AcDbEntity
  8
0
 62
     7
100
AcDbFaceRecord
 10
0.0
 20
0.0
 30
0.0
 70
   128
 71
   151
 72
   149
 73
   146
  0
VERTEX
  5
897
330
6D9
100
AcDbEntity
  8
0
 62
     7
100
AcDbFaceRecord
 10
0.0
 20
0.0
 30
0.0
 70
   128
 71
   149
 72
   151
 73
    64
  0
VERTEX
  5
898
330
6D9
100
AcDbEntity
  8
0
 62
     7
100
AcDbFaceRecord
 10
0.0
 20
0.0
 30
0.0
 70
   128
 71
    61
 72
    65
 73
   150
  0
VERTEX
  5
899
330
6D9
100
AcDbEntity
  8
0
 62
     7
100
AcDbFaceRecord
 10
0.0
 20
0.0
 30
0.0
 70
   128
 71
    65
 72
    37
 73
   150
  0
VERTEX
  5
89A
330
6D9
100
AcDbEntity
  8
0
 62
     7
100
AcDbFaceRecord
 10
0.0
 20
0.0
 30
0.0
 70
   128
 71
    37
 72
    60
 73
   150
  0
VERTEX
  5
89B
330
6D9
100
AcDbEntity
  8
0
 62
     7
100
AcDbFaceRecord
 10
0.0
 20
0.0
 30
0.0
 70
   128
 71
    37
 72
    38
 73
    60
  0
VERTEX
  5
89C
330
6D9
100
AcDbEntity
  8
0
 62
     7
100
AcDbFaceRecord
 10
0.0
 20
0.0
 30
0.0
 70
   128
 71
    24
 72
    91
 73
   130
  0
VERTEX
  5
89D
330
6D9
100
AcDbEntity
  8
0
 62
     7
100
AcDbFaceRecord
 10
0.0
 20
0.0
 30
0.0
 70
   128
 71
    91
 72
    90
 73
   130
  0
VERTEX
  5
89E
330
6D9
100
AcDbEntity
  8
0
 62
     7
100
AcDbFaceRecord
 10
0.0
 20
0.0
 30
0.0
 70
   128
 71
    89
 72
   153
 73
    90
  0
VERTEX
  5
89F
330
6D9
100
AcDbEntity
  8
0
 62
     7
100
AcDbFaceRecord
 10
0.0
 20
0.0
 30
0.0
 70
   128
 71
   153
 72
   154
 73
    90
  0
VERTEX
  5
8A0
330
6D9
100
AcDbEntity
  8
0
 62
     7
100
AcDbFaceRecord
 10
0.0
 20
0.0
 30
0.0
 70
   128
 71
    90
 72
   154
 73
   130
  0
VERTEX
  5
8A1
330
6D9
100
AcDbEntity
  8
0
 62
     7
100
AcDbFaceRecord
 10
0.0
 20
0.0
 30
0.0
 70
   128
 71
   129
 72
   155
 73
   143
  0
VERTEX
  5
8A2
330
6D9
100
AcDbEntity
  8
0
 62
     7
100
AcDbFaceRecord
 10
0.0
 20
0.0
 30
0.0
 70
   128
 71
   155
 72
   156
 73
   143
  0
VERTEX
  5
8A3
330
6D9
100
AcDbEntity
  8
0
 62
     7
100
AcDbFaceRecord
 10
0.0
 20
0.0
 30
0.0
 70
   128
 71
   157
 72
   158
 73
   156
  0
VERTEX
  5
8A4
330
6D9
100
AcDbEntity
  8
0
 62
     7
100
AcDbFaceRecord
 10
0.0
 20
0.0
 30
0.0
 70
   128
 71
   158
 72
   159
 73
   156
  0
VERTEX
  5
8A5
330
6D9
100
AcDbEntity
  8
0
 62
     7
100
AcDbFaceRecord
 10
0.0
 20
0.0
 30
0.0
 70
   128
 71
   156
 72
   159
 73
   143
  0
VERTEX
  5
8A6
330
6D9
100
AcDbEntity
  8
0
 62
     7
100
AcDbFaceRecord
 10
0.0
 20
0.0
 30
0.0
 70
   128
 71
    14
 72
   160
 73
     2
  0
VERTEX
  5
8A7
330
6D9
100
AcDbEntity
  8
0
 62
     7
100
AcDbFaceRecord
 10
0.0
 20
0.0
 30
0.0
 70
   128
 71
   160
 72
   161
 73
     2
  0
VERTEX
  5
8A8
330
6D9
100
AcDbEntity
  8
0
 62
     7
100
AcDbFaceRecord
 10
0.0
 20
0.0
 30
0.0
 70
   128
 71
   161
 72
   157
 73
     2
  0
VERTEX
  5
8A9
330
6D9
100
AcDbEntity
  8
0
 62
     7
100
AcDbFaceRecord
 10
0.0
 20
0.0
 30
0.0
 70
   128
 71
   156
 72
   162
 73
   163
  0
VERTEX
  5
8AA
330
6D9
100
AcDbEntity
  8
0
 62
     7
100
AcDbFaceRecord
 10
0.0
 20
0.0
 30
0.0
 70
   128
 71
   156
 72
   155
 73
   162
  0
VERTEX
  5
8AB
330
6D9
100
AcDbEntity
  8
0
 62
     7
100
AcDbFaceRecord
 10
0.0
 20
0.0
 30
0.0
 70
   128
 71
   155
 72
   129
 73
   154
  0
VERTEX
  5
8AC
330
6D9
100
AcDbEntity
  8
0
 62
     7
100
AcDbFaceRecord
 10
0.0
 20
0.0
 30
0.0
 70
   128
 71
   129
 72
   130
 73
   154
  0
VERTEX
  5
8AD
330
6D9
100
AcDbEntity
  8
0
 62
     7
100
AcDbFaceRecord
 10
0.0
 20
0.0
 30
0.0
 70
   128
 71
   154
 72
   153
 73
   155
  0
VERTEX
  5
8AE
330
6D9
100
AcDbEntity
  8
0
 62
     7
100
AcDbFaceRecord
 10
0.0
 20
0.0
 30
0.0
 70
   128
 71
   153
 72
    89
 73
   155
  0
VERTEX
  5
8AF
330
6D9
100
AcDbEntity
  8
0
 62
     7
100
AcDbFaceRecord
 10
0.0
 20
0.0
 30
0.0
 70
   128
 71
   155
 72
    89
 73
   162
  0
VERTEX
  5
8B0
330
6D9
100
AcDbEntity
  8
0
 62
     7
100
AcDbFaceRecord
 10
0.0
 20
0.0
 30
0.0
 70
   128
 71
   163
 72
   157
 73
   156
  0
VERTEX
  5
8B1
330
6D9
100
AcDbEntity
  8
0
 62
     7
100
AcDbFaceRecord
 10
0.0
 20
0.0
 30
0.0
 70
   128
 71
   157
 72
   163
 73
     2
  0
VERTEX
  5
8B2
330
6D9
100
AcDbEntity
  8
0
 62
     7
100
AcDbFaceRecord
 10
0.0
 20
0.0
 30
0.0
 70
   128
 71
    14
 72
   164
 73
   160
  0
VERTEX
  5
8B3
330
6D9
100
AcDbEntity
  8
0
 62
     7
100
AcDbFaceRecord
 10
0.0
 20
0.0
 30
0.0
 70
   128
 71
   162
 72
    88
 73
    87
  0
VERTEX
  5
8B4
330
6D9
100
AcDbEntity
  8
0
 62
     7
100
AcDbFaceRecord
 10
0.0
 20
0.0
 30
0.0
 70
   128
 71
   162
 72
    89
 73
    88
  0
VERTEX
  5
8B5
330
6D9
100
AcDbEntity
  8
0
 62
     7
100
AcDbFaceRecord
 10
0.0
 20
0.0
 30
0.0
 70
   128
 71
    87
 72
    92
 73
   162
  0
VERTEX
  5
8B6
330
6D9
100
AcDbEntity
  8
0
 62
     7
100
AcDbFaceRecord
 10
0.0
 20
0.0
 30
0.0
 70
   128
 71
    92
 72
   163
 73
   162
  0
VERTEX
  5
8B7
330
6D9
100
AcDbEntity
  8
0
 62
     7
100
AcDbFaceRecord
 10
0.0
 20
0.0
 30
0.0
 70
   128
 71
    92
 72
    15
 73
   163
  0
VERTEX
  5
8B8
330
6D9
100
AcDbEntity
  8
0
 62
     7
100
AcDbFaceRecord
 10
0.0
 20
0.0
 30
0.0
 70
   128
 71
    15
 72
     2
 73
   163
  0
VERTEX
  5
8B9
330
6D9
100
AcDbEntity
  8
0
 62
     7
100
AcDbFaceRecord
 10
0.0
 20
0.0
 30
0.0
 70
   128
 71
   142
 72
   165
 73
    74
  0
VERTEX
  5
8BA
330
6D9
100
AcDbEntity
  8
0
 62
     7
100
AcDbFaceRecord
 10
0.0
 20
0.0
 30
0.0
 70
   128
 71
   165
 72
   166
 73
    74
  0
VERTEX
  5
8BB
330
6D9
100
AcDbEntity
  8
0
 62
     7
100
AcDbFaceRecord
 10
0.0
 20
0.0
 30
0.0
 70
   128
 71
    72
 72
    71
 73
   166
  0
VERTEX
  5
8BC
330
6D9
100
AcDbEntity
  8
0
 62
     7
100
AcDbFaceRecord
 10
0.0
 20
0.0
 30
0.0
 70
   128
 71
    71
 72
    73
 73
   166
  0
VERTEX
  5
8BD
330
6D9
100
AcDbEntity
  8
0
 62
     7
100
AcDbFaceRecord
 10
0.0
 20
0.0
 30
0.0
 70
   128
 71
   166
 72
    73
 73
    74
  0
VERTEX
  5
8BE
330
6D9
100
AcDbEntity
  8
0
 62
     7
100
AcDbFaceRecord
 10
0.0
 20
0.0
 30
0.0
 70
   128
 71
    12
 72
   167
 73
     9
  0
VERTEX
  5
8BF
330
6D9
100
AcDbEntity
  8
0
 62
     7
100
AcDbFaceRecord
 10
0.0
 20
0.0
 30
0.0
 70
   128
 71
   167
 72
   168
 73
     9
  0
VERTEX
  5
8C0
330
6D9
100
AcDbEntity
  8
0
 62
     7
100
AcDbFaceRecord
 10
0.0
 20
0.0
 30
0.0
 70
   128
 71
   168
 72
    72
 73
     9
  0
VERTEX
  5
8C1
330
6D9
100
AcDbEntity
  8
0
 62
     7
100
AcDbFaceRecord
 10
0.0
 20
0.0
 30
0.0
 70
   128
 71
   166
 72
   169
 73
   170
  0
VERTEX
  5
8C2
330
6D9
100
AcDbEntity
  8
0
 62
     7
100
AcDbFaceRecord
 10
0.0
 20
0.0
 30
0.0
 70
   128
 71
   166
 72
   165
 73
   169
  0
VERTEX
  5
8C3
330
6D9
100
AcDbEntity
  8
0
 62
     7
100
AcDbFaceRecord
 10
0.0
 20
0.0
 30
0.0
 70
   128
 71
   165
 72
   142
 73
   159
  0
VERTEX
  5
8C4
330
6D9
100
AcDbEntity
  8
0
 62
     7
100
AcDbFaceRecord
 10
0.0
 20
0.0
 30
0.0
 70
   128
 71
   142
 72
   143
 73
   159
  0
VERTEX
  5
8C5
330
6D9
100
AcDbEntity
  8
0
 62
     7
100
AcDbFaceRecord
 10
0.0
 20
0.0
 30
0.0
 70
   128
 71
   159
 72
   158
 73
   165
  0
VERTEX
  5
8C6
330
6D9
100
AcDbEntity
  8
0
 62
     7
100
AcDbFaceRecord
 10
0.0
 20
0.0
 30
0.0
 70
   128
 71
   158
 72
   157
 73
   165
  0
VERTEX
  5
8C7
330
6D9
100
AcDbEntity
  8
0
 62
     7
100
AcDbFaceRecord
 10
0.0
 20
0.0
 30
0.0
 70
   128
 71
   165
 72
   157
 73
   169
  0
VERTEX
  5
8C8
330
6D9
100
AcDbEntity
  8
0
 62
     7
100
AcDbFaceRecord
 10
0.0
 20
0.0
 30
0.0
 70
   128
 71
   170
 72
    72
 73
   166
  0
VERTEX
  5
8C9
330
6D9
100
AcDbEntity
  8
0
 62
     7
100
AcDbFaceRecord
 10
0.0
 20
0.0
 30
0.0
 70
   128
 71
    72
 72
   170
 73
     9
  0
VERTEX
  5
8CA
330
6D9
100
AcDbEntity
  8
0
 62
     7
100
AcDbFaceRecord
 10
0.0
 20
0.0
 30
0.0
 70
   128
 71
    12
 72
   171
 73
   167
  0
VERTEX
  5
8CB
330
6D9
100
AcDbEntity
  8
0
 62
     7
100
AcDbFaceRecord
 10
0.0
 20
0.0
 30
0.0
 70
   128
 71
   169
 72
   161
 73
   160
  0
VERTEX
  5
8CC
330
6D9
100
AcDbEntity
  8
0
 62
     7
100
AcDbFaceRecord
 10
0.0
 20
0.0
 30
0.0
 70
   128
 71
   169
 72
   157
 73
   161
  0
VERTEX
  5
8CD
330
6D9
100
AcDbEntity
  8
0
 62
     7
100
AcDbFaceRecord
 10
0.0
 20
0.0
 30
0.0
 70
   128
 71
   160
 72
   164
 73
   169
  0
VERTEX
  5
8CE
330
6D9
100
AcDbEntity
  8
0
 62
     7
100
AcDbFaceRecord
 10
0.0
 20
0.0
 30
0.0
 70
   128
 71
   164
 72
   170
 73
   169
  0
VERTEX
  5
8CF
330
6D9
100
AcDbEntity
  8
0
 62
     7
100
AcDbFaceRecord
 10
0.0
 20
0.0
 30
0.0
 70
   128
 71
   164
 72
    13
 73
   170
  0
VERTEX
  5
8D0
330
6D9
100
AcDbEntity
  8
0
 62
     7
100
AcDbFaceRecord
 10
0.0
 20
0.0
 30
0.0
 70
   128
 71
    13
 72
     9
 73
   170
  0
VERTEX
  5
8D1
330
6D9
100
AcDbEntity
  8
0
 62
     7
100
AcDbFaceRecord
 10
0.0
 20
0.0
 30
0.0
 70
   128
 71
    75
 72
   168
 73
   167
  0
VERTEX
  5
8D2
330
6D9
100
AcDbEntity
  8
0
 62
     7
100
AcDbFaceRecord
 10
0.0
 20
0.0
 30
0.0
 70
   128
 71
    75
 72
    72
 73
   168
  0
VERTEX
  5
8D3
330
6D9
100
AcDbEntity
  8
0
 62
     7
100
AcDbFaceRecord
 10
0.0
 20
0.0
 30
0.0
 70
   128
 71
   167
 72
   171
 73
    75
  0
VERTEX
  5
8D4
330
6D9
100
AcDbEntity
  8
0
 62
     7
100
AcDbFaceRecord
 10
0.0
 20
0.0
 30
0.0
 70
   128
 71
   171
 72
    76
 73
    75
  0
VERTEX
  5
8D5
330
6D9
100
AcDbEntity
  8
0
 62
     7
100
AcDbFaceRecord
 10
0.0
 20
0.0
 30
0.0
 70
   128
 71
   171
 72
    11
 73
    76
  0
VERTEX
  5
8D6
330
6D9
100
AcDbEntity
  8
0
 62
     7
100
AcDbFaceRecord
 10
0.0
 20
0.0
 30
0.0
 70
   128
 71
    11
 72
    10
 73
    76
  0
VERTEX
  5
8D7
330
6D9
100
AcDbEntity
  8
0
 62
     7
100
AcDbFaceRecord
 10
0.0
 20
0.0
 30
0.0
 70
   128
 71
    92
 72
   172
 73
    15
  0
VERTEX
  5
8D8
330
6D9
100
AcDbEntity
  8
0
 62
     7
100
AcDbFaceRecord
 10
0.0
 20
0.0
 30
0.0
 70
   128
 71
   172
 72
   173
 73
    15
  0
VERTEX
  5
8D9
330
6D9
100
AcDbEntity
  8
0
 62
     7
100
AcDbFaceRecord
 10
0.0
 20
0.0
 30
0.0
 70
   128
 71
   173
 72
     3
 73
    15
  0
VERTEX
  5
8DA
330
6D9
100
AcDbEntity
  8
0
 62
     7
100
AcDbFaceRecord
 10
0.0
 20
0.0
 30
0.0
 70
   128
 71
   173
 72
   172
 73
    16
  0
VERTEX
  5
8DB
330
6D9
100
AcDbEntity
  8
0
 62
     7
100
AcDbFaceRecord
 10
0.0
 20
0.0
 30
0.0
 70
   128
 71
   172
 72
    92
 73
    16
  0
VERTEX
  5
8DC
330
6D9
100
AcDbEntity
  8
0
 62
     7
100
AcDbFaceRecord
 10
0.0
 20
0.0
 30
0.0
 70
   128
 71
    16
 72
     3
 73
   173
  0
VERTEX
  5
8DD
330
6D9
100
AcDbEntity
  8
0
 62
     7
100
AcDbFaceRecord
 10
0.0
 20
0.0
 30
0.0
 70
   128
 71
   174
 72
   175
 73
    14
  0
VERTEX
  5
8DE
330
6D9
100
AcDbEntity
  8
0
 62
     7
100
AcDbFaceRecord
 10
0.0
 20
0.0
 30
0.0
 70
   128
 71
   175
 72
   164
 73
    14
  0
VERTEX
  5
8DF
330
6D9
100
AcDbEntity
  8
0
 62
     7
100
AcDbFaceRecord
 10
0.0
 20
0.0
 30
0.0
 70
   128
 71
    14
 72
     1
 73
   174
  0
VERTEX
  5
8E0
330
6D9
100
AcDbEntity
  8
0
 62
     7
100
AcDbFaceRecord
 10
0.0
 20
0.0
 30
0.0
 70
   128
 71
   164
 72
   175
 73
    13
  0
VERTEX
  5
8E1
330
6D9
100
AcDbEntity
  8
0
 62
     7
100
AcDbFaceRecord
 10
0.0
 20
0.0
 30
0.0
 70
   128
 71
   175
 72
   174
 73
    13
  0
VERTEX
  5
8E2
330
6D9
100
AcDbEntity
  8
0
 62
     7
100
AcDbFaceRecord
 10
0.0
 20
0.0
 30
0.0
 70
   128
 71
   174
 72
     1
 73
    13
  0
VERTEX
  5
8E3
330
6D9
100
AcDbEntity
  8
0
 62
     7
100
AcDbFaceRecord
 10
0.0
 20
0.0
 30
0.0
 70
   128
 71
   176
 72
   177
 73
    12
  0
VERTEX
  5
8E4
330
6D9
100
AcDbEntity
  8
0
 62
     7
100
AcDbFaceRecord
 10
0.0
 20
0.0
 30
0.0
 70
   128
 71
   177
 72
   171
 73
    12
  0
VERTEX
  5
8E5
330
6D9
100
AcDbEntity
  8
0
 62
     7
100
AcDbFaceRecord
 10
0.0
 20
0.0
 30
0.0
 70
   128
 71
    12
 72
     8
 73
   176
  0
VERTEX
  5
8E6
330
6D9
100
AcDbEntity
  8
0
 62
     7
100
AcDbFaceRecord
 10
0.0
 20
0.0
 30
0.0
 70
   128
 71
   171
 72
   177
 73
    11
  0
VERTEX
  5
8E7
330
6D9
100
AcDbEntity
  8
0
 62
     7
100
AcDbFaceRecord
 10
0.0
 20
0.0
 30
0.0
 70
   128
 71
   177
 72
   176
 73
    11
  0
VERTEX
  5
8E8
330
6D9
100
AcDbEntity
  8
0
 62
     7
100
AcDbFaceRecord
 10
0.0
 20
0.0
 30
0.0
 70
   128
 71
   176
 72
     8
 73
    11
  0
SEQEND
  5
8E9
330
6D9
100
AcDbEntity
  8
0
 62
     7
  0
INSERT
  5
904
330
1F
100
AcDbEntity
  8
0
100
AcDbBlockReference
 66
     1
  2
RM_SDB
 10
0.0
 20
0.0
 30
0.0
1001
AVE_MATERIAL
1002
{
1000
*GLOBAL*01
1000
2
1000

1002
{
1002
}
1002
{
1070
    39
1002
{
1002
{
1010
1.428571462631225
1020
1.428571462631225
1030
1.428571462631225
1002
}
1040
0.6999999880790711
1000

1040
0.0
1002
{
1002
}
1040
0.0
1002
{
1002
}
1040
0.0
1002
}
1002
{
1002
{
1010
1.0
1020
1.0
1030
1.0
1002
}
1040
1.0
1000

1040
0.0
1002
{
1002
}
1040
0.0
1002
{
1002
}
1040
0.0
1002
}
1002
{
1002
{
1010
5.0
1020
5.0
1030
5.0
1002
}
1040
0.2000000029802322
1000

1040
0.0
1002
{
1002
}
1040
0.0
1002
{
1002
}
1040
0.0
1002
}
1002
{
1070
     0
1002
{
1070
     1
1002
{
1040
1.0
1040
1.0
1000

1040
0.0
1002
{
1002
}
1040
0.0
1002
{
1002
}
1040
0.0
1002
}
1002
}
1040
0.0
1040
0.0
1040
0.0
1002
}
1002
{
1040
0.0
1040
0.0
1000

1040
0.0
1002
{
1002
}
1040
0.0
1002
{
1002
}
1040
0.0
1002
}
1002
{
1040
0.5
1040
1.0
1000

1040
0.0
1002
{
1002
}
1040
0.0
1002
{
1002
}
1040
0.0
1002
}
1002
{
1070
     0
1040
0.0
1002
{
1002
}
1040
0.0
1002
{
1002
}
1040
0.0
1002
}
1002
{
1040
0.0
1002
{
1002
{
1010
0.0
1020
0.0
1030
0.0
1002
}
1040
0.0
1000

1040
0.0
1002
{
1002
}
1040
0.0
1002
{
1002
}
1040
0.0
1002
}
1002
}
1002
{
1002
{
1070
     1
1002
{
1040
0.0
1040
1.0
1000

1040
0.0
1002
{
1002
}
1040
0.0
1002
{
1002
}
1040
0.0
1002
}
1002
}
1040
0.0
1002
{
1002
}
1010
0.0
1020
0.0
1030
0.0
1010
0.0
1020
0.0
1030
0.0
1010
0.0
1020
0.0
1030
0.0
1070
     0
1002
}
1002
{
1002
{
1040
0.0
1040
0.0
1002
{
1070
     0
1002
}
1002
}
1070
     0
1040
0.0
1002
{
1002
}
1002
}
1002
{
1002
}
1002
}
1002
{
1071
        3
1070
     3
1070
     0
1002
{
1070
     2
1070
     1
1070
     0
1040
0.0
1002
}
1070
     0
1070
     2
1002
{
1002
}
1002
}
1002
{
1040
8030.0
1040
190.3000030517578
1040
0.3050000071525574
1040
228.0
1040
545.0
1040
14.0
1040
17.39999961853027
1040
0.4560000002384186
1002
}
1000
91D
1002
}
  0
ATTRIB
  5
905
330
904
100
AcDbEntity
  8
0
100
AcDbText
 10
0.0
 20
0.0
 30
0.0
 40
0.2
  1
*GLOBAL*01
100
AcDbAttribute
  2
NAME
 70
     1
  0
ATTRIB
  5
906
330
904
100
AcDbEntity
  8
0
100
AcDbText
 10
0.0
 20
0.0
 30
0.0
 40
0.2
  1

100
AcDbAttribute
  2
ACADCOLOR
 70
     1
  0
ATTRIB
  5
907
330
904
100
AcDbEntity
  8
0
100
AcDbText
 10
0.0
 20
0.0
 30
0.0
 40
0.2
  1
1.0000,1.0000,1.0000
100
AcDbAttribute
  2
COLOR
 70
     1
  0
ATTRIB
  5
908
330
904
100
AcDbEntity
  8
0
100
AcDbText
 10
0.0
 20
0.0
 30
0.0
 40
0.2
  1
1.0,1.0,1.0
100
AcDbAttribute
  2
OPACITY
 70
     1
  0
ATTRIB
  5
909
330
904
100
AcDbEntity
  8
0
100
AcDbText
 10
0.0
 20
0.0
 30
0.0
 40
0.2
  1
("nullsurf" "")
100
AcDbAttribute
  2
SURFACE
 70
     1
  0
ATTRIB
  5
90A
330
904
100
AcDbEntity
  8
0
100
AcDbText
 10
0.0
 20
0.0
 30
0.0
 40
0.2
  1
(11 "Ka" "0.7")(11 "Kd" "1")(11 "Ks" "0.2")(11 "roughness" "0.5")
100
AcDbAttribute
  2
SURF1
 70
     1
  0
ATTRIB
  5
90B
330
904
100
AcDbEntity
  8
0
100
AcDbText
 10
0.0
 20
0.0
 30
0.0
 40
0.2
  1

100
AcDbAttribute
  2
SURF2
 70
     1
  0
ATTRIB
  5
90C
330
904
100
AcDbEntity
  8
0
100
AcDbText
 10
0.0
 20
0.0
 30
0.0
 40
0.2
  1

100
AcDbAttribute
  2
SURF3
 70
     1
  0
ATTRIB
  5
90D
330
904
100
AcDbEntity
  8
0
100
AcDbText
 10
0.0
 20
0.0
 30
0.0
 40
0.2
  1

100
AcDbAttribute
  2
SURF4
 70
     1
  0
ATTRIB
  5
90E
330
904
100
AcDbEntity
  8
0
100
AcDbText
 10
0.0
 20
0.0
 30
0.0
 40
0.2
  1
-1.0
100
AcDbAttribute
  2
SHADINGRATE
 70
     1
  0
ATTRIB
  5
90F
330
904
100
AcDbEntity
  8
0
100
AcDbText
 10
0.0
 20
0.0
 30
0.0
 40
0.2
  1
("nulldisp" "")
100
AcDbAttribute
  2
DISPLACEMENT
 70
     1
  0
ATTRIB
  5
910
330
904
100
AcDbEntity
  8
0
100
AcDbText
 10
0.0
 20
0.0
 30
0.0
 40
0.2
  1

100
AcDbAttribute
  2
DISP1
 70
     1
  0
ATTRIB
  5
911
330
904
100
AcDbEntity
  8
0
100
AcDbText
 10
0.0
 20
0.0
 30
0.0
 40
0.2
  1

100
AcDbAttribute
  2
DISP2
 70
     1
  0
ATTRIB
  5
912
330
904
100
AcDbEntity
  8
0
100
AcDbText
 10
0.0
 20
0.0
 30
0.0
 40
0.2
  1

100
AcDbAttribute
  2
DISP3
 70
     1
  0
ATTRIB
  5
913
330
904
100
AcDbEntity
  8
0
100
AcDbText
 10
0.0
 20
0.0
 30
0.0
 40
0.2
  1

100
AcDbAttribute
  2
DISP4
 70
     1
  0
ATTRIB
  5
914
330
904
100
AcDbEntity
  8
0
100
AcDbText
 10
0.0
 20
0.0
 30
0.0
 40
0.2
  1
0.0
100
AcDbAttribute
  2
DBOUND
 70
     1
  0
ATTRIB
  5
915
330
904
100
AcDbEntity
  8
0
100
AcDbText
 10
0.0
 20
0.0
 30
0.0
 40
0.2
  1
0
100
AcDbAttribute
  2
SMOOTH
 70
     1
  0
ATTRIB
  5
916
330
904
100
AcDbEntity
  8
0
100
AcDbText
 10
0.0
 20
0.0
 30
0.0
 40
0.2
  1
("" "")
100
AcDbAttribute
  2
ATMOSHPERE
 70
     1
  0
ATTRIB
  5
917
330
904
100
AcDbEntity
  8
0
100
AcDbText
 10
0.0
 20
0.0
 30
0.0
 40
0.2
  1

100
AcDbAttribute
  2
ATMO1
 70
     1
  0
ATTRIB
  5
918
330
904
100
AcDbEntity
  8
0
100
AcDbText
 10
0.0
 20
0.0
 30
0.0
 40
0.2
  1

100
AcDbAttribute
  2
ATMO2
 70
     1
  0
ATTRIB
  5
919
330
904
100
AcDbEntity
  8
0
100
AcDbText
 10
0.0
 20
0.0
 30
0.0
 40
0.2
  1

100
AcDbAttribute
  2
ATMO3
 70
     1
  0
ATTRIB
  5
91A
330
904
100
AcDbEntity
  8
0
100
AcDbText
 10
0.0
 20
0.0
 30
0.0
 40
0.2
  1

100
AcDbAttribute
  2
ATMO4
 70
     1
  0
ATTRIB
  5
91B
330
904
100
AcDbEntity
  8
0
100
AcDbText
 10
0.0
 20
0.0
 30
0.0
 40
0.2
  1
0.0 0.0 1.0 0.0 0.0 1.0 1.0 1.0
100
AcDbAttribute
  2
TCCORD
 70
     1
  0
SEQEND
  5
91C
330
904
100
AcDbEntity
  8
0
  0
ENDSEC
  0
SECTION
  2
OBJECTS
  0
DICTIONARY
  5
C
330
0
100
AcDbDictionary
281
     1
  3
ACAD_2007HEADERVARS_RT
350
927
  3
ACAD_BACKGROUND
350
20F
  3
ACAD_COLOR
350
B5
  3
ACAD_GROUP
350
D
  3
ACAD_LAYOUT
350
1A
  3
ACAD_MATERIAL
350
B4
  3
ACAD_MLEADERSTYLE
350
1B3
  3
ACAD_MLINESTYLE
350
17
  3
ACAD_PERSUBENTMGR
350
1F9
  3
ACAD_PLOTSETTINGS
350
19
  3
ACAD_PLOTSTYLENAME
350
E
  3
ACAD_SCALELIST
350
191
  3
ACAD_TABLESTYLE
350
B6
  3
ACAD_VISUALSTYLE
350
180
  3
ACDB_RECOMPOSE_DATA
350
1E2
  3
AcDbVariableDictionary
350
15F
  3
AVE_ACITABLE
350
6CF
  3
DWGPROPS
350
926
  0
DICTIONARY
  5
692
330
10
100
AcDbDictionary
280
     1
281
     1
  3
ADSK_XREC_LAYER_RECONCILED
360
693
  0
DICTIONARY
  5
694
330
AB
100
AcDbDictionary
280
     1
281
     1
  3
ADSK_XREC_LAYER_RECONCILED
360
695
  0
DICTIONARY
  5
414
330
1F
100
AcDbDictionary
280
     1
281
     1
  3
ACAD_SORTENTS
360
415
  0
DICTIONARY
  5
927
102
{ACAD_REACTORS
330
C
102
}
330
C
100
AcDbDictionary
281
     1
  3
DIMFXL
350
928
  0
DICTIONARY
  5
20F
102
{ACAD_REACTORS
330
C
102
}
330
C
100
AcDbDictionary
281
     1
  0
DICTIONARY
  5
B5
102
{ACAD_REACTORS
330
C
102
}
330
C
100
AcDbDictionary
281
     1
  0
DICTIONARY
  5
D
102
{ACAD_REACTORS
330
C
102
}
330
C
100
AcDbDictionary
281
     1
  0
DICTIONARY
  5
1A
102
{ACAD_REACTORS
330
C
102
}
330
C
100
AcDbDictionary
281
     1
  3
Layout1
350
1E
  3
Layout2
350
26
  3
Model
350
22
  0
DICTIONARY
  5
B4
102
{ACAD_REACTORS
330
C
102
}
330
C
100
AcDbDictionary
281
     1
  3
_GLOBAL_01
350
91D
  3
ByBlock
350
170
  3
ByLayer
350
168
  3
Global
350
178
  0
DICTIONARY
  5
1B3
102
{ACAD_REACTORS
330
C
102
}
330
C
100
AcDbDictionary
281
     1
  3
Standard
350
1B4
  0
DICTIONARY
  5
17
102
{ACAD_REACTORS
330
C
102
}
330
C
100
AcDbDictionary
281
     1
  3
Standard
350
18
  0
ACDBPERSSUBENTMANAGER
  5
1F9
102
{ACAD_REACTORS
330
C
102
}
330
C
100
AcDbPersSubentManager
 90
        2
 90
        0
 90
        2
 90
      193
 90
        0
 90
        0
  0
DICTIONARY
  5
19
102
{ACAD_REACTORS
330
C
102
}
330
C
100
AcDbDictionary
281
     1
  0
ACDBDICTIONARYWDFLT
  5
E
102
{ACAD_REACTORS
330
C
102
}
330
C
100
AcDbDictionary
281
     1
  3
Normal
350
F
100
AcDbDictionaryWithDefault
340
F
  0
DICTIONARY
  5
191
102
{ACAD_REACTORS
330
C
102
}
330
C
100
AcDbDictionary
281
     1
  3
A0
350
192
  3
A1
350
193
  3
A2
350
194
  3
A3
350
195
  3
A4
350
196
  3
A5
350
197
  3
A6
350
198
  3
A7
350
199
  3
A8
350
19A
  3
A9
350
19B
  3
B0
350
19C
  3
B1
350
19D
  3
B2
350
19E
  3
B3
350
19F
  3
B4
350
1A0
  3
B5
350
1A1
  3
B6
350
1A2
  3
B7
350
1A3
  3
B8
350
1A4
  3
B9
350
1A5
  3
C0
350
1A6
  3
C1
350
1A7
  3
C2
350
1A8
  3
C3
350
1A9
  3
C4
350
1AA
  3
C5
350
1AB
  3
C6
350
1AC
  3
C7
350
1AD
  3
C8
350
1AE
  3
C9
350
1AF
  3
D0
350
1B0
  3
D1
350
1B1
  3
D2
350
1B2
  0
DICTIONARY
  5
B6
102
{ACAD_REACTORS
330
C
102
}
330
C
100
AcDbDictionary
281
     1
  3
Standard
350
B7
  0
DICTIONARY
  5
180
102
{ACAD_REACTORS
330
C
102
}
330
C
100
AcDbDictionary
281
     1
  3
2dWireframe
350
186
  3
3D Hidden
350
188
  3
3dWireframe
350
187
  3
Basic
350
185
  3
Brighten
350
18C
  3
ColorChange
350
190
  3
Conceptual
350
189
  3
Dim
350
18B
  3
Facepattern
350
18F
  3
Flat
350
181
  3
FlatWithEdges
350
182
  3
Gouraud
350
183
  3
GouraudWithEdges
350
184
  3
Linepattern
350
18E
  3
Realistic
350
18A
  3
Thicken
350
18D
  0
XRECORD
  5
1E2
102
{ACAD_REACTORS
330
C
102
}
330
C
100
AcDbXrecord
280
     1
 90
        1
330
B7
  0
DICTIONARY
  5
15F
102
{ACAD_REACTORS
330
C
102
}
330
C
100
AcDbDictionary
281
     1
  3
CANNOSCALE
350
1E5
  3
CMLEADERSTYLE
350
1E3
  3
CTABLESTYLE
350
160
  3
DIMASSOC
350
698
  3
INDEXCTL
350
697
  3
LIGHTINGUNITS
350
1E6
  3
MSLTSCALE
350
1E4
  3
SORTENTS
350
696
  0
DICTIONARY
  5
6CF
102
{ACAD_REACTORS
330
C
102
}
330
C
100
AcDbDictionary
281
     1
  0
XRECORD
  5
926
102
{ACAD_REACTORS
330
C
102
}
330
C
100
AcDbXrecord
280
     1
  1
DWGPROPS COOKIE
  2

  3

  4

  6

  7

  8
Haden
  9

300
=
301
=
302
=
303
=
304
=
305
=
306
=
307
=
308
=
309
=
 40
0.027488599537037
 41
2454769.378797315
 42
2454769.406873854
  1

 90
        0
  0
XRECORD
  5
693
102
{ACAD_REACTORS
330
692
102
}
330
692
100
AcDbXrecord
280
     1
290
     1
  0
XRECORD
  5
695
102
{ACAD_REACTORS
330
694
102
}
330
694
100
AcDbXrecord
280
     1
290
     1
  0
SORTENTSTABLE
  5
415
102
{ACAD_REACTORS
330
414
102
}
330
414
100
AcDbSortentsTable
330
1F
  0
XRECORD
  5
928
102
{ACAD_REACTORS
330
927
102
}
330
927
100
AcDbXrecord
280
     1
 40
0.18
  0
LAYOUT
  5
1E
102
{ACAD_XDICTIONARY
360
929
102
}
102
{ACAD_REACTORS
330
1A
102
}
330
1A
100
AcDbPlotSettings
  1

  2

  4

  6

 40
0.0
 41
0.0
 42
0.0
 43
0.0
 44
0.0
 45
0.0
 46
0.0
 47
0.0
 48
0.0
 49
0.0
140
0.0
141
0.0
142
1.0
143
1.0
 70
   688
 72
     0
 73
     0
 74
     5
  7

 75
    16
147
1.0
148
0.0
149
0.0
100
AcDbLayout
  1
Layout1
 70
     1
 71
     1
 10
0.0
 20
0.0
 11
12.0
 21
9.0
 12
0.0
 22
0.0
 32
0.0
 14
1.000000000000000E+20
 24
1.000000000000000E+20
 34
1.000000000000000E+20
 15
-1.000000000000000E+20
 25
-1.000000000000000E+20
 35
-1.000000000000000E+20
146
0.0
 13
0.0
 23
0.0
 33
0.0
 16
1.0
 26
0.0
 36
0.0
 17
0.0
 27
1.0
 37
0.0
 76
     0
330
1B
  0
LAYOUT
  5
26
102
{ACAD_XDICTIONARY
360
92D
102
}
102
{ACAD_REACTORS
330
1A
102
}
330
1A
100
AcDbPlotSettings
  1

  2

  4

  6

 40
0.0
 41
0.0
 42
0.0
 43
0.0
 44
0.0
 45
0.0
 46
0.0
 47
0.0
 48
0.0
 49
0.0
140
0.0
141
0.0
142
1.0
143
1.0
 70
   688
 72
     0
 73
     0
 74
     5
  7

 75
    16
147
1.0
148
0.0
149
0.0
100
AcDbLayout
  1
Layout2
 70
     1
 71
     2
 10
0.0
 20
0.0
 11
12.0
 21
9.0
 12
0.0
 22
0.0
 32
0.0
 14
0.0
 24
0.0
 34
0.0
 15
0.0
 25
0.0
 35
0.0
146
0.0
 13
0.0
 23
0.0
 33
0.0
 16
1.0
 26
0.0
 36
0.0
 17
0.0
 27
1.0
 37
0.0
 76
     0
330
23
  0
LAYOUT
  5
22
102
{ACAD_XDICTIONARY
360
92B
102
}
102
{ACAD_REACTORS
330
1A
102
}
330
1A
100
AcDbPlotSettings
  1

  2

  4

  6

 40
0.0
 41
0.0
 42
0.0
 43
0.0
 44
0.0
 45
0.0
 46
0.0
 47
0.0
 48
0.0
 49
0.0
140
0.0
141
0.0
142
1.0
143
1.0
 70
  1712
 72
     0
 73
     0
 74
     0
  7

 75
     0
147
1.0
148
0.0
149
0.0
100
AcDbLayout
  1
Model
 70
     1
 71
     0
 10
0.0
 20
0.0
 11
12.0
 21
9.0
 12
0.0
 22
0.0
 32
0.0
 14
0.0
 24
0.0
 34
0.0
 15
0.0
 25
0.0
 35
0.0
146
0.0
 13
0.0
 23
0.0
 33
0.0
 16
1.0
 26
0.0
 36
0.0
 17
0.0
 27
1.0
 37
0.0
 76
     0
330
1F
331
166
  0
MATERIAL
  5
91D
102
{ACAD_XDICTIONARY
360
91E
102
}
102
{ACAD_REACTORS
330
B4
102
}
330
B4
100
AcDbMaterial
  1
_GLOBAL_01
 70
     1
 40
0.6999999880790711
 90
-1033081748
 71
     1
 91
-1023410177
 72
     0
 76
     1
 45
0.2000000029802322
 92
-1023673349
 77
     0
171
     0
175
     0
179
     0
  0
MATERIAL
  5
170
102
{ACAD_XDICTIONARY
360
171
102
}
102
{ACAD_REACTORS
330
B4
102
}
330
B4
100
AcDbMaterial
  1
ByBlock
 72
     0
 43
0.0208333333333333
 43
0.0
 43
0.0
 43
0.0
 43
0.0
 43
0.0208333333333333
 43
0.0
 43
0.0
 43
0.0
 43
0.0
 43
1.0
 43
0.0
 43
0.0
 43
0.0
 43
0.0
 43
1.0
 77
     0
 47
0.0208333333333333
 47
0.0
 47
0.0
 47
0.0
 47
0.0
 47
0.0208333333333333
 47
0.0
 47
0.0
 47
0.0
 47
0.0
 47
1.0
 47
0.0
 47
0.0
 47
0.0
 47
0.0
 47
1.0
171
     0
 49
0.0208333333333333
 49
0.0
 49
0.0
 49
0.0
 49
0.0
 49
0.0208333333333333
 49
0.0
 49
0.0
 49
0.0
 49
0.0
 49
1.0
 49
0.0
 49
0.0
 49
0.0
 49
0.0
 49
1.0
175
     0
142
0.0208333333333333
142
0.0
142
0.0
142
0.0
142
0.0
142
0.0208333333333333
142
0.0
142
0.0
142
0.0
142
0.0
142
1.0
142
0.0
142
0.0
142
0.0
142
0.0
142
1.0
179
     0
144
0.0208333333333333
144
0.0
144
0.0
144
0.0
144
0.0
144
0.0208333333333333
144
0.0
144
0.0
144
0.0
144
0.0
144
1.0
144
0.0
144
0.0
144
0.0
144
0.0
144
1.0
147
0.0208333333333333
147
0.0
147
0.0
147
0.0
147
0.0
147
0.0208333333333333
147
0.0
147
0.0
147
0.0
147
0.0
147
1.0
147
0.0
147
0.0
147
0.0
147
0.0
147
1.0
  0
MATERIAL
  5
168
102
{ACAD_XDICTIONARY
360
169
102
}
102
{ACAD_REACTORS
330
B4
102
}
330
B4
100
AcDbMaterial
  1
ByLayer
 72
     0
 43
0.0208333333333333
 43
0.0
 43
0.0
 43
0.0
 43
0.0
 43
0.0208333333333333
 43
0.0
 43
0.0
 43
0.0
 43
0.0
 43
1.0
 43
0.0
 43
0.0
 43
0.0
 43
0.0
 43
1.0
 77
     0
 47
0.0208333333333333
 47
0.0
 47
0.0
 47
0.0
 47
0.0
 47
0.0208333333333333
 47
0.0
 47
0.0
 47
0.0
 47
0.0
 47
1.0
 47
0.0
 47
0.0
 47
0.0
 47
0.0
 47
1.0
171
     0
 49
0.0208333333333333
 49
0.0
 49
0.0
 49
0.0
 49
0.0
 49
0.0208333333333333
 49
0.0
 49
0.0
 49
0.0
 49
0.0
 49
1.0
 49
0.0
 49
0.0
 49
0.0
 49
0.0
 49
1.0
175
     0
142
0.0208333333333333
142
0.0
142
0.0
142
0.0
142
0.0
142
0.0208333333333333
142
0.0
142
0.0
142
0.0
142
0.0
142
1.0
142
0.0
142
0.0
142
0.0
142
0.0
142
1.0
179
     0
144
0.0208333333333333
144
0.0
144
0.0
144
0.0
144
0.0
144
0.0208333333333333
144
0.0
144
0.0
144
0.0
144
0.0
144
1.0
144
0.0
144
0.0
144
0.0
144
0.0
144
1.0
147
0.0208333333333333
147
0.0
147
0.0
147
0.0
147
0.0
147
0.0208333333333333
147
0.0
147
0.0
147
0.0
147
0.0
147
1.0
147
0.0
147
0.0
147
0.0
147
0.0
147
1.0
  0
MATERIAL
  5
178
102
{ACAD_XDICTIONARY
360
179
102
}
102
{ACAD_REACTORS
330
B4
102
}
330
B4
100
AcDbMaterial
  1
Global
 72
     0
 43
0.0208333333333333
 43
0.0
 43
0.0
 43
0.0
 43
0.0
 43
0.0208333333333333
 43
0.0
 43
0.0
 43
0.0
 43
0.0
 43
1.0
 43
0.0
 43
0.0
 43
0.0
 43
0.0
 43
1.0
 77
     0
 47
0.0208333333333333
 47
0.0
 47
0.0
 47
0.0
 47
0.0
 47
0.0208333333333333
 47
0.0
 47
0.0
 47
0.0
 47
0.0
 47
1.0
 47
0.0
 47
0.0
 47
0.0
 47
0.0
 47
1.0
171
     0
 49
0.0208333333333333
 49
0.0
 49
0.0
 49
0.0
 49
0.0
 49
0.0208333333333333
 49
0.0
 49
0.0
 49
0.0
 49
0.0
 49
1.0
 49
0.0
 49
0.0
 49
0.0
 49
0.0
 49
1.0
175
     0
142
0.0208333333333333
142
0.0
142
0.0
142
0.0
142
0.0
142
0.0208333333333333
142
0.0
142
0.0
142
0.0
142
0.0
142
1.0
142
0.0
142
0.0
142
0.0
142
0.0
142
1.0
179
     0
144
0.0208333333333333
144
0.0
144
0.0
144
0.0
144
0.0
144
0.0208333333333333
144
0.0
144
0.0
144
0.0
144
0.0
144
1.0
144
0.0
144
0.0
144
0.0
144
0.0
144
1.0
147
0.0208333333333333
147
0.0
147
0.0
147
0.0
147
0.0
147
0.0208333333333333
147
0.0
147
0.0
147
0.0
147
0.0
147
1.0
147
0.0
147
0.0
147
0.0
147
0.0
147
1.0
  0
MLEADERSTYLE
  5
1B4
102
{ACAD_REACTORS
330
1B3
102
}
330
1B3
100
AcDbMLeaderStyle
170
     2
171
     1
172
     0
 90
        2
 40
0.0
 41
0.0
173
     1
 91
-1056964608
340
14
 92
       -2
290
     1
 42
0.09
291
     1
 43
0.36
  3
Standard
 44
0.18
300

342
11
174
     1
178
     6
175
     1
176
     0
 93
-1056964608
 45
0.18
292
     0
297
     0
 46
0.18
 94
-1056964608
 47
1.0
 49
1.0
140
1.0
293
     1
141
0.0
294
     1
177
     0
142
1.0
295
     0
296
     0
143
0.125
1001
ACAD_MLEADERVER
1070
     2
  0
MLINESTYLE
  5
18
102
{ACAD_REACTORS
330
17
102
}
330
17
100
AcDbMlineStyle
  2
STANDARD
 70
     0
  3

 62
   256
 51
90.0
 52
90.0
 71
     2
 49
0.5
 62
   256
  6
BYLAYER
 49
-0.5
 62
   256
  6
BYLAYER
  0
ACDBPLACEHOLDER
  5
F
102
{ACAD_REACTORS
330
E
102
}
330
E
  0
SCALE
  5
192
102
{ACAD_REACTORS
330
191
102
}
330
191
100
AcDbScale
 70
     0
300
1:1
140
1.0
141
1.0
290
     1
  0
SCALE
  5
193
102
{ACAD_REACTORS
330
191
102
}
330
191
100
AcDbScale
 70
     0
300
1:2
140
1.0
141
2.0
290
     0
  0
SCALE
  5
194
102
{ACAD_REACTORS
330
191
102
}
330
191
100
AcDbScale
 70
     0
300
1:4
140
1.0
141
4.0
290
     0
  0
SCALE
  5
195
102
{ACAD_REACTORS
330
191
102
}
330
191
100
AcDbScale
 70
     0
300
1:5
140
1.0
141
5.0
290
     0
  0
SCALE
  5
196
102
{ACAD_REACTORS
330
191
102
}
330
191
100
AcDbScale
 70
     0
300
1:8
140
1.0
141
8.0
290
     0
  0
SCALE
  5
197
102
{ACAD_REACTORS
330
191
102
}
330
191
100
AcDbScale
 70
     0
300
1:10
140
1.0
141
10.0
290
     0
  0
SCALE
  5
198
102
{ACAD_REACTORS
330
191
102
}
330
191
100
AcDbScale
 70
     0
300
1:16
140
1.0
141
16.0
290
     0
  0
SCALE
  5
199
102
{ACAD_REACTORS
330
191
102
}
330
191
100
AcDbScale
 70
     0
300
1:20
140
1.0
141
20.0
290
     0
  0
SCALE
  5
19A
102
{ACAD_REACTORS
330
191
102
}
330
191
100
AcDbScale
 70
     0
300
1:30
140
1.0
141
30.0
290
     0
  0
SCALE
  5
19B
102
{ACAD_REACTORS
330
191
102
}
330
191
100
AcDbScale
 70
     0
300
1:40
140
1.0
141
40.0
290
     0
  0
SCALE
  5
19C
102
{ACAD_REACTORS
330
191
102
}
330
191
100
AcDbScale
 70
     0
300
1:50
140
1.0
141
50.0
290
     0
  0
SCALE
  5
19D
102
{ACAD_REACTORS
330
191
102
}
330
191
100
AcDbScale
 70
     0
300
1:100
140
1.0
141
100.0
290
     0
  0
SCALE
  5
19E
102
{ACAD_REACTORS
330
191
102
}
330
191
100
AcDbScale
 70
     0
300
2:1
140
2.0
141
1.0
290
     0
  0
SCALE
  5
19F
102
{ACAD_REACTORS
330
191
102
}
330
191
100
AcDbScale
 70
     0
300
4:1
140
4.0
141
1.0
290
     0
  0
SCALE
  5
1A0
102
{ACAD_REACTORS
330
191
102
}
330
191
100
AcDbScale
 70
     0
300
8:1
140
8.0
141
1.0
290
     0
  0
SCALE
  5
1A1
102
{ACAD_REACTORS
330
191
102
}
330
191
100
AcDbScale
 70
     0
300
10:1
140
10.0
141
1.0
290
     0
  0
SCALE
  5
1A2
102
{ACAD_REACTORS
330
191
102
}
330
191
100
AcDbScale
 70
     0
300
100:1
140
100.0
141
1.0
290
     0
  0
SCALE
  5
1A3
102
{ACAD_REACTORS
330
191
102
}
330
191
100
AcDbScale
 70
     0
300
1/128" = 1'-0"
140
0.0078125
141
12.0
290
     0
  0
SCALE
  5
1A4
102
{ACAD_REACTORS
330
191
102
}
330
191
100
AcDbScale
 70
     0
300
1/64" = 1'-0"
140
0.015625
141
12.0
290
     0
  0
SCALE
  5
1A5
102
{ACAD_REACTORS
330
191
102
}
330
191
100
AcDbScale
 70
     0
300
1/32" = 1'-0"
140
0.03125
141
12.0
290
     0
  0
SCALE
  5
1A6
102
{ACAD_REACTORS
330
191
102
}
330
191
100
AcDbScale
 70
     0
300
1/16" = 1'-0"
140
0.0625
141
12.0
290
     0
  0
SCALE
  5
1A7
102
{ACAD_REACTORS
330
191
102
}
330
191
100
AcDbScale
 70
     0
300
3/32" = 1'-0"
140
0.09375
141
12.0
290
     0
  0
SCALE
  5
1A8
102
{ACAD_REACTORS
330
191
102
}
330
191
100
AcDbScale
 70
     0
300
1/8" = 1'-0"
140
0.125
141
12.0
290
     0
  0
SCALE
  5
1A9
102
{ACAD_REACTORS
330
191
102
}
330
191
100
AcDbScale
 70
     0
300
3/16" = 1'-0"
140
0.1875
141
12.0
290
     0
  0
SCALE
  5
1AA
102
{ACAD_REACTORS
330
191
102
}
330
191
100
AcDbScale
 70
     0
300
1/4" = 1'-0"
140
0.25
141
12.0
290
     0
  0
SCALE
  5
1AB
102
{ACAD_REACTORS
330
191
102
}
330
191
100
AcDbScale
 70
     0
300
3/8" = 1'-0"
140
0.375
141
12.0
290
     0
  0
SCALE
  5
1AC
102
{ACAD_REACTORS
330
191
102
}
330
191
100
AcDbScale
 70
     0
300
1/2" = 1'-0"
140
0.5
141
12.0
290
     0
  0
SCALE
  5
1AD
102
{ACAD_REACTORS
330
191
102
}
330
191
100
AcDbScale
 70
     0
300
3/4" = 1'-0"
140
0.75
141
12.0
290
     0
  0
SCALE
  5
1AE
102
{ACAD_REACTORS
330
191
102
}
330
191
100
AcDbScale
 70
     0
300
1" = 1'-0"
140
1.0
141
12.0
290
     0
  0
SCALE
  5
1AF
102
{ACAD_REACTORS
330
191
102
}
330
191
100
AcDbScale
 70
     0
300
1-1/2" = 1'-0"
140
1.5
141
12.0
290
     0
  0
SCALE
  5
1B0
102
{ACAD_REACTORS
330
191
102
}
330
191
100
AcDbScale
 70
     0
300
3" = 1'-0"
140
3.0
141
12.0
290
     0
  0
SCALE
  5
1B1
102
{ACAD_REACTORS
330
191
102
}
330
191
100
AcDbScale
 70
     0
300
6" = 1'-0"
140
6.0
141
12.0
290
     0
  0
SCALE
  5
1B2
102
{ACAD_REACTORS
330
191
102
}
330
191
100
AcDbScale
 70
     0
300
1'-0" = 1'-0"
140
12.0
141
12.0
290
     0
  0
TABLESTYLE
  5
B7
102
{ACAD_XDICTIONARY
360
1E0
102
}
102
{ACAD_REACTORS
330
B6
102
}
330
B6
100
AcDbTableStyle
  3
Standard
 70
     0
 71
     0
 40
0.06
 41
0.06
280
     0
281
     0
  7
Standard
140
0.18
170
     2
 62
     0
 63
     7
283
     0
274
    -2
284
     1
 64
     0
275
    -2
285
     1
 65
     0
276
    -2
286
     1
 66
     0
277
    -2
287
     1
 67
     0
278
    -2
288
     1
 68
     0
279
    -2
289
     1
 69
     0
  7
Standard
140
0.25
170
     5
 62
     0
 63
     7
283
     0
274
    -2
284
     1
 64
     0
275
    -2
285
     1
 65
     0
276
    -2
286
     1
 66
     0
277
    -2
287
     1
 67
     0
278
    -2
288
     1
 68
     0
279
    -2
289
     1
 69
     0
  7
Standard
140
0.18
170
     5
 62
     0
 63
     7
283
     0
274
    -2
284
     1
 64
     0
275
    -2
285
     1
 65
     0
276
    -2
286
     1
 66
     0
277
    -2
287
     1
 67
     0
278
    -2
288
     1
 68
     0
279
    -2
289
     1
 69
     0
  0
VISUALSTYLE
  5
186
102
{ACAD_REACTORS
330
180
102
}
330
180
100
AcDbVisualStyle
  2
2dWireframe
 70
     4
 71
     0
 72
     2
 73
     0
 90
        0
 40
-0.6
 41
-30.0
 62
     5
 63
     7
 74
     1
 91
        4
 64
     7
 65
   257
 75
     1
175
     1
 42
1.0
 92
        0
 66
   257
 43
1.0
 76
     1
 77
     6
 78
     2
 67
     7
 79
     5
170
     0
171
     0
290
     0
174
     0
 93
        1
 44
0.0
173
     0
291
     0
 45
0.0
1001
ACAD
1000
AcDbSavedByObjectVersion
1070
     0
1000
AcDbSavedByObjectVersion
1070
     0
  0
VISUALSTYLE
  5
188
102
{ACAD_REACTORS
330
180
102
}
330
180
100
AcDbVisualStyle
  2
3D Hidden
 70
     6
 71
     1
 72
     2
 73
     2
 90
        0
 40
-0.6
 41
-30.0
 62
     5
 63
     7
 74
     2
 91
        2
 64
     7
 65
   257
 75
     2
175
     1
 42
40.0
 92
        0
 66
   257
 43
1.0
 76
     1
 77
     6
 78
     2
 67
     7
 79
     3
170
     0
171
     0
290
     0
174
     0
 93
        1
 44
0.0
173
     0
291
     0
 45
0.0
1001
ACAD
1000
AcDbSavedByObjectVersion
1070
     0
1000
AcDbSavedByObjectVersion
1070
     0
  0
VISUALSTYLE
  5
187
102
{ACAD_REACTORS
330
180
102
}
330
180
100
AcDbVisualStyle
  2
3dWireframe
 70
     5
 71
     0
 72
     2
 73
     0
 90
        0
 40
-0.6
 41
-30.0
 62
     5
 63
     7
 74
     1
 91
        4
 64
     7
 65
   257
 75
     1
175
     1
 42
1.0
 92
        0
 66
   257
 43
1.0
 76
     1
 77
     6
 78
     2
 67
     7
 79
     5
170
     0
171
     0
290
     0
174
     0
 93
        1
 44
0.0
173
     0
291
     0
 45
0.0
1001
ACAD
1000
AcDbSavedByObjectVersion
1070
     0
1000
AcDbSavedByObjectVersion
1070
     0
  0
VISUALSTYLE
  5
185
102
{ACAD_REACTORS
330
180
102
}
330
180
100
AcDbVisualStyle
  2
Basic
 70
     7
 71
     1
 72
     0
 73
     1
 90
        0
 40
-0.6
 41
-30.0
 62
     5
 63
     7
 74
     0
 91
        4
 64
     7
 65
   257
 75
     1
175
     1
 42
1.0
 92
        8
 66
     7
 43
1.0
 76
     1
 77
     6
 78
     2
 67
     7
 79
     5
170
     0
171
     0
290
     0
174
     0
 93
        1
 44
0.0
173
     0
291
     1
 45
0.0
1001
ACAD
1000
AcDbSavedByObjectVersion
1070
     0
1000
AcDbSavedByObjectVersion
1070
     0
  0
VISUALSTYLE
  5
18C
102
{ACAD_REACTORS
330
180
102
}
330
180
100
AcDbVisualStyle
  2
Brighten
 70
    12
 71
     2
 72
     2
 73
     0
 90
        0
 40
-0.6
 41
-30.0
 62
     5
 63
     7
 74
     1
 91
        4
 64
     7
 65
   257
 75
     1
175
     1
 42
1.0
 92
        8
 66
     7
 43
1.0
 76
     1
 77
     6
 78
     2
 67
     7
 79
     5
170
     0
171
     0
290
     0
174
     0
 93
        1
 44
50.0
173
     0
291
     1
 45
0.0
1001
ACAD
1000
AcDbSavedByObjectVersion
1070
     0
1000
AcDbSavedByObjectVersion
1070
     0
  0
VISUALSTYLE
  5
190
102
{ACAD_REACTORS
330
180
102
}
330
180
100
AcDbVisualStyle
  2
ColorChange
 70
    16
 71
     2
 72
     2
 73
     3
 90
        0
 40
-0.6
 41
-30.0
 62
     5
 63
     8
 74
     1
 91
        4
 64
     7
 65
   257
 75
     1
175
     1
 42
1.0
 92
        8
 66
     8
 43
1.0
 76
     1
 77
     6
 78
     2
 67
     7
 79
     5
170
     0
171
     0
290
     0
174
     0
 93
        1
 44
0.0
173
     0
291
     1
 45
0.0
1001
ACAD
1000
AcDbSavedByObjectVersion
1070
     0
1000
AcDbSavedByObjectVersion
1070
     0
  0
VISUALSTYLE
  5
189
102
{ACAD_REACTORS
330
180
102
}
330
180
100
AcDbVisualStyle
  2
Conceptual
 70
     9
 71
     3
 72
     2
 73
     0
 90
        0
 40
-0.6
 41
-30.0
 62
     5
 63
     7
 74
     2
 91
        2
 64
     7
 65
   257
 75
     1
175
     1
 42
40.0
 92
        8
 66
     7
 43
1.0
 76
     1
 77
     6
 78
     2
 67
     7
 79
     3
170
     0
171
     0
290
     0
174
     0
 93
        1
 44
0.0
173
     0
291
     0
 45
0.0
1001
ACAD
1000
AcDbSavedByObjectVersion
1070
     0
1000
AcDbSavedByObjectVersion
1070
     0
  0
VISUALSTYLE
  5
18B
102
{ACAD_REACTORS
330
180
102
}
330
180
100
AcDbVisualStyle
  2
Dim
 70
    11
 71
     2
 72
     2
 73
     0
 90
        0
 40
-0.6
 41
-30.0
 62
     5
 63
     7
 74
     1
 91
        4
 64
     7
 65
   257
 75
     1
175
     1
 42
1.0
 92
        8
 66
     7
 43
1.0
 76
     1
 77
     6
 78
     2
 67
     7
 79
     5
170
     0
171
     0
290
     0
174
     0
 93
        1
 44
-50.0
173
     0
291
     1
 45
0.0
1001
ACAD
1000
AcDbSavedByObjectVersion
1070
     0
1000
AcDbSavedByObjectVersion
1070
     0
  0
VISUALSTYLE
  5
18F
102
{ACAD_REACTORS
330
180
102
}
330
180
100
AcDbVisualStyle
  2
Facepattern
 70
    15
 71
     2
 72
     2
 73
     0
 90
        0
 40
-0.6
 41
-30.0
 62
     5
 63
     7
 74
     1
 91
        4
 64
     7
 65
   257
 75
     1
175
     1
 42
1.0
 92
        8
 66
     7
 43
1.0
 76
     1
 77
     6
 78
     2
 67
     7
 79
     5
170
     0
171
     0
290
     0
174
     0
 93
        1
 44
0.0
173
     0
291
     1
 45
0.0
1001
ACAD
1000
AcDbSavedByObjectVersion
1070
     0
1000
AcDbSavedByObjectVersion
1070
     0
  0
VISUALSTYLE
  5
181
102
{ACAD_REACTORS
330
180
102
}
330
180
100
AcDbVisualStyle
  2
Flat
 70
     0
 71
     2
 72
     1
 73
     1
 90
        2
 40
-0.6
 41
30.0
 62
     5
 63
     7
 74
     0
 91
        4
 64
     7
 65
   257
 75
     1
175
     1
 42
1.0
 92
        8
 66
     7
 43
1.0
 76
     1
 77
     6
 78
     2
 67
     7
 79
     5
170
     0
171
     0
290
     0
174
     0
 93
       13
 44
0.0
173
     0
291
     1
 45
0.0
1001
ACAD
1000
AcDbSavedByObjectVersion
1070
     0
1000
AcDbSavedByObjectVersion
1070
     0
  0
VISUALSTYLE
  5
182
102
{ACAD_REACTORS
330
180
102
}
330
180
100
AcDbVisualStyle
  2
FlatWithEdges
 70
     1
 71
     2
 72
     1
 73
     1
 90
        2
 40
-0.6
 41
30.0
 62
     5
 63
     7
 74
     1
 91
        4
 64
     7
 65
   257
 75
     1
175
     1
 42
1.0
 92
        0
 66
   257
 43
1.0
 76
     1
 77
     6
 78
     2
 67
     7
 79
     5
170
     0
171
     0
290
     0
174
     0
 93
       13
 44
0.0
173
     0
291
     1
 45
0.0
1001
ACAD
1000
AcDbSavedByObjectVersion
1070
     0
1000
AcDbSavedByObjectVersion
1070
     0
  0
VISUALSTYLE
  5
183
102
{ACAD_REACTORS
330
180
102
}
330
180
100
AcDbVisualStyle
  2
Gouraud
 70
     2
 71
     2
 72
     2
 73
     1
 90
        2
 40
-0.6
 41
30.0
 62
     5
 63
     7
 74
     0
 91
        4
 64
     7
 65
   257
 75
     1
175
     1
 42
1.0
 92
        0
 66
     7
 43
1.0
 76
     1
 77
     6
 78
     2
 67
     7
 79
     5
170
     0
171
     0
290
     0
174
     0
 93
       13
 44
0.0
173
     0
291
     1
 45
0.0
1001
ACAD
1000
AcDbSavedByObjectVersion
1070
     0
1000
AcDbSavedByObjectVersion
1070
     0
  0
VISUALSTYLE
  5
184
102
{ACAD_REACTORS
330
180
102
}
330
180
100
AcDbVisualStyle
  2
GouraudWithEdges
 70
     3
 71
     2
 72
     2
 73
     1
 90
        2
 40
-0.6
 41
30.0
 62
     5
 63
     7
 74
     1
 91
        4
 64
     7
 65
   257
 75
     1
175
     1
 42
1.0
 92
        0
 66
   257
 43
1.0
 76
     1
 77
     6
 78
     2
 67
     7
 79
     5
170
     0
171
     0
290
     0
174
     0
 93
       13
 44
0.0
173
     0
291
     1
 45
0.0
1001
ACAD
1000
AcDbSavedByObjectVersion
1070
     0
1000
AcDbSavedByObjectVersion
1070
     0
  0
VISUALSTYLE
  5
18E
102
{ACAD_REACTORS
330
180
102
}
330
180
100
AcDbVisualStyle
  2
Linepattern
 70
    14
 71
     2
 72
     2
 73
     0
 90
        0
 40
-0.6
 41
-30.0
 62
     5
 63
     7
 74
     1
 91
        4
 64
     7
 65
   257
 75
     7
175
     7
 42
1.0
 92
        8
 66
     7
 43
1.0
 76
     1
 77
     6
 78
     2
 67
     7
 79
     5
170
     0
171
     0
290
     0
174
     0
 93
        1
 44
0.0
173
     0
291
     1
 45
0.0
1001
ACAD
1000
AcDbSavedByObjectVersion
1070
     0
1000
AcDbSavedByObjectVersion
1070
     0
  0
VISUALSTYLE
  5
18A
102
{ACAD_REACTORS
330
180
102
}
330
180
100
AcDbVisualStyle
  2
Realistic
 70
     8
 71
     2
 72
     2
 73
     0
 90
        0
 40
-0.6
 41
-30.0
 62
     5
 63
     7
 74
     1
 91
        0
 64
     7
 65
   257
 75
     1
175
     1
 42
1.0
 92
        8
 66
     8
 43
1.0
 76
     1
 77
     6
 78
     2
 67
     7
 79
     5
170
     0
171
     0
290
     0
174
     0
 93
       13
 44
0.0
173
     0
291
     0
 45
0.0
1001
ACAD
1000
AcDbSavedByObjectVersion
1070
     0
1000
AcDbSavedByObjectVersion
1070
     0
  0
VISUALSTYLE
  5
18D
102
{ACAD_REACTORS
330
180
102
}
330
180
100
AcDbVisualStyle
  2
Thicken
 70
    13
 71
     2
 72
     2
 73
     0
 90
        0
 40
-0.6
 41
-30.0
 62
     5
 63
     7
 74
     1
 91
        4
 64
     7
 65
   257
 75
     1
175
     1
 42
1.0
 92
       12
 66
     7
 43
1.0
 76
     1
 77
     6
 78
     2
 67
     7
 79
     5
170
     0
171
     0
290
     0
174
     0
 93
        1
 44
0.0
173
     0
291
     1
 45
0.0
1001
ACAD
1000
AcDbSavedByObjectVersion
1070
     0
1000
AcDbSavedByObjectVersion
1070
     0
  0
DICTIONARYVAR
  5
1E5
102
{ACAD_REACTORS
330
15F
102
}
330
15F
100
DictionaryVariables
280
     0
  1
1:1
  0
DICTIONARYVAR
  5
1E3
102
{ACAD_REACTORS
330
15F
102
}
330
15F
100
DictionaryVariables
280
     0
  1
STANDARD
  0
DICTIONARYVAR
  5
160
102
{ACAD_REACTORS
330
15F
102
}
330
15F
100
DictionaryVariables
280
     0
  1
STANDARD
  0
DICTIONARYVAR
  5
698
102
{ACAD_REACTORS
330
15F
102
}
330
15F
100
DictionaryVariables
280
     0
  1
1
  0
DICTIONARYVAR
  5
697
102
{ACAD_REACTORS
330
15F
102
}
330
15F
100
DictionaryVariables
280
     0
  1
0
  0
DICTIONARYVAR
  5
1E6
102
{ACAD_REACTORS
330
15F
102
}
330
15F
100
DictionaryVariables
280
     0
  1
0
  0
DICTIONARYVAR
  5
1E4
102
{ACAD_REACTORS
330
15F
102
}
330
15F
100
DictionaryVariables
280
     0
  1
0
  0
DICTIONARYVAR
  5
696
102
{ACAD_REACTORS
330
15F
102
}
330
15F
100
DictionaryVariables
280
     0
  1
127
  0
DICTIONARY
  5
929
330
1E
100
AcDbDictionary
280
     1
281
     1
  3
ACAD_XREC_ROUNDTRIP
360
92A
  0
DICTIONARY
  5
92D
330
26
100
AcDbDictionary
280
     1
281
     1
  3
ACAD_XREC_ROUNDTRIP
360
92E
  0
DICTIONARY
  5
92B
330
22
100
AcDbDictionary
280
     1
281
     1
  3
ACAD_XREC_ROUNDTRIP
360
92C
  0
DICTIONARY
  5
91E
330
91D
100
AcDbDictionary
280
     1
281
     1
  3
ACAD_XREC_ROUNDTRIP
360
930
  3
BUMPTILE
360
923
  3
DIFFUSETILE
360
91F
  3
OPACITYTILE
360
922
  3
REFLECTIONTILE
360
921
  3
REFRACTIONTILE
360
924
  3
SPECULARTILE
360
920
  0
DICTIONARY
  5
171
330
170
100
AcDbDictionary
280
     1
281
     1
  3
ACAD_XREC_ROUNDTRIP
360
6C9
  3
BUMPTILE
360
173
  3
DIFFUSETILE
360
172
  3
OPACITYTILE
360
176
  3
REFLECTIONTILE
360
175
  3
REFRACTIONTILE
360
177
  3
SPECULARTILE
360
174
  0
DICTIONARY
  5
169
330
168
100
AcDbDictionary
280
     1
281
     1
  3
ACAD_XREC_ROUNDTRIP
360
6C8
  3
BUMPTILE
360
16B
  3
DIFFUSETILE
360
16A
  3
OPACITYTILE
360
16E
  3
REFLECTIONTILE
360
16D
  3
REFRACTIONTILE
360
16F
  3
SPECULARTILE
360
16C
  0
DICTIONARY
  5
179
330
178
100
AcDbDictionary
280
     1
281
     1
  3
ACAD_XREC_ROUNDTRIP
360
6CA
  3
BUMPTILE
360
17B
  3
DIFFUSETILE
360
17A
  3
OPACITYTILE
360
17E
  3
REFLECTIONTILE
360
17D
  3
REFRACTIONTILE
360
17F
  3
SPECULARTILE
360
17C
  0
DICTIONARY
  5
1E0
330
B7
100
AcDbDictionary
280
     1
281
     1
  3
ACAD_ROUNDTRIP_2008_TABLESTYLE_CELLSTYLEMAP
360
925
  3
ACAD_XREC_ROUNDTRIP
360
92F
  0
XRECORD
  5
92A
102
{ACAD_REACTORS
330
929
102
}
330
929
100
AcDbXrecord
280
     1
102
SHADEPLOT
 70
     0
102
SHADEPLOTRESLEVEL
 70
     2
102
SHADEPLOTCUSTOMDPI
 70
   300
  0
XRECORD
  5
92E
102
{ACAD_REACTORS
330
92D
102
}
330
92D
100
AcDbXrecord
280
     1
102
SHADEPLOT
 70
     0
102
SHADEPLOTRESLEVEL
 70
     2
102
SHADEPLOTCUSTOMDPI
 70
   300
  0
XRECORD
  5
92C
102
{ACAD_REACTORS
330
92B
102
}
330
92B
100
AcDbXrecord
280
     1
102
SHADEPLOT
 70
     0
102
SHADEPLOTRESLEVEL
 70
     2
102
SHADEPLOTCUSTOMDPI
 70
   300
  0
XRECORD
  5
930
102
{ACAD_REACTORS
330
91E
102
}
330
91E
100
AcDbXrecord
280
     1
102
MATERIAL
148
0.0
149
0.0
149
0.0
 93
        0
 94
      127
282
     1
 72
     0
 77
     0
171
     0
175
     0
179
     0
273
     0
  0
XRECORD
  5
923
102
{ACAD_REACTORS
330
91E
102
}
330
91E
100
AcDbXrecord
280
     1
270
     1
271
     1
  0
XRECORD
  5
91F
102
{ACAD_REACTORS
330
91E
102
}
330
91E
100
AcDbXrecord
280
     1
270
     1
271
     1
  0
XRECORD
  5
922
102
{ACAD_REACTORS
330
91E
102
}
330
91E
100
AcDbXrecord
280
     1
270
     1
271
     1
  0
XRECORD
  5
921
102
{ACAD_REACTORS
330
91E
102
}
330
91E
100
AcDbXrecord
280
     1
270
     1
271
     1
  0
XRECORD
  5
924
102
{ACAD_REACTORS
330
91E
102
}
330
91E
100
AcDbXrecord
280
     1
270
     1
271
     1
  0
XRECORD
  5
920
102
{ACAD_REACTORS
330
91E
102
}
330
91E
100
AcDbXrecord
280
     1
270
     1
271
     1
  0
XRECORD
  5
6C9
102
{ACAD_REACTORS
330
171
102
}
330
171
100
AcDbXrecord
280
     1
102
MATERIAL
148
0.0
149
0.0
149
0.0
 93
        0
 94
      127
282
     0
 72
     0
 77
     0
171
     0
175
     0
179
     0
273
     0
  0
XRECORD
  5
173
102
{ACAD_REACTORS
330
171
102
}
330
171
100
AcDbXrecord
280
     1
270
     1
271
     1
  0
XRECORD
  5
172
102
{ACAD_REACTORS
330
171
102
}
330
171
100
AcDbXrecord
280
     1
270
     1
271
     1
  0
XRECORD
  5
176
102
{ACAD_REACTORS
330
171
102
}
330
171
100
AcDbXrecord
280
     1
270
     1
271
     1
  0
XRECORD
  5
175
102
{ACAD_REACTORS
330
171
102
}
330
171
100
AcDbXrecord
280
     1
270
     1
271
     1
  0
XRECORD
  5
177
102
{ACAD_REACTORS
330
171
102
}
330
171
100
AcDbXrecord
280
     1
270
     1
271
     1
  0
XRECORD
  5
174
102
{ACAD_REACTORS
330
171
102
}
330
171
100
AcDbXrecord
280
     1
270
     1
271
     1
  0
XRECORD
  5
6C8
102
{ACAD_REACTORS
330
169
102
}
330
169
100
AcDbXrecord
280
     1
102
MATERIAL
148
0.0
149
0.0
149
0.0
 93
        0
 94
      127
282
     0
 72
     0
 77
     0
171
     0
175
     0
179
     0
273
     0
  0
XRECORD
  5
16B
102
{ACAD_REACTORS
330
169
102
}
330
169
100
AcDbXrecord
280
     1
270
     1
271
     1
  0
XRECORD
  5
16A
102
{ACAD_REACTORS
330
169
102
}
330
169
100
AcDbXrecord
280
     1
270
     1
271
     1
  0
XRECORD
  5
16E
102
{ACAD_REACTORS
330
169
102
}
330
169
100
AcDbXrecord
280
     1
270
     1
271
     1
  0
XRECORD
  5
16D
102
{ACAD_REACTORS
330
169
102
}
330
169
100
AcDbXrecord
280
     1
270
     1
271
     1
  0
XRECORD
  5
16F
102
{ACAD_REACTORS
330
169
102
}
330
169
100
AcDbXrecord
280
     1
270
     1
271
     1
  0
XRECORD
  5
16C
102
{ACAD_REACTORS
330
169
102
}
330
169
100
AcDbXrecord
280
     1
270
     1
271
     1
  0
XRECORD
  5
6CA
102
{ACAD_REACTORS
330
179
102
}
330
179
100
AcDbXrecord
280
     1
102
MATERIAL
148
0.0
149
0.0
149
0.0
 93
        0
 94
      127
282
     0
 72
     0
 77
     0
171
     0
175
     0
179
     0
273
     0
  0
XRECORD
  5
17B
102
{ACAD_REACTORS
330
179
102
}
330
179
100
AcDbXrecord
280
     1
270
     1
271
     1
  0
XRECORD
  5
17A
102
{ACAD_REACTORS
330
179
102
}
330
179
100
AcDbXrecord
280
     1
270
     1
271
     1
  0
XRECORD
  5
17E
102
{ACAD_REACTORS
330
179
102
}
330
179
100
AcDbXrecord
280
     1
270
     1
271
     1
  0
XRECORD
  5
17D
102
{ACAD_REACTORS
330
179
102
}
330
179
100
AcDbXrecord
280
     1
270
     1
271
     1
  0
XRECORD
  5
17F
102
{ACAD_REACTORS
330
179
102
}
330
179
100
AcDbXrecord
280
     1
270
     1
271
     1
  0
XRECORD
  5
17C
102
{ACAD_REACTORS
330
179
102
}
330
179
100
AcDbXrecord
280
     1
270
     1
271
     1
  0
CELLSTYLEMAP
  5
925
102
{ACAD_REACTORS
330
1E0
102
}
330
1E0
100
AcDbCellStyleMap
 90
        3
300
CELLSTYLE
  1
TABLEFORMAT_BEGIN
 90
        5
170
     1
 91
        0
 92
    32768
 62
   257
 93
        1
300
CONTENTFORMAT
  1
CONTENTFORMAT_BEGIN
 90
        0
 91
        0
 92
        4
 93
        0
300

 40
0.0
140
1.0
 94
        5
 62
     0
340
11
144
0.25
309
CONTENTFORMAT_END
171
     1
301
MARGIN
  1
CELLMARGIN_BEGIN
 40
0.06
 40
0.06
 40
0.06
 40
0.06
 40
0.18
 40
0.18
309
CELLMARGIN_END
 94
        6
 95
        1
302
GRIDFORMAT
  1
GRIDFORMAT_BEGIN
 90
        0
 91
        1
 62
     0
 92
       -2
340
0
 93
        0
 40
0.045
309
GRIDFORMAT_END
 95
        2
302
GRIDFORMAT
  1
GRIDFORMAT_BEGIN
 90
        0
 91
        1
 62
     0
 92
       -2
340
0
 93
        0
 40
0.045
309
GRIDFORMAT_END
 95
        4
302
GRIDFORMAT
  1
GRIDFORMAT_BEGIN
 90
        0
 91
        1
 62
     0
 92
       -2
340
0
 93
        0
 40
0.045
309
GRIDFORMAT_END
 95
        8
302
GRIDFORMAT
  1
GRIDFORMAT_BEGIN
 90
        0
 91
        1
 62
     0
 92
       -2
340
0
 93
        0
 40
0.045
309
GRIDFORMAT_END
 95
       16
302
GRIDFORMAT
  1
GRIDFORMAT_BEGIN
 90
        0
 91
        1
 62
     0
 92
       -2
340
0
 93
        0
 40
0.045
309
GRIDFORMAT_END
 95
       32
302
GRIDFORMAT
  1
GRIDFORMAT_BEGIN
 90
        0
 91
        1
 62
     0
 92
       -2
340
0
 93
        0
 40
0.045
309
GRIDFORMAT_END
309
TABLEFORMAT_END
  1
CELLSTYLE_BEGIN
 90
        1
 91
        1
300
_TITLE
309
CELLSTYLE_END
300
CELLSTYLE
  1
TABLEFORMAT_BEGIN
 90
        5
170
     1
 91
        0
 92
        0
 62
   257
 93
        1
300
CONTENTFORMAT
  1
CONTENTFORMAT_BEGIN
 90
        0
 91
        0
 92
        4
 93
        0
300

 40
0.0
140
1.0
 94
        5
 62
     0
340
11
144
0.18
309
CONTENTFORMAT_END
171
     1
301
MARGIN
  1
CELLMARGIN_BEGIN
 40
0.06
 40
0.06
 40
0.06
 40
0.06
 40
0.18
 40
0.18
309
CELLMARGIN_END
 94
        6
 95
        1
302
GRIDFORMAT
  1
GRIDFORMAT_BEGIN
 90
        0
 91
        1
 62
     0
 92
       -2
340
0
 93
        0
 40
0.045
309
GRIDFORMAT_END
 95
        2
302
GRIDFORMAT
  1
GRIDFORMAT_BEGIN
 90
        0
 91
        1
 62
     0
 92
       -2
340
0
 93
        0
 40
0.045
309
GRIDFORMAT_END
 95
        4
302
GRIDFORMAT
  1
GRIDFORMAT_BEGIN
 90
        0
 91
        1
 62
     0
 92
       -2
340
0
 93
        0
 40
0.045
309
GRIDFORMAT_END
 95
        8
302
GRIDFORMAT
  1
GRIDFORMAT_BEGIN
 90
        0
 91
        1
 62
     0
 92
       -2
340
0
 93
        0
 40
0.045
309
GRIDFORMAT_END
 95
       16
302
GRIDFORMAT
  1
GRIDFORMAT_BEGIN
 90
        0
 91
        1
 62
     0
 92
       -2
340
0
 93
        0
 40
0.045
309
GRIDFORMAT_END
 95
       32
302
GRIDFORMAT
  1
GRIDFORMAT_BEGIN
 90
        0
 91
        1
 62
     0
 92
       -2
340
0
 93
        0
 40
0.045
309
GRIDFORMAT_END
309
TABLEFORMAT_END
  1
CELLSTYLE_BEGIN
 90
        2
 91
        1
300
_HEADER
309
CELLSTYLE_END
300
CELLSTYLE
  1
TABLEFORMAT_BEGIN
 90
        5
170
     1
 91
        0
 92
        0
 62
   257
 93
        1
300
CONTENTFORMAT
  1
CONTENTFORMAT_BEGIN
 90
        0
 91
        0
 92
        4
 93
        0
300

 40
0.0
140
1.0
 94
        2
 62
     0
340
11
144
0.18
309
CONTENTFORMAT_END
171
     1
301
MARGIN
  1
CELLMARGIN_BEGIN
 40
0.06
 40
0.06
 40
0.06
 40
0.06
 40
0.18
 40
0.18
309
CELLMARGIN_END
 94
        6
 95
        1
302
GRIDFORMAT
  1
GRIDFORMAT_BEGIN
 90
        0
 91
        1
 62
     0
 92
       -2
340
0
 93
        0
 40
0.045
309
GRIDFORMAT_END
 95
        2
302
GRIDFORMAT
  1
GRIDFORMAT_BEGIN
 90
        0
 91
        1
 62
     0
 92
       -2
340
0
 93
        0
 40
0.045
309
GRIDFORMAT_END
 95
        4
302
GRIDFORMAT
  1
GRIDFORMAT_BEGIN
 90
        0
 91
        1
 62
     0
 92
       -2
340
0
 93
        0
 40
0.045
309
GRIDFORMAT_END
 95
        8
302
GRIDFORMAT
  1
GRIDFORMAT_BEGIN
 90
        0
 91
        1
 62
     0
 92
       -2
340
0
 93
        0
 40
0.045
309
GRIDFORMAT_END
 95
       16
302
GRIDFORMAT
  1
GRIDFORMAT_BEGIN
 90
        0
 91
        1
 62
     0
 92
       -2
340
0
 93
        0
 40
0.045
309
GRIDFORMAT_END
 95
       32
302
GRIDFORMAT
  1
GRIDFORMAT_BEGIN
 90
        0
 91
        1
 62
     0
 92
       -2
340
0
 93
        0
 40
0.045
309
GRIDFORMAT_END
309
TABLEFORMAT_END
  1
CELLSTYLE_BEGIN
 90
        3
 91
        2
300
_DATA
309
CELLSTYLE_END
  0
XRECORD
  5
92F
102
{ACAD_REACTORS
330
1E0
102
}
330
1E0
100
AcDbXrecord
280
     1
102
ACAD_ROUNDTRIP_PRE2007_TABLESTYLE
 90
        4
 91
        0
  1

 92
        4
 93
        0
  2

 94
        4
 95
        0
  3

  0
ENDSEC
  0
EOF
