  0
SECTION
  2
HEADER
  9
$ACADVER
  1
AC1015
  9
$ACADMAINTVER
 70
    20
  9
$DWGCODEPAGE
  3
ANSI_1252
  9
$INSBASE
 10
0.0
 20
0.0
 30
0.0
  9
$EXTMIN
 10
-0.0000000443268817
 20
10.91769218444824
 30
-0.000000035356809
  9
$EXTMAX
 10
34.88715362548828
 20
14.91769218444824
 30
38.5
  9
$LIMMIN
 10
0.0
 20
0.0
  9
$LIMMAX
 10
12.0
 20
9.0
  9
$ORTHOMODE
 70
     0
  9
$REGENMODE
 70
     1
  9
$FILLMODE
 70
     1
  9
$QTEXTMODE
 70
     0
  9
$MIRRTEXT
 70
     1
  9
$LTSCALE
 40
1.0
  9
$ATTMODE
 70
     1
  9
$TEXTSIZE
 40
0.2
  9
$TRACEWID
 40
0.05
  9
$TEXTSTYLE
  7
Standard
  9
$CLAYER
  8
0
  9
$CELTYPE
  6
ByLayer
  9
$CECOLOR
 62
   256
  9
$CELTSCALE
 40
1.0
  9
$DISPSILH
 70
     0
  9
$DIMSCALE
 40
3.0
  9
$DIMASZ
 40
0.18
  9
$DIMEXO
 40
0.0625
  9
$DIMDLI
 40
0.38
  9
$DIMRND
 40
0.0
  9
$DIMDLE
 40
0.0
  9
$DIMEXE
 40
0.18
  9
$DIMTP
 40
0.0
  9
$DIMTM
 40
0.0
  9
$DIMTXT
 40
0.18
  9
$DIMCEN
 40
0.09
  9
$DIMTSZ
 40
0.0
  9
$DIMTOL
 70
     0
  9
$DIMLIM
 70
     0
  9
$DIMTIH
 70
     1
  9
$DIMTOH
 70
     1
  9
$DIMSE1
 70
     0
  9
$DIMSE2
 70
     0
  9
$DIMTAD
 70
     0
  9
$DIMZIN
 70
     0
  9
$DIMBLK
  1
ArchTick
  9
$DIMASO
 70
     1
  9
$DIMSHO
 70
     1
  9
$DIMPOST
  1
"
  9
$DIMAPOST
  1

  9
$DIMALT
 70
     0
  9
$DIMALTD
 70
     2
  9
$DIMALTF
 40
25.4
  9
$DIMLFAC
 40
1.0
  9
$DIMTOFL
 70
     0
  9
$DIMTVP
 40
0.0
  9
$DIMTIX
 70
     0
  9
$DIMSOXD
 70
     0
  9
$DIMSAH
 70
     0
  9
$DIMBLK1
  1

  9
$DIMBLK2
  1

  9
$DIMSTYLE
  2
Standard
  9
$DIMCLRD
 70
     0
  9
$DIMCLRE
 70
     0
  9
$DIMCLRT
 70
     0
  9
$DIMTFAC
 40
1.0
  9
$DIMGAP
 40
0.09
  9
$DIMJUST
 70
     0
  9
$DIMSD1
 70
     0
  9
$DIMSD2
 70
     0
  9
$DIMTOLJ
 70
     1
  9
$DIMTZIN
 70
     0
  9
$DIMALTZ
 70
     0
  9
$DIMALTTZ
 70
     0
  9
$DIMUPT
 70
     0
  9
$DIMDEC
 70
     4
  9
$DIMTDEC
 70
     4
  9
$DIMALTU
 70
     2
  9
$DIMALTTD
 70
     2
  9
$DIMTXSTY
  7
Standard
  9
$DIMAUNIT
 70
     0
  9
$DIMADEC
 70
     0
  9
$DIMALTRND
 40
0.0
  9
$DIMAZIN
 70
     0
  9
$DIMDSEP
 70
    46
  9
$DIMATFIT
 70
     3
  9
$DIMFRAC
 70
     0
  9
$DIMLDRBLK
  1

  9
$DIMLUNIT
 70
     5
  9
$DIMLWD
 70
    -2
  9
$DIMLWE
 70
    -2
  9
$DIMTMOVE
 70
     0
  9
$LUNITS
 70
     2
  9
$LUPREC
 70
     4
  9
$SKETCHINC
 40
0.1
  9
$FILLETRAD
 40
0.5
  9
$AUNITS
 70
     0
  9
$AUPREC
 70
     0
  9
$MENU
  1
.
  9
$ELEVATION
 40
0.0
  9
$PELEVATION
 40
0.0
  9
$THICKNESS
 40
0.0
  9
$LIMCHECK
 70
     0
  9
$CHAMFERA
 40
0.5
  9
$CHAMFERB
 40
0.5
  9
$CHAMFERC
 40
1.0
  9
$CHAMFERD
 40
0.0
  9
$SKPOLY
 70
     0
  9
$TDCREATE
 40
2453063.729277882
  9
$TDUCREATE
 40
2453063.937611215
  9
$TDUPDATE
 40
2454459.412465649
  9
$TDUUPDATE
 40
2454459.620798981
  9
$TDINDWG
 40
0.0284860764
  9
$TDUSRTIMER
 40
0.0284858912
  9
$USRTIMER
 70
     1
  9
$ANGBASE
 50
0.0
  9
$ANGDIR
 70
     0
  9
$PDMODE
 70
     0
  9
$PDSIZE
 40
0.0
  9
$PLINEWID
 40
0.0
  9
$SPLFRAME
 70
     0
  9
$SPLINETYPE
 70
     6
  9
$SPLINESEGS
 70
     8
  9
$HANDSEED
  5
1716
  9
$SURFTAB1
 70
     6
  9
$SURFTAB2
 70
     6
  9
$SURFTYPE
 70
     6
  9
$SURFU
 70
     6
  9
$SURFV
 70
     6
  9
$UCSBASE
  2

  9
$UCSNAME
  2

  9
$UCSORG
 10
0.0
 20
0.0
 30
0.0
  9
$UCSXDIR
 10
1.0
 20
0.0
 30
0.0
  9
$UCSYDIR
 10
0.0
 20
0.0
 30
1.0
  9
$UCSORTHOREF
  2

  9
$UCSORTHOVIEW
 70
     0
  9
$UCSORGTOP
 10
0.0
 20
0.0
 30
0.0
  9
$UCSORGBOTTOM
 10
0.0
 20
0.0
 30
0.0
  9
$UCSORGLEFT
 10
0.0
 20
0.0
 30
0.0
  9
$UCSORGRIGHT
 10
0.0
 20
0.0
 30
0.0
  9
$UCSORGFRONT
 10
0.0
 20
0.0
 30
0.0
  9
$UCSORGBACK
 10
0.0
 20
0.0
 30
0.0
  9
$PUCSBASE
  2

  9
$PUCSNAME
  2

  9
$PUCSORG
 10
0.0
 20
0.0
 30
0.0
  9
$PUCSXDIR
 10
1.0
 20
0.0
 30
0.0
  9
$PUCSYDIR
 10
0.0
 20
1.0
 30
0.0
  9
$PUCSORTHOREF
  2

  9
$PUCSORTHOVIEW
 70
     0
  9
$PUCSORGTOP
 10
0.0
 20
0.0
 30
0.0
  9
$PUCSORGBOTTOM
 10
0.0
 20
0.0
 30
0.0
  9
$PUCSORGLEFT
 10
0.0
 20
0.0
 30
0.0
  9
$PUCSORGRIGHT
 10
0.0
 20
0.0
 30
0.0
  9
$PUCSORGFRONT
 10
0.0
 20
0.0
 30
0.0
  9
$PUCSORGBACK
 10
0.0
 20
0.0
 30
0.0
  9
$USERI1
 70
     0
  9
$USERI2
 70
     0
  9
$USERI3
 70
     0
  9
$USERI4
 70
     0
  9
$USERI5
 70
     0
  9
$USERR1
 40
0.0
  9
$USERR2
 40
0.0
  9
$USERR3
 40
0.0
  9
$USERR4
 40
0.0
  9
$USERR5
 40
0.0
  9
$WORLDVIEW
 70
     1
  9
$SHADEDGE
 70
     3
  9
$SHADEDIF
 70
    70
  9
$TILEMODE
 70
     1
  9
$MAXACTVP
 70
    64
  9
$PINSBASE
 10
0.0
 20
0.0
 30
0.0
  9
$PLIMCHECK
 70
     0
  9
$PEXTMIN
 10
1.000000000000000E+20
 20
1.000000000000000E+20
 30
1.000000000000000E+20
  9
$PEXTMAX
 10
-1.000000000000000E+20
 20
-1.000000000000000E+20
 30
-1.000000000000000E+20
  9
$PLIMMIN
 10
0.0
 20
0.0
  9
$PLIMMAX
 10
12.0
 20
9.0
  9
$UNITMODE
 70
     0
  9
$VISRETAIN
 70
     1
  9
$PLINEGEN
 70
     0
  9
$PSLTSCALE
 70
     1
  9
$TREEDEPTH
 70
  3020
  9
$CMLSTYLE
  2
Standard
  9
$CMLJUST
 70
     0
  9
$CMLSCALE
 40
1.0
  9
$PROXYGRAPHICS
 70
     1
  9
$MEASUREMENT
 70
     0
  9
$CELWEIGHT
370
    -1
  9
$ENDCAPS
280
     0
  9
$JOINSTYLE
280
     0
  9
$LWDISPLAY
290
     0
  9
$INSUNITS
 70
     1
  9
$HYPERLINKBASE
  1

  9
$STYLESHEET
  1

  9
$XEDIT
290
     1
  9
$CEPSNTYPE
380
     0
  9
$PSTYLEMODE
290
     1
  9
$FINGERPRINTGUID
  2
{FDEAD576-A652-11D2-9A35-0060089B3A3F}
  9
$VERSIONGUID
  2
{B9AF20A5-E61B-43BE-9806-65CED61806A3}
  9
$EXTNAMES
290
     1
  9
$PSVPSCALE
 40
0.0
  9
$OLESTARTUP
290
     0
  0
ENDSEC
  0
SECTION
  2
CLASSES
  0
CLASS
  1
ACDBDICTIONARYWDFLT
  2
AcDbDictionaryWithDefault
  3
ObjectDBX Classes
 90
        0
280
     0
281
     0
  0
CLASS
  1
ACDBPLACEHOLDER
  2
AcDbPlaceHolder
  3
ObjectDBX Classes
 90
        0
280
     0
281
     0
  0
CLASS
  1
LAYOUT
  2
AcDbLayout
  3
ObjectDBX Classes
 90
        0
280
     0
281
     0
  0
CLASS
  1
DICTIONARYVAR
  2
AcDbDictionaryVar
  3
ObjectDBX Classes
 90
        0
280
     0
281
     0
  0
CLASS
  1
TABLESTYLE
  2
AcDbTableStyle
  3
ObjectDBX Classes
 90
     4095
280
     0
281
     0
  0
CLASS
  1
MATERIAL
  2
AcDbMaterial
  3
ObjectDBX Classes
 90
     1153
280
     0
281
     0
  0
CLASS
  1
VISUALSTYLE
  2
AcDbVisualStyle
  3
ObjectDBX Classes
 90
     4095
280
     0
281
     0
  0
CLASS
  1
SCALE
  2
AcDbScale
  3
ObjectDBX Classes
 90
     1153
280
     0
281
     0
  0
CLASS
  1
MLEADERSTYLE
  2
AcDbMLeaderStyle
  3
ACDB_MLEADERSTYLE_CLASS
 90
     4095
280
     0
281
     0
  0
CLASS
  1
CELLSTYLEMAP
  2
AcDbCellStyleMap
  3
ObjectDBX Classes
 90
     1152
280
     0
281
     0
  0
ENDSEC
  0
SECTION
  2
TABLES
  0
TABLE
  2
VPORT
  5
8
330
0
100
AcDbSymbolTable
 70
     1
  0
VPORT
  5
18A
330
8
100
AcDbSymbolTableRecord
100
AcDbViewportTableRecord
  2
*Active
 70
     0
 10
0.0
 20
0.0
 11
1.0
 21
1.0
 12
18.00272092504862
 22
20.98059027568138
 13
0.0
 23
0.0
 14
0.5
 24
0.5
 15
0.5
 25
0.5
 16
0.0
 26
-1.0
 36
0.0
 17
21.37921334397863
 27
6.451190080090722
 37
0.2694097243186246
 40
34.7827868852459
 41
1.952107279693486
 42
50.0
 43
0.0
 44
0.0
 50
0.0
 51
0.0
 71
     0
 72
   100
 73
     1
 74
     3
 75
     0
 76
     0
 77
     0
 78
     0
281
     0
 65
     1
110
0.0
120
0.0
130
0.0
111
1.0
121
0.0
131
0.0
112
0.0
122
0.0
132
1.0
 79
     0
146
0.0
  0
ENDTAB
  0
TABLE
  2
LTYPE
  5
5
330
0
100
AcDbSymbolTable
 70
     1
  0
LTYPE
  5
14
330
5
100
AcDbSymbolTableRecord
100
AcDbLinetypeTableRecord
  2
ByBlock
 70
     0
  3

 72
    65
 73
     0
 40
0.0
  0
LTYPE
  5
15
330
5
100
AcDbSymbolTableRecord
100
AcDbLinetypeTableRecord
  2
ByLayer
 70
     0
  3

 72
    65
 73
     0
 40
0.0
  0
LTYPE
  5
16
330
5
100
AcDbSymbolTableRecord
100
AcDbLinetypeTableRecord
  2
Continuous
 70
     0
  3
Solid line
 72
    65
 73
     0
 40
0.0
  0
ENDTAB
  0
TABLE
  2
LAYER
  5
2
330
0
100
AcDbSymbolTable
 70
     3
  0
LAYER
  5
10
102
{ACAD_XDICTIONARY
360
91A
102
}
330
2
100
AcDbSymbolTableRecord
100
AcDbLayerTableRecord
  2
0
 70
     0
 62
     7
  6
Continuous
370
    -3
390
F
  0
LAYER
  5
AB
102
{ACAD_XDICTIONARY
360
91C
102
}
330
2
100
AcDbSymbolTableRecord
100
AcDbLayerTableRecord
  2
Layer1
 70
     0
 62
     1
  6
Continuous
290
     0
370
    -3
390
F
  0
LAYER
  5
1F5
102
{ACAD_XDICTIONARY
360
91E
102
}
330
2
100
AcDbSymbolTableRecord
100
AcDbLayerTableRecord
  2
ASHADE
 70
     4
 62
     7
  6
Continuous
370
    -3
390
F
  0
ENDTAB
  0
TABLE
  2
STYLE
  5
3
330
0
100
AcDbSymbolTable
 70
     2
  0
STYLE
  5
11
330
3
100
AcDbSymbolTableRecord
100
AcDbTextStyleTableRecord
  2
Standard
 70
     0
 40
0.0
 41
1.0
 50
0.0
 71
     0
 42
0.2
  3
txt
  4

  0
STYLE
  5
1EF
330
3
100
AcDbSymbolTableRecord
100
AcDbTextStyleTableRecord
  2
ASHADE
 70
     0
 40
0.2
 41
1.0
 50
0.0
 71
     0
 42
0.2
  3
simplex
  4

  0
ENDTAB
  0
TABLE
  2
VIEW
  5
6
330
0
100
AcDbSymbolTable
 70
     0
  0
ENDTAB
  0
TABLE
  2
UCS
  5
7
330
0
100
AcDbSymbolTable
 70
     0
  0
ENDTAB
  0
TABLE
  2
APPID
  5
9
330
0
100
AcDbSymbolTable
 70
     8
  0
APPID
  5
12
330
9
100
AcDbSymbolTableRecord
100
AcDbRegAppTableRecord
  2
ACAD
 70
     0
  0
APPID
  5
188
330
9
100
AcDbSymbolTableRecord
100
AcDbRegAppTableRecord
  2
DCO15
 70
     0
  0
APPID
  5
1EC
330
9
100
AcDbSymbolTableRecord
100
AcDbRegAppTableRecord
  2
ACAD_MLEADERVER
 70
     0
  0
APPID
  5
1F0
330
9
100
AcDbSymbolTableRecord
100
AcDbRegAppTableRecord
  2
AVE_RENDER
 70
     0
  0
APPID
  5
1F1
330
9
100
AcDbSymbolTableRecord
100
AcDbRegAppTableRecord
  2
AVE_ENTITY_MATERIAL
 70
     0
  0
APPID
  5
1F2
330
9
100
AcDbSymbolTableRecord
100
AcDbRegAppTableRecord
  2
AVE_FINISH
 70
     0
  0
APPID
  5
1F3
330
9
100
AcDbSymbolTableRecord
100
AcDbRegAppTableRecord
  2
AVE_MATERIAL
 70
     0
  0
APPID
  5
1F4
330
9
100
AcDbSymbolTableRecord
100
AcDbRegAppTableRecord
  2
AVE_GLOBAL
 70
     0
  0
ENDTAB
  0
TABLE
  2
DIMSTYLE
  5
A
330
0
100
AcDbSymbolTable
 70
     1
100
AcDbDimStyleTable
 71
     0
  0
DIMSTYLE
105
27
330
A
100
AcDbSymbolTableRecord
100
AcDbDimStyleTableRecord
  2
Standard
 70
     0
  3
"
 40
3.0
277
     5
340
11
342
4F
  0
ENDTAB
  0
TABLE
  2
BLOCK_RECORD
  5
1
330
0
100
AcDbSymbolTable
 70
     6
  0
BLOCK_RECORD
  5
1F
330
1
100
AcDbSymbolTableRecord
100
AcDbBlockTableRecord
  2
*Model_Space
340
22
  0
BLOCK_RECORD
  5
1B
330
1
100
AcDbSymbolTableRecord
100
AcDbBlockTableRecord
  2
*Paper_Space
340
1E
  0
BLOCK_RECORD
  5
23
330
1
100
AcDbSymbolTableRecord
100
AcDbBlockTableRecord
  2
*Paper_Space0
340
26
  0
BLOCK_RECORD
  5
4F
330
1
100
AcDbSymbolTableRecord
100
AcDbBlockTableRecord
  2
_ArchTick
340
0
  0
BLOCK_RECORD
  5
1F6
330
1
100
AcDbSymbolTableRecord
100
AcDbBlockTableRecord
  2
AVE_GLOBAL
340
0
102
{BLKREFS
331
1F9
102
}
  0
BLOCK_RECORD
  5
1FF
330
1
100
AcDbSymbolTableRecord
100
AcDbBlockTableRecord
  2
AVE_RENDER
340
0
102
{BLKREFS
331
202
331
203
331
204
331
205
331
206
331
207
331
208
331
209
102
}
  0
BLOCK_RECORD
  5
8DF
330
1
100
AcDbSymbolTableRecord
100
AcDbBlockTableRecord
  2
RM_SDB
340
0
102
{BLKREFS
331
1008
331
16F4
102
}
  0
ENDTAB
  0
ENDSEC
  0
SECTION
  2
BLOCKS
  0
BLOCK
  5
20
330
1F
100
AcDbEntity
  8
0
100
AcDbBlockBegin
  2
*Model_Space
 70
     0
 10
0.0
 20
0.0
 30
0.0
  3
*Model_Space
  1

  0
ENDBLK
  5
21
330
1F
100
AcDbEntity
  8
0
100
AcDbBlockEnd
  0
BLOCK
  5
1C
330
1B
100
AcDbEntity
 67
     1
  8
0
100
AcDbBlockBegin
  2
*Paper_Space
 70
     0
 10
0.0
 20
0.0
 30
0.0
  3
*Paper_Space
  1

  0
ENDBLK
  5
1D
330
1B
100
AcDbEntity
 67
     1
  8
0
100
AcDbBlockEnd
  0
BLOCK
  5
24
330
23
100
AcDbEntity
 67
     1
  8
0
100
AcDbBlockBegin
  2
*Paper_Space0
 70
     0
 10
0.0
 20
0.0
 30
0.0
  3
*Paper_Space0
  1

  0
ENDBLK
  5
25
330
23
100
AcDbEntity
 67
     1
  8
0
100
AcDbBlockEnd
  0
BLOCK
  5
51
330
4F
100
AcDbEntity
  8
0
100
AcDbBlockBegin
  2
_ArchTick
 70
     0
 10
0.0
 20
0.0
 30
0.0
  3
_ArchTick
  1

  0
LWPOLYLINE
  5
50
330
4F
100
AcDbEntity
  8
0
 62
     0
100
AcDbPolyline
 90
        2
 70
     0
 43
0.15
 10
-0.5
 20
-0.5
 10
0.5
 20
0.5
  0
ENDBLK
  5
52
330
4F
100
AcDbEntity
  8
0
100
AcDbBlockEnd
  0
BLOCK
  5
1F7
330
1F6
100
AcDbEntity
  8
ASHADE
100
AcDbBlockBegin
  2
AVE_GLOBAL
 70
     0
 10
0.0
 20
0.0
 30
0.0
  3
AVE_GLOBAL
  1
AVE_GLOBAL
  0
ENDBLK
  5
1F8
330
1F6
100
AcDbEntity
  8
0
100
AcDbBlockEnd
  0
BLOCK
  5
200
330
1FF
100
AcDbEntity
  8
ASHADE
100
AcDbBlockBegin
  2
AVE_RENDER
 70
     0
 10
0.0
 20
0.0
 30
0.0
  3
AVE_RENDER
  1
AVE_RENDER
  0
ENDBLK
  5
201
330
1FF
100
AcDbEntity
  8
0
100
AcDbBlockEnd
  0
BLOCK
  5
8E0
330
8DF
100
AcDbEntity
  8
ASHADE
100
AcDbBlockBegin
  2
RM_SDB
 70
     2
 10
0.0
 20
0.0
 30
0.0
  3
RM_SDB
  1
RM_SDB
  0
ATTDEF
  5
8E1
330
8DF
100
AcDbEntity
  8
0
100
AcDbText
 10
0.0
 20
0.0
 30
0.0
 40
0.2
  1

100
AcDbAttributeDefinition
  3

  2
NAME
 70
     1
  0
ATTDEF
  5
8E2
330
8DF
100
AcDbEntity
  8
0
100
AcDbText
 10
0.0
 20
0.0
 30
0.0
 40
0.2
  1

100
AcDbAttributeDefinition
  3

  2
ACADCOLOR
 70
     1
  0
ATTDEF
  5
8E3
330
8DF
100
AcDbEntity
  8
0
100
AcDbText
 10
0.0
 20
0.0
 30
0.0
 40
0.2
  1

100
AcDbAttributeDefinition
  3

  2
COLOR
 70
     1
  0
ATTDEF
  5
8E4
330
8DF
100
AcDbEntity
  8
0
100
AcDbText
 10
0.0
 20
0.0
 30
0.0
 40
0.2
  1

100
AcDbAttributeDefinition
  3

  2
OPACITY
 70
     1
  0
ATTDEF
  5
8E5
330
8DF
100
AcDbEntity
  8
0
100
AcDbText
 10
0.0
 20
0.0
 30
0.0
 40
0.2
  1

100
AcDbAttributeDefinition
  3

  2
SURFACE
 70
     1
  0
ATTDEF
  5
8E6
330
8DF
100
AcDbEntity
  8
0
100
AcDbText
 10
0.0
 20
0.0
 30
0.0
 40
0.2
  1

100
AcDbAttributeDefinition
  3

  2
SURF1
 70
     1
  0
ATTDEF
  5
8E7
330
8DF
100
AcDbEntity
  8
0
100
AcDbText
 10
0.0
 20
0.0
 30
0.0
 40
0.2
  1

100
AcDbAttributeDefinition
  3

  2
SURF2
 70
     1
  0
ATTDEF
  5
8E8
330
8DF
100
AcDbEntity
  8
0
100
AcDbText
 10
0.0
 20
0.0
 30
0.0
 40
0.2
  1

100
AcDbAttributeDefinition
  3

  2
SURF3
 70
     1
  0
ATTDEF
  5
8E9
330
8DF
100
AcDbEntity
  8
0
100
AcDbText
 10
0.0
 20
0.0
 30
0.0
 40
0.2
  1

100
AcDbAttributeDefinition
  3

  2
SURF4
 70
     1
  0
ATTDEF
  5
8EA
330
8DF
100
AcDbEntity
  8
0
100
AcDbText
 10
0.0
 20
0.0
 30
0.0
 40
0.2
  1

100
AcDbAttributeDefinition
  3

  2
SHADINGRATE
 70
     1
  0
ATTDEF
  5
8EB
330
8DF
100
AcDbEntity
  8
0
100
AcDbText
 10
0.0
 20
0.0
 30
0.0
 40
0.2
  1

100
AcDbAttributeDefinition
  3

  2
DISPLACEMENT
 70
     1
  0
ATTDEF
  5
8EC
330
8DF
100
AcDbEntity
  8
0
100
AcDbText
 10
0.0
 20
0.0
 30
0.0
 40
0.2
  1

100
AcDbAttributeDefinition
  3

  2
DISP1
 70
     1
  0
ATTDEF
  5
8ED
330
8DF
100
AcDbEntity
  8
0
100
AcDbText
 10
0.0
 20
0.0
 30
0.0
 40
0.2
  1

100
AcDbAttributeDefinition
  3

  2
DISP2
 70
     1
  0
ATTDEF
  5
8EE
330
8DF
100
AcDbEntity
  8
0
100
AcDbText
 10
0.0
 20
0.0
 30
0.0
 40
0.2
  1

100
AcDbAttributeDefinition
  3

  2
DISP3
 70
     1
  0
ATTDEF
  5
8EF
330
8DF
100
AcDbEntity
  8
0
100
AcDbText
 10
0.0
 20
0.0
 30
0.0
 40
0.2
  1

100
AcDbAttributeDefinition
  3

  2
DISP4
 70
     1
  0
ATTDEF
  5
8F0
330
8DF
100
AcDbEntity
  8
0
100
AcDbText
 10
0.0
 20
0.0
 30
0.0
 40
0.2
  1

100
AcDbAttributeDefinition
  3

  2
DBOUND
 70
     1
  0
ATTDEF
  5
8F1
330
8DF
100
AcDbEntity
  8
0
100
AcDbText
 10
0.0
 20
0.0
 30
0.0
 40
0.2
  1

100
AcDbAttributeDefinition
  3

  2
SMOOTH
 70
     1
  0
ATTDEF
  5
8F2
330
8DF
100
AcDbEntity
  8
0
100
AcDbText
 10
0.0
 20
0.0
 30
0.0
 40
0.2
  1

100
AcDbAttributeDefinition
  3

  2
ATMOSHPERE
 70
     1
  0
ATTDEF
  5
8F3
330
8DF
100
AcDbEntity
  8
0
100
AcDbText
 10
0.0
 20
0.0
 30
0.0
 40
0.2
  1

100
AcDbAttributeDefinition
  3

  2
ATMO1
 70
     1
  0
ATTDEF
  5
8F4
330
8DF
100
AcDbEntity
  8
0
100
AcDbText
 10
0.0
 20
0.0
 30
0.0
 40
0.2
  1

100
AcDbAttributeDefinition
  3

  2
ATMO2
 70
     1
  0
ATTDEF
  5
8F5
330
8DF
100
AcDbEntity
  8
0
100
AcDbText
 10
0.0
 20
0.0
 30
0.0
 40
0.2
  1

100
AcDbAttributeDefinition
  3

  2
ATMO3
 70
     1
  0
ATTDEF
  5
8F6
330
8DF
100
AcDbEntity
  8
0
100
AcDbText
 10
0.0
 20
0.0
 30
0.0
 40
0.2
  1

100
AcDbAttributeDefinition
  3

  2
ATMO4
 70
     1
  0
ATTDEF
  5
8F7
330
8DF
100
AcDbEntity
  8
0
100
AcDbText
 10
0.0
 20
0.0
 30
0.0
 40
0.2
  1

100
AcDbAttributeDefinition
  3

  2
TCCORD
 70
     1
  0
ENDBLK
  5
8F8
330
8DF
100
AcDbEntity
  8
0
100
AcDbBlockEnd
  0
ENDSEC
  0
SECTION
  2
ENTITIES
  0
INSERT
  5
1F9
330
1F
100
AcDbEntity
  8
ASHADE
 62
     1
100
AcDbBlockReference
  2
AVE_GLOBAL
 10
0.0
 20
0.0
 30
0.0
1001
AVE_MATERIAL
1002
{
1000
*GLOBAL*
1000
2
1000
Global finish.
1002
{
1002
}
1002
{
1070
    63
1002
{
1002
{
1010
-1.0
1020
-1.0
1030
-1.0
1002
}
1040
0.6999999880790711
1000

1040
0.0
1002
{
1002
}
1040
0.0
1002
{
1002
}
1040
0.0
1002
}
1002
{
1002
{
1010
-1.0
1020
-1.0
1030
-1.0
1002
}
1040
1.0
1000

1040
0.0
1002
{
1002
}
1040
0.0
1002
{
1002
}
1040
0.0
1002
}
1002
{
1002
{
1010
-1.0
1020
-1.0
1030
-1.0
1002
}
1040
0.2000000029802322
1000

1040
0.0
1002
{
1002
}
1040
0.0
1002
{
1002
}
1040
0.0
1002
}
1002
{
1070
     0
1002
{
1070
     1
1002
{
1040
1.0
1040
1.0
1000

1040
0.0
1002
{
1002
}
1040
0.0
1002
{
1002
}
1040
0.0
1002
}
1002
}
1040
1.0
1040
0.0
1040
0.0
1002
}
1002
{
1040
1.0
1040
1.0
1000

1040
0.0
1002
{
1002
}
1040
0.0
1002
{
1002
}
1040
0.0
1002
}
1002
{
1040
0.5
1040
1.0
1000

1040
0.0
1002
{
1002
}
1040
0.0
1002
{
1002
}
1040
0.0
1002
}
1002
{
1070
     0
1040
0.0
1002
{
1002
}
1040
1.0
1002
{
1002
}
1040
0.0
1002
}
1002
{
1040
0.0
1002
{
1002
{
1010
0.0
1020
0.0
1030
0.0
1002
}
1040
1.0
1000

1040
0.0
1002
{
1002
}
1040
0.0
1002
{
1002
}
1040
0.0
1002
}
1002
}
1002
{
1002
{
1070
     1
1002
{
1040
0.0
1040
1.0
1000

1040
0.0
1002
{
1002
}
1040
0.0
1002
{
1002
}
1040
0.0
1002
}
1002
}
1040
0.0
1002
{
1002
}
1010
1.0
1020
0.0
1030
0.0
1010
0.0
1020
1.0
1030
0.0
1010
0.0
1020
0.0
1030
1.0
1070
     0
1002
}
1002
{
1002
{
1040
1.0
1040
1.0
1002
{
1070
     1
1002
{
1040
1.0
1040
1.0
1000

1040
0.0
1002
{
1002
}
1040
0.0
1002
{
1002
}
1040
0.0
1002
}
1002
}
1002
}
1070
     0
1040
0.0
1002
{
1002
}
1002
}
1002
{
1002
}
1002
}
1002
{
1071
        3
1070
     3
1070
     0
1002
{
1070
     2
1070
     0
1070
     0
1040
0.0
1002
}
1070
     0
1070
     2
1002
{
1002
}
1002
}
1002
{
1040
8030.0
1040
190.3000030517578
1040
0.3050000071525574
1040
228.0
1040
545.0
1040
14.0
1040
17.39999961853027
1040
0.4560000002384186
1002
}
1000

1002
}
  0
INSERT
  5
202
330
1F
100
AcDbEntity
  8
ASHADE
 62
     1
100
AcDbBlockReference
  2
AVE_RENDER
 10
0.0
 20
0.0
 30
0.0
1001
AVE_RENDER
1002
{
1070
     7
1000
Pref
1070
    50
1070
    20
1070
     1
1070
     0
1000

1070
    10
1070
     1
1070
    10
1040
1.0
1070
     1
1040
0.6999999880790711
1040
1.0
1040
0.2000000029802322
1040
2.0
1010
-1.0
1020
-1.0
1030
-1.0
1040
0.3000000119209289
1070
    49
1070
     0
1070
     0
1010
1.0
1020
1.0
1030
1.0
1040
45.0
1070
     1
1070
     0
1000
WCS
1040
0.0
1070
     0
1040
10.0
1002
}
  0
INSERT
  5
203
330
1F
100
AcDbEntity
  8
ASHADE
 62
     3
100
AcDbBlockReference
  2
AVE_RENDER
 10
0.0
 20
0.0
 30
0.0
1001
AVE_RENDER
1002
{
1070
     0
1000
Full Opt
1070
     0
1070
     1
1070
     1
1070
     1
1070
     0
1070
     0
1070
     0
1070
     1
1070
     1
1040
0.0001
1040
0.0001
1002
}
  0
INSERT
  5
204
330
1F
100
AcDbEntity
  8
ASHADE
 62
     4
100
AcDbBlockReference
  2
AVE_RENDER
 10
0.0
 20
0.0
 30
0.0
1001
AVE_RENDER
1002
{
1070
     0
1000
Quick Opt
1070
     0
1070
     1
1070
     1
1070
     1
1070
     0
1070
     0
1070
     1
1002
}
  0
INSERT
  5
205
330
1F
100
AcDbEntity
  8
ASHADE
 62
     5
100
AcDbBlockReference
  2
AVE_RENDER
 10
0.0
 20
0.0
 30
0.0
1001
AVE_RENDER
1002
{
1070
     1
1000
Scanl Opt
1070
     2
1070
     0
1070
     2
1040
2.0
1040
4.0
1070
     0
1070
     1
1070
     0
1040
0.03
1002
}
  0
INSERT
  5
206
330
1F
100
AcDbEntity
  8
ASHADE
 62
     6
100
AcDbBlockReference
  2
AVE_RENDER
 10
0.0
 20
0.0
 30
0.0
1001
AVE_RENDER
1002
{
1070
     2
1000
Raytr Opt
1070
     2
1070
     0
1070
     2
1040
2.0
1040
4.0
1070
     0
1070
     1
1070
     1
1040
0.03
1070
     3
1040
0.03
1002
}
  0
INSERT
  5
207
330
1F
100
AcDbEntity
  8
ASHADE
 62
     7
100
AcDbBlockReference
  2
AVE_RENDER
 10
0.0
 20
0.0
 30
0.0
1001
AVE_RENDER
1002
{
1070
     0
1000
RFile Opt
1070
     1
1070
   640
1070
   480
1070
 10000
1070
     1
1070
     8
1070
     8
1070
     0
1070
     0
1070
     0
1070
     0
1070
     0
1070
     0
1070
     0
1002
}
  0
INSERT
  5
208
330
1F
100
AcDbEntity
  8
ASHADE
 62
     8
100
AcDbBlockReference
  2
AVE_RENDER
 10
0.0
 20
0.0
 30
0.0
1001
AVE_RENDER
1002
{
1070
     0
1000
Fog Opt
1070
     0
1070
     0
1040
0.0
1040
1.0
1040
0.0
1040
1.0
1010
0.5
1020
0.5
1030
0.5
1002
}
  0
INSERT
  5
209
330
1F
100
AcDbEntity
  8
ASHADE
 62
     9
100
AcDbBlockReference
  2
AVE_RENDER
 10
0.0
 20
0.0
 30
0.0
1001
AVE_RENDER
1002
{
1070
     0
1000
BG Opt
1070
     0
1070
     0
1010
0.0
1020
0.0
1030
0.0
1010
1.0
1020
0.0
1030
0.0
1010
0.0
1020
1.0
1030
0.0
1010
0.0
1020
0.0
1030
1.0
1040
0.5
1040
0.5
1040
0.0
1000

1070
     1
1000

1070
     1
1070
     1
1040
1.0
1040
1.0
1040
0.0
1040
0.0
1070
     0
1002
}
  0
POLYLINE
  5
1024
330
1F
100
AcDbEntity
  8
0
 62
     7
100
AcDbPolyFaceMesh
 66
     1
 10
0.0
 20
0.0
 30
0.0
 70
    64
 71
   582
 72
  1160
1001
AVE_ENTITY_MATERIAL
1002
{
1000

1002
{
1071
        0
1070
     0
1070
     0
1002
{
1070
     0
1070
     0
1070
     0
1040
0.0
1002
}
1070
     0
1070
     0
1002
{
1002
}
1002
}
1002
{
1002
}
1002
{
1002
}
1011
-30.88715557716379
1021
0.0
1031
-4.000000035356809
1011
-29.88715557716379
1021
0.0
1031
-4.000000035356809
1011
-30.88715557716379
1021
1.0
1031
-4.000000035356809
1011
-30.88715557716379
1021
0.0
1031
-3.000000035356809
1002
}
  0
VERTEX
  5
1025
330
1024
100
AcDbEntity
  8
0
 62
     7
100
AcDbVertex
100
AcDbPolyFaceMeshVertex
 10
0.3517894301604265
 20
11.96609783172607
 30
15.74893947880334
 70
   192
  0
VERTEX
  5
1026
330
1024
100
AcDbEntity
  8
0
 62
     7
100
AcDbVertex
100
AcDbPolyFaceMeshVertex
 10
0.3098506484221488
 20
11.94188404083252
 30
15.56820484440393
 70
   192
  0
VERTEX
  5
1027
330
1024
100
AcDbEntity
  8
0
 62
     7
100
AcDbVertex
100
AcDbPolyFaceMeshVertex
 10
1.048404649276637
 20
11.26948261260986
 30
15.74893947880334
 70
   192
  0
VERTEX
  5
1028
330
1024
100
AcDbEntity
  8
0
 62
     7
100
AcDbVertex
100
AcDbPolyFaceMeshVertex
 10
0.0483836684416765
 20
12.91769218444824
 30
15.56820484440393
 70
   192
  0
VERTEX
  5
1029
330
1024
100
AcDbEntity
  8
0
 62
     7
100
AcDbVertex
100
AcDbPolyFaceMeshVertex
 10
0.3098506484221488
 20
13.89350032806396
 30
15.56820484440393
 70
   192
  0
VERTEX
  5
102A
330
1024
100
AcDbEntity
  8
0
 62
     7
100
AcDbVertex
100
AcDbPolyFaceMeshVertex
 10
0.3517894301604265
 20
13.86928653717041
 30
15.38746830265588
 70
   192
  0
VERTEX
  5
102B
330
1024
100
AcDbEntity
  8
0
 62
     7
100
AcDbVertex
100
AcDbPolyFaceMeshVertex
 10
0.0968112502287859
 20
12.91769218444824
 30
15.74893947880334
 70
   192
  0
VERTEX
  5
102C
330
1024
100
AcDbEntity
  8
0
 62
     7
100
AcDbVertex
100
AcDbPolyFaceMeshVertex
 10
0.4663714919280082
 20
12.03225231170654
 30
15.88124843876428
 70
   192
  0
VERTEX
  5
102D
330
1024
100
AcDbEntity
  8
0
 62
     7
100
AcDbVertex
100
AcDbPolyFaceMeshVertex
 10
0.3517894301604265
 20
13.86928653717041
 30
15.74893947880334
 70
   192
  0
VERTEX
  5
102E
330
1024
100
AcDbEntity
  8
0
 62
     7
100
AcDbVertex
100
AcDbPolyFaceMeshVertex
 10
1.024190858383086
 20
14.60784149169922
 30
15.56820484440393
 70
   192
  0
VERTEX
  5
102F
330
1024
100
AcDbEntity
  8
0
 62
     7
100
AcDbVertex
100
AcDbPolyFaceMeshVertex
 10
1.999998048324489
 20
14.86930847167968
 30
15.56820484440393
 70
   192
  0
VERTEX
  5
1030
330
1024
100
AcDbEntity
  8
0
 62
     7
100
AcDbVertex
100
AcDbPolyFaceMeshVertex
 10
1.999998048324489
 20
14.82087993621826
 30
15.38746830265588
 70
   192
  0
VERTEX
  5
1031
330
1024
100
AcDbEntity
  8
0
 62
     7
100
AcDbVertex
100
AcDbPolyFaceMeshVertex
 10
1.048404649276637
 20
14.56590175628662
 30
15.74893947880334
 70
   192
  0
VERTEX
  5
1032
330
1024
100
AcDbEntity
  8
0
 62
     7
100
AcDbVertex
100
AcDbPolyFaceMeshVertex
 10
0.4663714919280082
 20
13.80313205718994
 30
15.88124843876428
 70
   192
  0
VERTEX
  5
1033
330
1024
100
AcDbEntity
  8
0
 62
     7
100
AcDbVertex
100
AcDbPolyFaceMeshVertex
 10
1.999998048324489
 20
14.82087993621826
 30
15.74893947880334
 70
   192
  0
VERTEX
  5
1034
330
1024
100
AcDbEntity
  8
0
 62
     7
100
AcDbVertex
100
AcDbPolyFaceMeshVertex
 10
2.975809052963153
 20
14.60784149169922
 30
15.56820484440393
 70
   192
  0
VERTEX
  5
1035
330
1024
100
AcDbEntity
  8
0
 62
     7
100
AcDbVertex
100
AcDbPolyFaceMeshVertex
 10
3.951616242904567
 20
12.91769218444824
 30
15.56820484440393
 70
   192
  0
VERTEX
  5
1036
330
1024
100
AcDbEntity
  8
0
 62
     7
100
AcDbVertex
100
AcDbPolyFaceMeshVertex
 10
3.690149262924098
 20
13.89350032806396
 30
15.56820484440393
 70
   192
  0
VERTEX
  5
1037
330
1024
100
AcDbEntity
  8
0
 62
     7
100
AcDbVertex
100
AcDbPolyFaceMeshVertex
 10
3.648206666488544
 20
13.86928653717041
 30
15.74893947880334
 70
   192
  0
VERTEX
  5
1038
330
1024
100
AcDbEntity
  8
0
 62
     7
100
AcDbVertex
100
AcDbPolyFaceMeshVertex
 10
3.648206666488544
 20
13.86928653717041
 30
15.38746830265588
 70
   192
  0
VERTEX
  5
1039
330
1024
100
AcDbEntity
  8
0
 62
     7
100
AcDbVertex
100
AcDbPolyFaceMeshVertex
 10
2.95159335472098
 20
14.56590175628662
 30
15.74893947880334
 70
   192
  0
VERTEX
  5
103A
330
1024
100
AcDbEntity
  8
0
 62
     7
100
AcDbVertex
100
AcDbPolyFaceMeshVertex
 10
1.999998048324489
 20
14.68857192993164
 30
15.88124843876428
 70
   192
  0
VERTEX
  5
103B
330
1024
100
AcDbEntity
  8
0
 62
     7
100
AcDbVertex
100
AcDbPolyFaceMeshVertex
 10
3.648206666488544
 20
11.96609783172607
 30
15.74893947880334
 70
   192
  0
VERTEX
  5
103C
330
1024
100
AcDbEntity
  8
0
 62
     7
100
AcDbVertex
100
AcDbPolyFaceMeshVertex
 10
2.95159335472098
 20
11.26948261260986
 30
15.74893947880334
 70
   192
  0
VERTEX
  5
103D
330
1024
100
AcDbEntity
  8
0
 62
     7
100
AcDbVertex
100
AcDbPolyFaceMeshVertex
 10
2.975809052963153
 20
11.22754287719726
 30
15.56820484440393
 70
   192
  0
VERTEX
  5
103E
330
1024
100
AcDbEntity
  8
0
 62
     7
100
AcDbVertex
100
AcDbPolyFaceMeshVertex
 10
1.999998048324489
 20
11.01450443267822
 30
15.74893947880334
 70
   192
  0
VERTEX
  5
103F
330
1024
100
AcDbEntity
  8
0
 62
     7
100
AcDbVertex
100
AcDbPolyFaceMeshVertex
 10
1.999998048324489
 20
11.14681243896484
 30
15.88124843876428
 70
   192
  0
VERTEX
  5
1040
330
1024
100
AcDbEntity
  8
0
 62
     7
100
AcDbVertex
100
AcDbPolyFaceMeshVertex
 10
1.024190858383086
 20
11.22754287719726
 30
15.56820484440393
 70
   192
  0
VERTEX
  5
1041
330
1024
100
AcDbEntity
  8
0
 62
     7
100
AcDbVertex
100
AcDbPolyFaceMeshVertex
 10
0.3517894301604265
 20
11.96609783172607
 30
15.38746830265588
 70
   192
  0
VERTEX
  5
1042
330
1024
100
AcDbEntity
  8
0
 62
     7
100
AcDbVertex
100
AcDbPolyFaceMeshVertex
 10
3.53362460472098
 20
12.03225231170654
 30
15.88124843876428
 70
   192
  0
VERTEX
  5
1043
330
1024
100
AcDbEntity
  8
0
 62
     7
100
AcDbVertex
100
AcDbPolyFaceMeshVertex
 10
1.999998048324489
 20
10.9660758972168
 30
15.56820484440393
 70
   192
  0
VERTEX
  5
1044
330
1024
100
AcDbEntity
  8
0
 62
     7
100
AcDbVertex
100
AcDbPolyFaceMeshVertex
 10
1.999998048324489
 20
11.01450443267822
 30
15.38746830265588
 70
   192
  0
VERTEX
  5
1045
330
1024
100
AcDbEntity
  8
0
 62
     7
100
AcDbVertex
100
AcDbPolyFaceMeshVertex
 10
3.644136384506129
 20
11.96844959259033
 30
15.37955471317834
 70
   192
  0
VERTEX
  5
1046
330
1024
100
AcDbEntity
  8
0
 62
     7
100
AcDbVertex
100
AcDbPolyFaceMeshVertex
 10
3.648206666488544
 20
11.96609783172607
 30
15.38746830265588
 70
   192
  0
VERTEX
  5
1047
330
1024
100
AcDbEntity
  8
0
 62
     7
100
AcDbVertex
100
AcDbPolyFaceMeshVertex
 10
2.949239686508089
 20
11.27355670928955
 30
15.37955471317834
 70
   192
  0
VERTEX
  5
1048
330
1024
100
AcDbEntity
  8
0
 62
     7
100
AcDbVertex
100
AcDbPolyFaceMeshVertex
 10
1.999998048324489
 20
11.01920795440674
 30
15.37955471317834
 70
   192
  0
VERTEX
  5
1049
330
1024
100
AcDbEntity
  8
0
 62
     7
100
AcDbVertex
100
AcDbPolyFaceMeshVertex
 10
1.050756410140898
 20
11.27355670928955
 30
15.37955471317834
 70
   192
  0
VERTEX
  5
104A
330
1024
100
AcDbEntity
  8
0
 62
     7
100
AcDbVertex
100
AcDbPolyFaceMeshVertex
 10
1.999998048324489
 20
11.17024612426757
 30
15.89365383427209
 70
   192
  0
VERTEX
  5
104B
330
1024
100
AcDbEntity
  8
0
 62
     7
100
AcDbVertex
100
AcDbPolyFaceMeshVertex
 10
2.873723939437763
 20
11.40435886383056
 30
15.89365383427209
 70
   192
  0
VERTEX
  5
104C
330
1024
100
AcDbEntity
  8
0
 62
     7
100
AcDbVertex
100
AcDbPolyFaceMeshVertex
 10
0.3558635268401176
 20
11.96844959259033
 30
15.37955471317834
 70
   192
  0
VERTEX
  5
104D
330
1024
100
AcDbEntity
  8
0
 62
     7
100
AcDbVertex
100
AcDbPolyFaceMeshVertex
 10
0.101514771957298
 20
12.91769218444824
 30
15.37955471317834
 70
   192
  0
VERTEX
  5
104E
330
1024
100
AcDbEntity
  8
0
 62
     7
100
AcDbVertex
100
AcDbPolyFaceMeshVertex
 10
0.4866656813811297
 20
12.04396915435791
 30
15.89365383427209
 70
   192
  0
VERTEX
  5
104F
330
1024
100
AcDbEntity
  8
0
 62
     7
100
AcDbVertex
100
AcDbPolyFaceMeshVertex
 10
1.12627597190848
 20
11.40435886383056
 30
15.89365383427209
 70
   192
  0
VERTEX
  5
1050
330
1024
100
AcDbEntity
  8
0
 62
     7
100
AcDbVertex
100
AcDbPolyFaceMeshVertex
 10
0.3558635268401176
 20
13.86693477630615
 30
15.37955471317834
 70
   192
  0
VERTEX
  5
1051
330
1024
100
AcDbEntity
  8
0
 62
     7
100
AcDbVertex
100
AcDbPolyFaceMeshVertex
 10
1.050756410140898
 20
14.56182765960693
 30
15.37955471317834
 70
   192
  0
VERTEX
  5
1052
330
1024
100
AcDbEntity
  8
0
 62
     7
100
AcDbVertex
100
AcDbPolyFaceMeshVertex
 10
0.4866656813811297
 20
13.79141521453857
 30
15.89365383427209
 70
   192
  0
VERTEX
  5
1053
330
1024
100
AcDbEntity
  8
0
 62
     7
100
AcDbVertex
100
AcDbPolyFaceMeshVertex
 10
0.2525519881438285
 20
12.91769218444824
 30
15.89365383427209
 70
   192
  0
VERTEX
  5
1054
330
1024
100
AcDbEntity
  8
0
 62
     7
100
AcDbVertex
100
AcDbPolyFaceMeshVertex
 10
1.999998048324489
 20
14.81617641448974
 30
15.37955471317834
 70
   192
  0
VERTEX
  5
1055
330
1024
100
AcDbEntity
  8
0
 62
     7
100
AcDbVertex
100
AcDbPolyFaceMeshVertex
 10
2.949239686508089
 20
14.56182765960693
 30
15.37955471317834
 70
   192
  0
VERTEX
  5
1056
330
1024
100
AcDbEntity
  8
0
 62
     7
100
AcDbVertex
100
AcDbPolyFaceMeshVertex
 10
1.999998048324489
 20
14.6651382446289
 30
15.89365383427209
 70
   192
  0
VERTEX
  5
1057
330
1024
100
AcDbEntity
  8
0
 62
     7
100
AcDbVertex
100
AcDbPolyFaceMeshVertex
 10
1.12627597190848
 20
14.43102550506592
 30
15.89365383427209
 70
   192
  0
VERTEX
  5
1058
330
1024
100
AcDbEntity
  8
0
 62
     7
100
AcDbVertex
100
AcDbPolyFaceMeshVertex
 10
3.513330415267848
 20
13.79141521453857
 30
15.89365383427209
 70
   192
  0
VERTEX
  5
1059
330
1024
100
AcDbEntity
  8
0
 62
     7
100
AcDbVertex
100
AcDbPolyFaceMeshVertex
 10
3.53362460472098
 20
13.80313205718994
 30
15.88124843876428
 70
   192
  0
VERTEX
  5
105A
330
1024
100
AcDbEntity
  8
0
 62
     7
100
AcDbVertex
100
AcDbPolyFaceMeshVertex
 10
2.873723939437763
 20
14.43102550506592
 30
15.89365383427209
 70
   192
  0
VERTEX
  5
105B
330
1024
100
AcDbEntity
  8
0
 62
     7
100
AcDbVertex
100
AcDbPolyFaceMeshVertex
 10
3.513330415267848
 20
12.04396915435791
 30
15.89365383427209
 70
   192
  0
VERTEX
  5
105C
330
1024
100
AcDbEntity
  8
0
 62
     7
100
AcDbVertex
100
AcDbPolyFaceMeshVertex
 10
3.747446015853785
 20
12.91769218444824
 30
15.89365383427209
 70
   192
  0
VERTEX
  5
105D
330
1024
100
AcDbEntity
  8
0
 62
     7
100
AcDbVertex
100
AcDbPolyFaceMeshVertex
 10
3.903188661117457
 20
12.91769218444824
 30
15.74893947880334
 70
   192
  0
VERTEX
  5
105E
330
1024
100
AcDbEntity
  8
0
 62
     7
100
AcDbVertex
100
AcDbPolyFaceMeshVertex
 10
3.644136384506129
 20
13.86693477630615
 30
15.37955471317834
 70
   192
  0
VERTEX
  5
105F
330
1024
100
AcDbEntity
  8
0
 62
     7
100
AcDbVertex
100
AcDbPolyFaceMeshVertex
 10
3.898485139388949
 20
12.91769218444824
 30
15.37955471317834
 70
   192
  0
VERTEX
  5
1060
330
1024
100
AcDbEntity
  8
0
 62
     7
100
AcDbVertex
100
AcDbPolyFaceMeshVertex
 10
3.690149262924098
 20
11.94188404083252
 30
15.56820484440393
 70
   192
  0
VERTEX
  5
1061
330
1024
100
AcDbEntity
  8
0
 62
     7
100
AcDbVertex
100
AcDbPolyFaceMeshVertex
 10
2.885438874740511
 20
11.38406562805176
 30
15.88124843876428
 70
   192
  0
VERTEX
  5
1062
330
1024
100
AcDbEntity
  8
0
 62
     7
100
AcDbVertex
100
AcDbPolyFaceMeshVertex
 10
3.770879701156527
 20
12.91769218444824
 30
15.88124843876428
 70
   192
  0
VERTEX
  5
1063
330
1024
100
AcDbEntity
  8
0
 62
     7
100
AcDbVertex
100
AcDbPolyFaceMeshVertex
 10
2.885438874740511
 20
14.45131874084473
 30
15.88124843876428
 70
   192
  0
VERTEX
  5
1064
330
1024
100
AcDbEntity
  8
0
 62
     7
100
AcDbVertex
100
AcDbPolyFaceMeshVertex
 10
1.114561036605739
 20
14.45131874084473
 30
15.88124843876428
 70
   192
  0
VERTEX
  5
1065
330
1024
100
AcDbEntity
  8
0
 62
     7
100
AcDbVertex
100
AcDbPolyFaceMeshVertex
 10
0.2291202101897269
 20
12.91769218444824
 30
15.88124843876428
 70
   192
  0
VERTEX
  5
1066
330
1024
100
AcDbEntity
  8
0
 62
     7
100
AcDbVertex
100
AcDbPolyFaceMeshVertex
 10
1.114561036605739
 20
11.38406562805176
 30
15.88124843876428
 70
   192
  0
VERTEX
  5
1067
330
1024
100
AcDbEntity
  8
0
 62
     7
100
AcDbVertex
100
AcDbPolyFaceMeshVertex
 10
1.048404649276637
 20
11.26948261260986
 30
15.38746830265588
 70
   192
  0
VERTEX
  5
1068
330
1024
100
AcDbEntity
  8
0
 62
     7
100
AcDbVertex
100
AcDbPolyFaceMeshVertex
 10
0.0968112502287859
 20
12.91769218444824
 30
15.38746830265588
 70
   192
  0
VERTEX
  5
1069
330
1024
100
AcDbEntity
  8
0
 62
     7
100
AcDbVertex
100
AcDbPolyFaceMeshVertex
 10
1.048404649276637
 20
14.56590175628662
 30
15.38746830265588
 70
   192
  0
VERTEX
  5
106A
330
1024
100
AcDbEntity
  8
0
 62
     7
100
AcDbVertex
100
AcDbPolyFaceMeshVertex
 10
2.95159335472098
 20
14.56590175628662
 30
15.38746830265588
 70
   192
  0
VERTEX
  5
106B
330
1024
100
AcDbEntity
  8
0
 62
     7
100
AcDbVertex
100
AcDbPolyFaceMeshVertex
 10
3.903188661117457
 20
12.91769218444824
 30
15.38746830265588
 70
   192
  0
VERTEX
  5
106C
330
1024
100
AcDbEntity
  8
0
 62
     7
100
AcDbVertex
100
AcDbPolyFaceMeshVertex
 10
2.95159335472098
 20
11.26948261260986
 30
15.38746830265588
 70
   192
  0
VERTEX
  5
106D
330
1024
100
AcDbEntity
  8
0
 62
     7
100
AcDbVertex
100
AcDbPolyFaceMeshVertex
 10
3.442647889633089
 20
12.08477973937988
 30
15.18394085209436
 70
   192
  0
VERTEX
  5
106E
330
1024
100
AcDbEntity
  8
0
 62
     7
100
AcDbVertex
100
AcDbPolyFaceMeshVertex
 10
3.484109834213167
 20
12.06084060668945
 30
15.20864101688928
 70
   192
  0
VERTEX
  5
106F
330
1024
100
AcDbEntity
  8
0
 62
     7
100
AcDbVertex
100
AcDbPolyFaceMeshVertex
 10
2.832910493392848
 20
11.47504425048828
 30
15.18394085209436
 70
   192
  0
VERTEX
  5
1070
330
1024
100
AcDbEntity
  8
0
 62
     7
100
AcDbVertex
100
AcDbPolyFaceMeshVertex
 10
1.999998048324489
 20
11.2518663406372
 30
15.18394085209436
 70
   192
  0
VERTEX
  5
1071
330
1024
100
AcDbEntity
  8
0
 62
     7
100
AcDbVertex
100
AcDbPolyFaceMeshVertex
 10
1.999998048324489
 20
11.20398902893066
 30
15.20864101688928
 70
   192
  0
VERTEX
  5
1072
330
1024
100
AcDbEntity
  8
0
 62
     7
100
AcDbVertex
100
AcDbPolyFaceMeshVertex
 10
1.167085603256129
 20
11.47504425048828
 30
15.18394085209436
 70
   192
  0
VERTEX
  5
1073
330
1024
100
AcDbEntity
  8
0
 62
     7
100
AcDbVertex
100
AcDbPolyFaceMeshVertex
 10
0.5573520217131574
 20
12.08477973937988
 30
15.18394085209436
 70
   192
  0
VERTEX
  5
1074
330
1024
100
AcDbEntity
  8
0
 62
     7
100
AcDbVertex
100
AcDbPolyFaceMeshVertex
 10
0.5158881697844464
 20
12.06084060668945
 30
15.20864101688928
 70
   192
  0
VERTEX
  5
1075
330
1024
100
AcDbEntity
  8
0
 62
     7
100
AcDbVertex
100
AcDbPolyFaceMeshVertex
 10
0.3341731581877667
 20
12.91769218444824
 30
15.18394085209436
 70
   192
  0
VERTEX
  5
1076
330
1024
100
AcDbEntity
  8
0
 62
     7
100
AcDbVertex
100
AcDbPolyFaceMeshVertex
 10
0.5573520217131574
 20
13.75060558319092
 30
15.18394085209436
 70
   192
  0
VERTEX
  5
1077
330
1024
100
AcDbEntity
  8
0
 62
     7
100
AcDbVertex
100
AcDbPolyFaceMeshVertex
 10
0.5158881697844464
 20
13.77454376220703
 30
15.20864101688928
 70
   192
  0
VERTEX
  5
1078
330
1024
100
AcDbEntity
  8
0
 62
     7
100
AcDbVertex
100
AcDbPolyFaceMeshVertex
 10
1.167085603256129
 20
14.3603401184082
 30
15.18394085209436
 70
   192
  0
VERTEX
  5
1079
330
1024
100
AcDbEntity
  8
0
 62
     7
100
AcDbVertex
100
AcDbPolyFaceMeshVertex
 10
1.999998048324489
 20
14.58351802825928
 30
15.18394085209436
 70
   192
  0
VERTEX
  5
107A
330
1024
100
AcDbEntity
  8
0
 62
     7
100
AcDbVertex
100
AcDbPolyFaceMeshVertex
 10
1.999998048324489
 20
14.63139533996582
 30
15.20864101688928
 70
   192
  0
VERTEX
  5
107B
330
1024
100
AcDbEntity
  8
0
 62
     7
100
AcDbVertex
100
AcDbPolyFaceMeshVertex
 10
2.832910493392848
 20
14.3603401184082
 30
15.18394085209436
 70
   192
  0
VERTEX
  5
107C
330
1024
100
AcDbEntity
  8
0
 62
     7
100
AcDbVertex
100
AcDbPolyFaceMeshVertex
 10
3.442647889633089
 20
13.75060558319092
 30
15.18394085209436
 70
   192
  0
VERTEX
  5
107D
330
1024
100
AcDbEntity
  8
0
 62
     7
100
AcDbVertex
100
AcDbPolyFaceMeshVertex
 10
3.484109834213167
 20
13.77454376220703
 30
15.20864101688928
 70
   192
  0
VERTEX
  5
107E
330
1024
100
AcDbEntity
  8
0
 62
     7
100
AcDbVertex
100
AcDbPolyFaceMeshVertex
 10
3.66582675315848
 20
12.91769218444824
 30
15.18394085209436
 70
   192
  0
VERTEX
  5
107F
330
1024
100
AcDbEntity
  8
0
 62
     7
100
AcDbVertex
100
AcDbPolyFaceMeshVertex
 10
1.143148377914339
 20
11.43358135223389
 30
15.20864101688928
 70
   192
  0
VERTEX
  5
1080
330
1024
100
AcDbEntity
  8
0
 62
     7
100
AcDbVertex
100
AcDbPolyFaceMeshVertex
 10
0.2862948928069073
 20
12.91769218444824
 30
15.20864101688928
 70
   192
  0
VERTEX
  5
1081
330
1024
100
AcDbEntity
  8
0
 62
     7
100
AcDbVertex
100
AcDbPolyFaceMeshVertex
 10
1.143148377914339
 20
14.40180301666259
 30
15.20864101688928
 70
   192
  0
VERTEX
  5
1082
330
1024
100
AcDbEntity
  8
0
 62
     7
100
AcDbVertex
100
AcDbPolyFaceMeshVertex
 10
2.856851533431903
 20
14.40180301666259
 30
15.20864101688928
 70
   192
  0
VERTEX
  5
1083
330
1024
100
AcDbEntity
  8
0
 62
     7
100
AcDbVertex
100
AcDbPolyFaceMeshVertex
 10
3.713701203842067
 20
12.91769218444824
 30
15.20864101688928
 70
   192
  0
VERTEX
  5
1084
330
1024
100
AcDbEntity
  8
0
 62
     7
100
AcDbVertex
100
AcDbPolyFaceMeshVertex
 10
2.856851533431903
 20
11.43358135223389
 30
15.20864101688928
 70
   192
  0
VERTEX
  5
1085
330
1024
100
AcDbEntity
  8
0
 62
     7
100
AcDbVertex
100
AcDbPolyFaceMeshVertex
 10
1.999998048324489
 20
11.2518663406372
 30
15.10204120915002
 70
   192
  0
VERTEX
  5
1086
330
1024
100
AcDbEntity
  8
0
 62
     7
100
AcDbVertex
100
AcDbPolyFaceMeshVertex
 10
1.167085603256129
 20
11.47504425048828
 30
15.10204120915002
 70
   192
  0
VERTEX
  5
1087
330
1024
100
AcDbEntity
  8
0
 62
     7
100
AcDbVertex
100
AcDbPolyFaceMeshVertex
 10
3.442647889633089
 20
12.08477973937988
 30
15.10204120915002
 70
   192
  0
VERTEX
  5
1088
330
1024
100
AcDbEntity
  8
0
 62
     7
100
AcDbVertex
100
AcDbPolyFaceMeshVertex
 10
2.832910493392848
 20
11.47504425048828
 30
15.10204120915002
 70
   192
  0
VERTEX
  5
1089
330
1024
100
AcDbEntity
  8
0
 62
     7
100
AcDbVertex
100
AcDbPolyFaceMeshVertex
 10
3.442647889633089
 20
13.75060558319092
 30
15.10204120915002
 70
   192
  0
VERTEX
  5
108A
330
1024
100
AcDbEntity
  8
0
 62
     7
100
AcDbVertex
100
AcDbPolyFaceMeshVertex
 10
3.66582675315848
 20
12.91769218444824
 30
15.10204120915002
 70
   192
  0
VERTEX
  5
108B
330
1024
100
AcDbEntity
  8
0
 62
     7
100
AcDbVertex
100
AcDbPolyFaceMeshVertex
 10
1.999998048324489
 20
14.58351802825928
 30
15.10204120915002
 70
   192
  0
VERTEX
  5
108C
330
1024
100
AcDbEntity
  8
0
 62
     7
100
AcDbVertex
100
AcDbPolyFaceMeshVertex
 10
2.832910493392848
 20
14.3603401184082
 30
15.10204120915002
 70
   192
  0
VERTEX
  5
108D
330
1024
100
AcDbEntity
  8
0
 62
     7
100
AcDbVertex
100
AcDbPolyFaceMeshVertex
 10
0.5573520217131574
 20
13.75060558319092
 30
15.10204120915002
 70
   192
  0
VERTEX
  5
108E
330
1024
100
AcDbEntity
  8
0
 62
     7
100
AcDbVertex
100
AcDbPolyFaceMeshVertex
 10
1.167085603256129
 20
14.3603401184082
 30
15.10204120915002
 70
   192
  0
VERTEX
  5
108F
330
1024
100
AcDbEntity
  8
0
 62
     7
100
AcDbVertex
100
AcDbPolyFaceMeshVertex
 10
0.5573520217131574
 20
12.08477973937988
 30
15.10204120915002
 70
   192
  0
VERTEX
  5
1090
330
1024
100
AcDbEntity
  8
0
 62
     7
100
AcDbVertex
100
AcDbPolyFaceMeshVertex
 10
0.3341731581877667
 20
12.91769218444824
 30
15.10204120915002
 70
   192
  0
VERTEX
  5
1091
330
1024
100
AcDbEntity
  8
0
 62
     7
100
AcDbVertex
100
AcDbPolyFaceMeshVertex
 10
1.999998048324489
 20
11.13961887359619
 30
13.81926533024377
 70
   192
  0
VERTEX
  5
1092
330
1024
100
AcDbEntity
  8
0
 62
     7
100
AcDbVertex
100
AcDbPolyFaceMeshVertex
 10
2.54949374534598
 20
11.10625457763672
 30
13.95950695316858
 70
   192
  0
VERTEX
  5
1093
330
1024
100
AcDbEntity
  8
0
 62
     7
100
AcDbVertex
100
AcDbPolyFaceMeshVertex
 10
1.999998048324489
 20
11.00706672668457
 30
13.99739452641077
 70
   192
  0
VERTEX
  5
1094
330
1024
100
AcDbEntity
  8
0
 62
     7
100
AcDbVertex
100
AcDbPolyFaceMeshVertex
 10
3.074026063461207
 20
11.31029605865478
 30
14.23920246403284
 70
   192
  0
VERTEX
  5
1095
330
1024
100
AcDbEntity
  8
0
 62
     7
100
AcDbVertex
100
AcDbPolyFaceMeshVertex
 10
3.051664308090121
 20
11.34376430511474
 30
13.95950695316858
 70
   192
  0
VERTEX
  5
1096
330
1024
100
AcDbEntity
  8
0
 62
     7
100
AcDbVertex
100
AcDbPolyFaceMeshVertex
 10
3.494382813949489
 20
11.6912841796875
 30
14.23920246403284
 70
   192
  0
VERTEX
  5
1097
330
1024
100
AcDbEntity
  8
0
 62
     7
100
AcDbVertex
100
AcDbPolyFaceMeshVertex
 10
1.999998048324489
 20
11.0473518371582
 30
14.38866039555139
 70
   192
  0
VERTEX
  5
1098
330
1024
100
AcDbEntity
  8
0
 62
     7
100
AcDbVertex
100
AcDbPolyFaceMeshVertex
 10
2.466890290756129
 20
11.37856388092041
 30
14.7129668835885
 70
   192
  0
VERTEX
  5
1099
330
1024
100
AcDbEntity
  8
0
 62
     7
100
AcDbVertex
100
AcDbPolyFaceMeshVertex
 10
1.999998048324489
 20
11.31650257110595
 30
14.72440334599084
 70
   192
  0
VERTEX
  5
109A
330
1024
100
AcDbEntity
  8
0
 62
     7
100
AcDbVertex
100
AcDbPolyFaceMeshVertex
 10
2.857084229965121
 20
11.63497352600098
 30
14.93253513615198
 70
   192
  0
VERTEX
  5
109B
330
1024
100
AcDbEntity
  8
0
 62
     7
100
AcDbVertex
100
AcDbPolyFaceMeshVertex
 10
2.893567994613544
 20
11.5803689956665
 30
14.7129668835885
 70
   192
  0
VERTEX
  5
109C
330
1024
100
AcDbEntity
  8
0
 62
     7
100
AcDbVertex
100
AcDbPolyFaceMeshVertex
 10
3.192533448715121
 20
11.9390058517456
 30
14.93253513615198
 70
   192
  0
VERTEX
  5
109D
330
1024
100
AcDbEntity
  8
0
 62
     7
100
AcDbVertex
100
AcDbPolyFaceMeshVertex
 10
3.463266328353785
 20
11.71681880950927
 30
13.95950695316858
 70
   192
  0
VERTEX
  5
109E
330
1024
100
AcDbEntity
  8
0
 62
     7
100
AcDbVertex
100
AcDbPolyFaceMeshVertex
 10
3.786043122787379
 20
12.17788887023926
 30
14.23920246403284
 70
   192
  0
VERTEX
  5
109F
330
1024
100
AcDbEntity
  8
0
 62
     7
100
AcDbVertex
100
AcDbPolyFaceMeshVertex
 10
2.485559419174098
 20
11.31701469421386
 30
13.74974247257776
 70
   192
  0
VERTEX
  5
10A0
330
1024
100
AcDbEntity
  8
0
 62
     7
100
AcDbVertex
100
AcDbPolyFaceMeshVertex
 10
2.929304078597926
 20
11.52688980102539
 30
13.74974247257776
 70
   192
  0
VERTEX
  5
10A1
330
1024
100
AcDbEntity
  8
0
 62
     7
100
AcDbVertex
100
AcDbPolyFaceMeshVertex
 10
2.791822389144808
 20
11.54621315002441
 30
13.70284267704553
 70
   192
  0
VERTEX
  5
10A2
330
1024
100
AcDbEntity
  8
0
 62
     7
100
AcDbVertex
100
AcDbPolyFaceMeshVertex
 10
3.485952332992457
 20
12.30218982696533
 30
14.7129668835885
 70
   192
  0
VERTEX
  5
10A3
330
1024
100
AcDbEntity
  8
0
 62
     7
100
AcDbVertex
100
AcDbPolyFaceMeshVertex
 10
3.600637391586207
 20
12.76004314422607
 30
14.7129668835885
 70
   192
  0
VERTEX
  5
10A4
330
1024
100
AcDbEntity
  8
0
 62
     7
100
AcDbVertex
100
AcDbPolyFaceMeshVertex
 10
3.243295625228785
 20
11.89734363555908
 30
14.7129668835885
 70
   192
  0
VERTEX
  5
10A5
330
1024
100
AcDbEntity
  8
0
 62
     7
100
AcDbVertex
100
AcDbPolyFaceMeshVertex
 10
3.513067201156513
 20
13.21866035461426
 30
14.93253513615198
 70
   192
  0
VERTEX
  5
10A6
330
1024
100
AcDbEntity
  8
0
 62
     7
100
AcDbVertex
100
AcDbPolyFaceMeshVertex
 10
3.360551789779567
 20
13.64492225646972
 30
14.93253513615198
 70
   192
  0
VERTEX
  5
10A7
330
1024
100
AcDbEntity
  8
0
 62
     7
100
AcDbVertex
100
AcDbPolyFaceMeshVertex
 10
3.577478364486598
 20
13.23147296905517
 30
14.7129668835885
 70
   192
  0
VERTEX
  5
10A8
330
1024
100
AcDbEntity
  8
0
 62
     7
100
AcDbVertex
100
AcDbPolyFaceMeshVertex
 10
3.923887208480739
 20
12.72820568084717
 30
14.23920246403284
 70
   192
  0
VERTEX
  5
10A9
330
1024
100
AcDbEntity
  8
0
 62
     7
100
AcDbVertex
100
AcDbPolyFaceMeshVertex
 10
3.583646729965121
 20
12.91769218444824
 30
13.70284267704553
 70
   192
  0
VERTEX
  5
10AA
330
1024
100
AcDbEntity
  8
0
 62
     7
100
AcDbVertex
100
AcDbPolyFaceMeshVertex
 10
3.545377686996371
 20
12.2775764465332
 30
13.74974247257776
 70
   192
  0
VERTEX
  5
10AB
330
1024
100
AcDbEntity
  8
0
 62
     7
100
AcDbVertex
100
AcDbPolyFaceMeshVertex
 10
3.371477082748317
 20
12.12586879730224
 30
13.70284267704553
 70
   192
  0
VERTEX
  5
10AC
330
1024
100
AcDbEntity
  8
0
 62
     7
100
AcDbVertex
100
AcDbPolyFaceMeshVertex
 10
3.748853639144808
 20
12.19329261779785
 30
13.95950695316858
 70
   192
  0
VERTEX
  5
10AD
330
1024
100
AcDbEntity
  8
0
 62
     7
100
AcDbVertex
100
AcDbPolyFaceMeshVertex
 10
3.883832887191676
 20
12.73215103149414
 30
13.95950695316858
 70
   192
  0
VERTEX
  5
10AE
330
1024
100
AcDbEntity
  8
0
 62
     7
100
AcDbVertex
100
AcDbPolyFaceMeshVertex
 10
3.535283998031527
 20
12.7664794921875
 30
14.93253513615198
 70
   192
  0
VERTEX
  5
10AF
330
1024
100
AcDbEntity
  8
0
 62
     7
100
AcDbVertex
100
AcDbPolyFaceMeshVertex
 10
3.89605136253348
 20
13.2948408126831
 30
14.23920246403284
 70
   192
  0
VERTEX
  5
10B0
330
1024
100
AcDbEntity
  8
0
 62
     7
100
AcDbVertex
100
AcDbPolyFaceMeshVertex
 10
3.090860322494403
 20
14.00855445861816
 30
14.93253513615198
 70
   192
  0
VERTEX
  5
10B1
330
1024
100
AcDbEntity
  8
0
 62
     7
100
AcDbVertex
100
AcDbPolyFaceMeshVertex
 10
3.366975739974879
 20
14.28466987609863
 30
14.23920246403284
 70
   192
  0
VERTEX
  5
10B2
330
1024
100
AcDbEntity
  8
0
 62
     7
100
AcDbVertex
100
AcDbPolyFaceMeshVertex
 10
3.704927400131129
 20
13.82899570465088
 30
14.23920246403284
 70
   192
  0
VERTEX
  5
10B3
330
1024
100
AcDbEntity
  8
0
 62
     7
100
AcDbVertex
100
AcDbPolyFaceMeshVertex
 10
3.66942782737723
 20
13.81002140045166
 30
13.95950695316858
 70
   192
  0
VERTEX
  5
10B4
330
1024
100
AcDbEntity
  8
0
 62
     7
100
AcDbVertex
100
AcDbPolyFaceMeshVertex
 10
3.856573060531513
 20
13.28698825836182
 30
13.95950695316858
 70
   192
  0
VERTEX
  5
10B5
330
1024
100
AcDbEntity
  8
0
 62
     7
100
AcDbVertex
100
AcDbPolyFaceMeshVertex
 10
3.664648011703402
 20
12.75373840332031
 30
13.74974247257776
 70
   192
  0
VERTEX
  5
10B6
330
1024
100
AcDbEntity
  8
0
 62
     7
100
AcDbVertex
100
AcDbPolyFaceMeshVertex
 10
3.418466523666285
 20
13.67587947845459
 30
14.7129668835885
 70
   192
  0
VERTEX
  5
10B7
330
1024
100
AcDbEntity
  8
0
 62
     7
100
AcDbVertex
100
AcDbPolyFaceMeshVertex
 10
2.682325318832294
 20
14.30130958557129
 30
14.93253513615198
 70
   192
  0
VERTEX
  5
10B8
330
1024
100
AcDbEntity
  8
0
 62
     7
100
AcDbVertex
100
AcDbPolyFaceMeshVertex
 10
3.137300447006129
 20
14.05499172210693
 30
14.7129668835885
 70
   192
  0
VERTEX
  5
10B9
330
1024
100
AcDbEntity
  8
0
 62
     7
100
AcDbVertex
100
AcDbPolyFaceMeshVertex
 10
3.338514283676044
 20
14.25620746612549
 30
13.95950695316858
 70
   192
  0
VERTEX
  5
10BA
330
1024
100
AcDbEntity
  8
0
 62
     7
100
AcDbVertex
100
AcDbPolyFaceMeshVertex
 10
2.855031922836207
 20
14.65152549743652
 30
14.23920246403284
 70
   192
  0
VERTEX
  5
10BB
330
1024
100
AcDbEntity
  8
0
 62
     7
100
AcDbVertex
100
AcDbPolyFaceMeshVertex
 10
3.475191072006129
 20
13.70619964599609
 30
13.74974247257776
 70
   192
  0
VERTEX
  5
10BC
330
1024
100
AcDbEntity
  8
0
 62
     7
100
AcDbVertex
100
AcDbPolyFaceMeshVertex
 10
2.837228730697535
 20
14.61542510986328
 30
13.95950695316858
 70
   192
  0
VERTEX
  5
10BD
330
1024
100
AcDbEntity
  8
0
 62
     7
100
AcDbVertex
100
AcDbPolyFaceMeshVertex
 10
2.711370423812763
 20
14.36020851135254
 30
14.7129668835885
 70
   192
  0
VERTEX
  5
10BE
330
1024
100
AcDbEntity
  8
0
 62
     7
100
AcDbVertex
100
AcDbPolyFaceMeshVertex
 10
2.209936097640902
 20
14.51231670379639
 30
14.7129668835885
 70
   192
  0
VERTEX
  5
10BF
330
1024
100
AcDbEntity
  8
0
 62
     7
100
AcDbVertex
100
AcDbPolyFaceMeshVertex
 10
2.201364472885035
 20
14.44720649719238
 30
14.93253513615198
 70
   192
  0
VERTEX
  5
10C0
330
1024
100
AcDbEntity
  8
0
 62
     7
100
AcDbVertex
100
AcDbPolyFaceMeshVertex
 10
3.182779267806903
 20
14.10047245025635
 30
13.74974247257776
 70
   192
  0
VERTEX
  5
10C1
330
1024
100
AcDbEntity
  8
0
 62
     7
100
AcDbVertex
100
AcDbPolyFaceMeshVertex
 10
3.371477082748317
 20
13.70951557159424
 30
13.70284267704553
 70
   192
  0
VERTEX
  5
10C2
330
1024
100
AcDbEntity
  8
0
 62
     7
100
AcDbVertex
100
AcDbPolyFaceMeshVertex
 10
2.739816621322535
 20
14.41789436340332
 30
13.74974247257776
 70
   192
  0
VERTEX
  5
10C3
330
1024
100
AcDbEntity
  8
0
 62
     7
100
AcDbVertex
100
AcDbPolyFaceMeshVertex
 10
2.791822389144808
 20
14.28917121887207
 30
13.70284267704553
 70
   192
  0
VERTEX
  5
10C4
330
1024
100
AcDbEntity
  8
0
 62
     7
100
AcDbVertex
100
AcDbPolyFaceMeshVertex
 10
2.252332643051044
 20
14.83435153961181
 30
14.23920246403284
 70
   192
  0
VERTEX
  5
10C5
330
1024
100
AcDbEntity
  8
0
 62
     7
100
AcDbVertex
100
AcDbPolyFaceMeshVertex
 10
1.686220124740511
 20
14.49517250061035
 30
14.7129668835885
 70
   192
  0
VERTEX
  5
10C6
330
1024
100
AcDbEntity
  8
0
 62
     7
100
AcDbVertex
100
AcDbPolyFaceMeshVertex
 10
0.840125993270778
 20
13.93487358093262
 30
14.93253513615198
 70
   192
  0
VERTEX
  5
10C7
330
1024
100
AcDbEntity
  8
0
 62
     7
100
AcDbVertex
100
AcDbPolyFaceMeshVertex
 10
1.228643373031513
 20
14.2537202835083
 30
14.93253513615198
 70
   192
  0
VERTEX
  5
10C8
330
1024
100
AcDbEntity
  8
0
 62
     7
100
AcDbVertex
100
AcDbPolyFaceMeshVertex
 10
1.195806458969027
 20
14.31059455871582
 30
14.7129668835885
 70
   192
  0
VERTEX
  5
10C9
330
1024
100
AcDbEntity
  8
0
 62
     7
100
AcDbVertex
100
AcDbPolyFaceMeshVertex
 10
1.622850373763949
 20
14.81374454498291
 30
14.23920246403284
 70
   192
  0
VERTEX
  5
10CA
330
1024
100
AcDbEntity
  8
0
 62
     7
100
AcDbVertex
100
AcDbPolyFaceMeshVertex
 10
1.053525880355739
 20
14.55703258514404
 30
13.95950695316858
 70
   192
  0
VERTEX
  5
10CB
330
1024
100
AcDbEntity
  8
0
 62
     7
100
AcDbVertex
100
AcDbPolyFaceMeshVertex
 10
1.630704835433871
 20
14.77426719665527
 30
13.95950695316858
 70
   192
  0
VERTEX
  5
10CC
330
1024
100
AcDbEntity
  8
0
 62
     7
100
AcDbVertex
100
AcDbPolyFaceMeshVertex
 10
1.673669770736598
 20
14.55825519561767
 30
13.74974247257776
 70
   192
  0
VERTEX
  5
10CD
330
1024
100
AcDbEntity
  8
0
 62
     7
100
AcDbVertex
100
AcDbPolyFaceMeshVertex
 10
1.163648561019808
 20
14.36629581451416
 30
13.74974247257776
 70
   192
  0
VERTEX
  5
10CE
330
1024
100
AcDbEntity
  8
0
 62
     7
100
AcDbVertex
100
AcDbPolyFaceMeshVertex
 10
2.247079804916285
 20
14.79444503784179
 30
13.95950695316858
 70
   192
  0
VERTEX
  5
10CF
330
1024
100
AcDbEntity
  8
0
 62
     7
100
AcDbVertex
100
AcDbPolyFaceMeshVertex
 10
1.033399537582312
 20
14.59189128875732
 30
14.23920246403284
 70
   192
  0
VERTEX
  5
10D0
330
1024
100
AcDbEntity
  8
0
 62
     7
100
AcDbVertex
100
AcDbPolyFaceMeshVertex
 10
0.546543077011016
 20
14.19233894348144
 30
14.23920246403284
 70
   192
  0
VERTEX
  5
10D1
330
1024
100
AcDbEntity
  8
0
 62
     7
100
AcDbVertex
100
AcDbPolyFaceMeshVertex
 10
0.5768069777678484
 20
14.16579914093017
 30
13.95950695316858
 70
   192
  0
VERTEX
  5
10D2
330
1024
100
AcDbEntity
  8
0
 62
     7
100
AcDbVertex
100
AcDbPolyFaceMeshVertex
 10
0.2139567885588676
 20
13.65749549865723
 30
14.23920246403284
 70
   192
  0
VERTEX
  5
10D3
330
1024
100
AcDbEntity
  8
0
 62
     7
100
AcDbVertex
100
AcDbPolyFaceMeshVertex
 10
0.5140456710051567
 20
13.53319454193115
 30
14.7129668835885
 70
   192
  0
VERTEX
  5
10D4
330
1024
100
AcDbEntity
  8
0
 62
     7
100
AcDbVertex
100
AcDbPolyFaceMeshVertex
 10
0.3950576338957781
 20
13.0228853225708
 30
14.7129668835885
 70
   192
  0
VERTEX
  5
10D5
330
1024
100
AcDbEntity
  8
0
 62
     7
100
AcDbVertex
100
AcDbPolyFaceMeshVertex
 10
0.7907523665617973
 20
13.97817420959472
 30
14.7129668835885
 70
   192
  0
VERTEX
  5
10D6
330
1024
100
AcDbEntity
  8
0
 62
     7
100
AcDbVertex
100
AcDbPolyFaceMeshVertex
 10
0.4163512740324969
 20
12.91769218444824
 30
13.70284267704553
 70
   192
  0
VERTEX
  5
10D7
330
1024
100
AcDbEntity
  8
0
 62
     7
100
AcDbVertex
100
AcDbPolyFaceMeshVertex
 10
0.4546222243498797
 20
13.55780792236328
 30
13.74974247257776
 70
   192
  0
VERTEX
  5
10D8
330
1024
100
AcDbEntity
  8
0
 62
     7
100
AcDbVertex
100
AcDbPolyFaceMeshVertex
 10
0.6285209212492973
 20
13.70951557159424
 30
13.70284267704553
 70
   192
  0
VERTEX
  5
10D9
330
1024
100
AcDbEntity
  8
0
 62
     7
100
AcDbVertex
100
AcDbPolyFaceMeshVertex
 10
0.1326732192229265
 20
12.41734313964844
 30
14.23920246403284
 70
   192
  0
VERTEX
  5
10DA
330
1024
100
AcDbEntity
  8
0
 62
     7
100
AcDbVertex
100
AcDbPolyFaceMeshVertex
 10
0.0709399733733172
 20
13.04412937164306
 30
14.23920246403284
 70
   192
  0
VERTEX
  5
10DB
330
1024
100
AcDbEntity
  8
0
 62
     7
100
AcDbVertex
100
AcDbPolyFaceMeshVertex
 10
0.1111049208830863
 20
13.04149723052978
 30
13.95950695316858
 70
   192
  0
VERTEX
  5
10DC
330
1024
100
AcDbEntity
  8
0
 62
     7
100
AcDbVertex
100
AcDbPolyFaceMeshVertex
 10
0.2511443648528093
 20
13.64209175109863
 30
13.95950695316858
 70
   192
  0
VERTEX
  5
10DD
330
1024
100
AcDbEntity
  8
0
 62
     7
100
AcDbVertex
100
AcDbPolyFaceMeshVertex
 10
0.4605903182219607
 20
13.01858997344971
 30
14.93253513615198
 70
   192
  0
VERTEX
  5
10DE
330
1024
100
AcDbEntity
  8
0
 62
     7
100
AcDbVertex
100
AcDbPolyFaceMeshVertex
 10
0.5098533187102277
 20
12.51840877532959
 30
14.93253513615198
 70
   192
  0
VERTEX
  5
10DF
330
1024
100
AcDbEntity
  8
0
 62
     7
100
AcDbVertex
100
AcDbPolyFaceMeshVertex
 10
0.7172812972258562
 20
12.06060695648193
 30
14.93253513615198
 70
   192
  0
VERTEX
  5
10E0
330
1024
100
AcDbEntity
  8
0
 62
     7
100
AcDbVertex
100
AcDbPolyFaceMeshVertex
 10
0.4464187178801567
 20
12.50141143798828
 30
14.7129668835885
 70
   192
  0
VERTEX
  5
10E1
330
1024
100
AcDbEntity
  8
0
 62
     7
100
AcDbVertex
100
AcDbPolyFaceMeshVertex
 10
0.1715526137541765
 20
12.42776107788086
 30
13.95950695316858
 70
   192
  0
VERTEX
  5
10E2
330
1024
100
AcDbEntity
  8
0
 62
     7
100
AcDbVertex
100
AcDbPolyFaceMeshVertex
 10
0.3926028762053484
 20
11.84366512298584
 30
14.23920246403284
 70
   192
  0
VERTEX
  5
10E3
330
1024
100
AcDbEntity
  8
0
 62
     7
100
AcDbVertex
100
AcDbPolyFaceMeshVertex
 10
0.3308772597502667
 20
13.02709197998047
 30
13.74974247257776
 70
   192
  0
VERTEX
  5
10E4
330
1024
100
AcDbEntity
  8
0
 62
     7
100
AcDbVertex
100
AcDbPolyFaceMeshVertex
 10
0.4260711226653094
 20
11.86602687835693
 30
13.95950695316858
 70
   192
  0
VERTEX
  5
10E5
330
1024
100
AcDbEntity
  8
0
 62
     7
100
AcDbVertex
100
AcDbPolyFaceMeshVertex
 10
0.6626758132170672
 20
12.02412128448486
 30
14.7129668835885
 70
   192
  0
VERTEX
  5
10E6
330
1024
100
AcDbEntity
  8
0
 62
     7
100
AcDbVertex
100
AcDbPolyFaceMeshVertex
 10
1.020875886459258
 20
11.64167499542235
 30
14.7129668835885
 70
   192
  0
VERTEX
  5
10E7
330
1024
100
AcDbEntity
  8
0
 62
     7
100
AcDbVertex
100
AcDbPolyFaceMeshVertex
 10
1.504110291976839
 20
11.4568510055542
 30
14.93253513615198
 70
   192
  0
VERTEX
  5
10E8
330
1024
100
AcDbEntity
  8
0
 62
     7
100
AcDbVertex
100
AcDbPolyFaceMeshVertex
 10
0.6285209212492973
 20
12.12586879730224
 30
13.70284267704553
 70
   192
  0
VERTEX
  5
10E9
330
1024
100
AcDbEntity
  8
0
 62
     7
100
AcDbVertex
100
AcDbPolyFaceMeshVertex
 10
0.9817218337248796
 20
11.59064674377441
 30
13.74974247257776
 70
   192
  0
VERTEX
  5
10EA
330
1024
100
AcDbEntity
  8
0
 62
     7
100
AcDbVertex
100
AcDbPolyFaceMeshVertex
 10
0.6091975722502668
 20
11.98838806152344
 30
13.74974247257776
 70
   192
  0
VERTEX
  5
10EB
330
1024
100
AcDbEntity
  8
0
 62
     7
100
AcDbVertex
100
AcDbPolyFaceMeshVertex
 10
0.3842906508635622
 20
12.48476505279541
 30
13.74974247257776
 70
   192
  0
VERTEX
  5
10EC
330
1024
100
AcDbEntity
  8
0
 62
     7
100
AcDbVertex
100
AcDbPolyFaceMeshVertex
 10
0.8231429610442191
 20
11.38398265838623
 30
14.23920246403284
 70
   192
  0
VERTEX
  5
10ED
330
1024
100
AcDbEntity
  8
0
 62
     7
100
AcDbVertex
100
AcDbPolyFaceMeshVertex
 10
1.999998048324489
 20
11.33404541015625
 30
13.70284267704553
 70
   192
  0
VERTEX
  5
10EE
330
1024
100
AcDbEntity
  8
0
 62
     7
100
AcDbVertex
100
AcDbPolyFaceMeshVertex
 10
1.462327912826449
 20
11.33375835418701
 30
13.74974247257776
 70
   192
  0
VERTEX
  5
10EF
330
1024
100
AcDbEntity
  8
0
 62
     7
100
AcDbVertex
100
AcDbPolyFaceMeshVertex
 10
0.8476466689299577
 20
11.41591644287109
 30
13.95950695316858
 70
   192
  0
VERTEX
  5
10F0
330
1024
100
AcDbEntity
  8
0
 62
     7
100
AcDbVertex
100
AcDbPolyFaceMeshVertex
 10
1.378591493148707
 20
11.0870885848999
 30
14.23920246403284
 70
   192
  0
VERTEX
  5
10F1
330
1024
100
AcDbEntity
  8
0
 62
     7
100
AcDbVertex
100
AcDbPolyFaceMeshVertex
 10
1.999998048324489
 20
10.9779176712036
 30
14.20243259708948
 70
   192
  0
VERTEX
  5
10F2
330
1024
100
AcDbEntity
  8
0
 62
     7
100
AcDbVertex
100
AcDbPolyFaceMeshVertex
 10
1.060855821151637
 20
11.69377613067627
 30
14.93253513615198
 70
   192
  0
VERTEX
  5
10F3
330
1024
100
AcDbEntity
  8
0
 62
     7
100
AcDbVertex
100
AcDbPolyFaceMeshVertex
 10
1.208173707504176
 20
14.28917121887207
 30
13.70284267704553
 70
   192
  0
VERTEX
  5
10F4
330
1024
100
AcDbEntity
  8
0
 62
     7
100
AcDbVertex
100
AcDbPolyFaceMeshVertex
 10
1.999998048324489
 20
14.50133895874023
 30
13.70284267704553
 70
   192
  0
VERTEX
  5
10F5
330
1024
100
AcDbEntity
  8
0
 62
     7
100
AcDbVertex
100
AcDbPolyFaceMeshVertex
 10
3.640562013168239
 20
13.24402046203613
 30
13.74974247257776
 70
   192
  0
VERTEX
  5
10F6
330
1024
100
AcDbEntity
  8
0
 62
     7
100
AcDbVertex
100
AcDbPolyFaceMeshVertex
 10
0.7423934493254692
 20
14.02058219909668
 30
13.74974247257776
 70
   192
  0
VERTEX
  5
10F7
330
1024
100
AcDbEntity
  8
0
 62
     7
100
AcDbVertex
100
AcDbPolyFaceMeshVertex
 10
2.218332246322535
 20
14.57608604431151
 30
13.74974247257776
 70
   192
  0
VERTEX
  5
10F8
330
1024
100
AcDbEntity
  8
0
 62
     7
100
AcDbVertex
100
AcDbPolyFaceMeshVertex
 10
3.293016389388949
 20
11.85654067993164
 30
13.74974247257776
 70
   192
  0
VERTEX
  5
10F9
330
1024
100
AcDbEntity
  8
0
 62
     7
100
AcDbVertex
100
AcDbPolyFaceMeshVertex
 10
2.561178163070575
 20
11.06773662567138
 30
14.23920246403284
 70
   192
  0
VERTEX
  5
10FA
330
1024
100
AcDbEntity
  8
0
 62
     7
100
AcDbVertex
100
AcDbPolyFaceMeshVertex
 10
2.447824433822535
 20
11.44140815734863
 30
14.93253513615198
 70
   192
  0
VERTEX
  5
10FB
330
1024
100
AcDbEntity
  8
0
 62
     7
100
AcDbVertex
100
AcDbPolyFaceMeshVertex
 10
1.999998048324489
 20
11.3641996383667
 30
14.82620426456995
 70
   192
  0
VERTEX
  5
10FC
330
1024
100
AcDbEntity
  8
0
 62
     7
100
AcDbVertex
100
AcDbPolyFaceMeshVertex
 10
1.999998048324489
 20
11.37656211853027
 30
14.88249584477014
 70
   192
  0
VERTEX
  5
10FD
330
1024
100
AcDbEntity
  8
0
 62
     7
100
AcDbVertex
100
AcDbPolyFaceMeshVertex
 10
1.999998048324489
 20
11.37355899810791
 30
14.93943783085412
 70
   192
  0
VERTEX
  5
10FE
330
1024
100
AcDbEntity
  8
0
 62
     7
100
AcDbVertex
100
AcDbPolyFaceMeshVertex
 10
1.999998048324489
 20
11.31870174407959
 30
15.04178043644495
 70
   192
  0
VERTEX
  5
10FF
330
1024
100
AcDbEntity
  8
0
 62
     7
100
AcDbVertex
100
AcDbPolyFaceMeshVertex
 10
3.425279572982685
 20
12.32732200622558
 30
14.93253513615198
 70
   192
  0
VERTEX
  5
1100
330
1024
100
AcDbEntity
  8
0
 62
     7
100
AcDbVertex
100
AcDbPolyFaceMeshVertex
 10
1.69902987815848
 20
14.43076229095459
 30
14.93253513615198
 70
   192
  0
VERTEX
  5
1101
330
1024
100
AcDbEntity
  8
0
 62
     7
100
AcDbVertex
100
AcDbPolyFaceMeshVertex
 10
0.5747184310149187
 20
13.5080623626709
 30
14.93253513615198
 70
   192
  0
VERTEX
  5
1102
330
1024
100
AcDbEntity
  8
0
 62
     7
100
AcDbVertex
100
AcDbPolyFaceMeshVertex
 10
1.482999757308871
 20
11.39466381072998
 30
14.7129668835885
 70
   192
  0
VERTEX
  5
1103
330
1024
100
AcDbEntity
  8
0
 62
     7
100
AcDbVertex
100
AcDbPolyFaceMeshVertex
 10
1.391530946273707
 20
11.12520313262939
 30
13.95950695316858
 70
   192
  0
VERTEX
  5
1104
330
1024
100
AcDbEntity
  8
0
 62
     7
100
AcDbVertex
100
AcDbPolyFaceMeshVertex
 10
1.208173707504176
 20
11.54621315002441
 30
13.70284267704553
 70
   192
  0
VERTEX
  5
1105
330
1024
100
AcDbEntity
  8
0
 62
     7
100
AcDbVertex
100
AcDbPolyFaceMeshVertex
 10
3.369062379379176
 20
12.12726306915283
 30
13.69814869206018
 70
   192
  0
VERTEX
  5
1106
330
1024
100
AcDbEntity
  8
0
 62
     7
100
AcDbVertex
100
AcDbPolyFaceMeshVertex
 10
2.790430024642848
 20
11.54862785339355
 30
13.69814869206018
 70
   192
  0
VERTEX
  5
1107
330
1024
100
AcDbEntity
  8
0
 62
     7
100
AcDbVertex
100
AcDbPolyFaceMeshVertex
 10
1.999998048324489
 20
14.49855136871338
 30
13.69814869206018
 70
   192
  0
VERTEX
  5
1108
330
1024
100
AcDbEntity
  8
0
 62
     7
100
AcDbVertex
100
AcDbPolyFaceMeshVertex
 10
2.790430024642848
 20
14.28675651550293
 30
13.69814869206018
 70
   192
  0
VERTEX
  5
1109
330
1024
100
AcDbEntity
  8
0
 62
     7
100
AcDbVertex
100
AcDbPolyFaceMeshVertex
 10
0.6309356246184379
 20
13.70812129974365
 30
13.69814869206018
 70
   192
  0
VERTEX
  5
110A
330
1024
100
AcDbEntity
  8
0
 62
     7
100
AcDbVertex
100
AcDbPolyFaceMeshVertex
 10
1.209569886703402
 20
14.28675651550293
 30
13.69814869206018
 70
   192
  0
VERTEX
  5
110B
330
1024
100
AcDbEntity
  8
0
 62
     7
100
AcDbVertex
100
AcDbPolyFaceMeshVertex
 10
0.6309356246184379
 20
12.12726306915283
 30
13.69814869206018
 70
   192
  0
VERTEX
  5
110C
330
1024
100
AcDbEntity
  8
0
 62
     7
100
AcDbVertex
100
AcDbPolyFaceMeshVertex
 10
0.4191398177336687
 20
12.91769218444824
 30
13.69814869206018
 70
   192
  0
VERTEX
  5
110D
330
1024
100
AcDbEntity
  8
0
 62
     7
100
AcDbVertex
100
AcDbPolyFaceMeshVertex
 10
1.209569886703402
 20
11.54862785339355
 30
13.69814869206018
 70
   192
  0
VERTEX
  5
110E
330
1024
100
AcDbEntity
  8
0
 62
     7
100
AcDbVertex
100
AcDbPolyFaceMeshVertex
 10
1.999998048324489
 20
11.3368330001831
 30
13.69814869206018
 70
   192
  0
VERTEX
  5
110F
330
1024
100
AcDbEntity
  8
0
 62
     7
100
AcDbVertex
100
AcDbPolyFaceMeshVertex
 10
3.369062379379176
 20
13.70812129974365
 30
13.69814869206018
 70
   192
  0
VERTEX
  5
1110
330
1024
100
AcDbEntity
  8
0
 62
     7
100
AcDbVertex
100
AcDbPolyFaceMeshVertex
 10
3.580858186263949
 20
12.91769218444824
 30
13.69814869206018
 70
   192
  0
VERTEX
  5
1111
330
1024
100
AcDbEntity
  8
0
 62
     7
100
AcDbVertex
100
AcDbPolyFaceMeshVertex
 10
2.789785340804957
 20
14.28564167022705
 30
13.48139187138147
 70
   192
  0
VERTEX
  5
1112
330
1024
100
AcDbEntity
  8
0
 62
     7
100
AcDbVertex
100
AcDbPolyFaceMeshVertex
 10
1.999998048324489
 20
14.49726486206055
 30
13.48139187138147
 70
   192
  0
VERTEX
  5
1113
330
1024
100
AcDbEntity
  8
0
 62
     7
100
AcDbVertex
100
AcDbPolyFaceMeshVertex
 10
1.999998048324489
 20
14.46920871734619
 30
13.58864017765588
 70
   192
  0
VERTEX
  5
1114
330
1024
100
AcDbEntity
  8
0
 62
     7
100
AcDbVertex
100
AcDbPolyFaceMeshVertex
 10
1.210214570541285
 20
14.28564167022705
 30
13.48139187138147
 70
   192
  0
VERTEX
  5
1115
330
1024
100
AcDbEntity
  8
0
 62
     7
100
AcDbVertex
100
AcDbPolyFaceMeshVertex
 10
0.6320495162199969
 20
13.70747852325439
 30
13.48139187138147
 70
   192
  0
VERTEX
  5
1116
330
1024
100
AcDbEntity
  8
0
 62
     7
100
AcDbVertex
100
AcDbPolyFaceMeshVertex
 10
0.6563472304533989
 20
13.69344997406006
 30
13.58864017765588
 70
   192
  0
VERTEX
  5
1117
330
1024
100
AcDbEntity
  8
0
 62
     7
100
AcDbVertex
100
AcDbPolyFaceMeshVertex
 10
0.4204272780608172
 20
12.91769218444824
 30
13.48139187138147
 70
   192
  0
VERTEX
  5
1118
330
1024
100
AcDbEntity
  8
0
 62
     7
100
AcDbVertex
100
AcDbPolyFaceMeshVertex
 10
0.6320495162199969
 20
12.12790584564209
 30
13.48139187138147
 70
   192
  0
VERTEX
  5
1119
330
1024
100
AcDbEntity
  8
0
 62
     7
100
AcDbVertex
100
AcDbPolyFaceMeshVertex
 10
0.6563472304533989
 20
12.14193439483642
 30
13.58864017765588
 70
   192
  0
VERTEX
  5
111A
330
1024
100
AcDbEntity
  8
0
 62
     7
100
AcDbVertex
100
AcDbPolyFaceMeshVertex
 10
1.210214570541285
 20
11.54974269866943
 30
13.48139187138147
 70
   192
  0
VERTEX
  5
111B
330
1024
100
AcDbEntity
  8
0
 62
     7
100
AcDbVertex
100
AcDbPolyFaceMeshVertex
 10
1.999998048324489
 20
11.33772182464599
 30
13.48108097355432
 70
   192
  0
VERTEX
  5
111C
330
1024
100
AcDbEntity
  8
0
 62
     7
100
AcDbVertex
100
AcDbPolyFaceMeshVertex
 10
1.999998048324489
 20
11.36617565155028
 30
13.58864017765588
 70
   192
  0
VERTEX
  5
111D
330
1024
100
AcDbEntity
  8
0
 62
     7
100
AcDbVertex
100
AcDbPolyFaceMeshVertex
 10
2.789785340804957
 20
11.54974269866943
 30
13.48139187138147
 70
   192
  0
VERTEX
  5
111E
330
1024
100
AcDbEntity
  8
0
 62
     7
100
AcDbVertex
100
AcDbPolyFaceMeshVertex
 10
3.367948487777621
 20
12.12790584564209
 30
13.48139187138147
 70
   192
  0
VERTEX
  5
111F
330
1024
100
AcDbEntity
  8
0
 62
     7
100
AcDbVertex
100
AcDbPolyFaceMeshVertex
 10
3.343652680892848
 20
12.14193439483642
 30
13.58864017765588
 70
   192
  0
VERTEX
  5
1120
330
1024
100
AcDbEntity
  8
0
 62
     7
100
AcDbVertex
100
AcDbPolyFaceMeshVertex
 10
3.367948487777621
 20
13.70747852325439
 30
13.48139187138147
 70
   192
  0
VERTEX
  5
1121
330
1024
100
AcDbEntity
  8
0
 62
     7
100
AcDbVertex
100
AcDbPolyFaceMeshVertex
 10
3.343652680892848
 20
13.69344997406006
 30
13.58864017765588
 70
   192
  0
VERTEX
  5
1122
330
1024
100
AcDbEntity
  8
0
 62
     7
100
AcDbVertex
100
AcDbPolyFaceMeshVertex
 10
3.579572633285426
 20
12.91769218444824
 30
13.48139187138147
 70
   192
  0
VERTEX
  5
1123
330
1024
100
AcDbEntity
  8
0
 62
     7
100
AcDbVertex
100
AcDbPolyFaceMeshVertex
 10
1.224241212386989
 20
11.57403945922851
 30
13.58864017765588
 70
   192
  0
VERTEX
  5
1124
330
1024
100
AcDbEntity
  8
0
 62
     7
100
AcDbVertex
100
AcDbPolyFaceMeshVertex
 10
0.4484824691008562
 20
12.91769218444824
 30
13.58864017765588
 70
   192
  0
VERTEX
  5
1125
330
1024
100
AcDbEntity
  8
0
 62
     7
100
AcDbVertex
100
AcDbPolyFaceMeshVertex
 10
1.224241212386989
 20
14.26134490966797
 30
13.58864017765588
 70
   192
  0
VERTEX
  5
1126
330
1024
100
AcDbEntity
  8
0
 62
     7
100
AcDbVertex
100
AcDbPolyFaceMeshVertex
 10
2.775758698959261
 20
14.26134490966797
 30
13.58864017765588
 70
   192
  0
VERTEX
  5
1127
330
1024
100
AcDbEntity
  8
0
 62
     7
100
AcDbVertex
100
AcDbPolyFaceMeshVertex
 10
3.551515534896761
 20
12.91769218444824
 30
13.58864017765588
 70
   192
  0
VERTEX
  5
1128
330
1024
100
AcDbEntity
  8
0
 62
     7
100
AcDbVertex
100
AcDbPolyFaceMeshVertex
 10
2.775758698959261
 20
11.57403945922851
 30
13.58864017765588
 70
   192
  0
VERTEX
  5
1129
330
1024
100
AcDbEntity
  8
0
 62
     7
100
AcDbVertex
100
AcDbPolyFaceMeshVertex
 10
3.449136689681903
 20
11.72841644287109
 30
13.06459232609338
 70
   192
  0
VERTEX
  5
112A
330
1024
100
AcDbEntity
  8
0
 62
     7
100
AcDbVertex
100
AcDbPolyFaceMeshVertex
 10
3.041509583969027
 20
11.35896396636963
 30
13.06459232609338
 70
   192
  0
VERTEX
  5
112B
330
1024
100
AcDbEntity
  8
0
 62
     7
100
AcDbVertex
100
AcDbPolyFaceMeshVertex
 10
3.06279940940848
 20
11.32709693908691
 30
12.67304798405237
 70
   192
  0
VERTEX
  5
112C
330
1024
100
AcDbEntity
  8
0
 62
     7
100
AcDbVertex
100
AcDbPolyFaceMeshVertex
 10
2.555311158676058
 20
11.08707237243652
 30
12.67304798405237
 70
   192
  0
VERTEX
  5
112D
330
1024
100
AcDbEntity
  8
0
 62
     7
100
AcDbVertex
100
AcDbPolyFaceMeshVertex
 10
2.543260530013949
 20
11.12680530548096
 30
11.90766617100305
 70
   192
  0
VERTEX
  5
112E
330
1024
100
AcDbEntity
  8
0
 62
     7
100
AcDbVertex
100
AcDbPolyFaceMeshVertex
 10
1.999998048324489
 20
11.53277206420898
 30
7.069095576215451
 70
   192
  0
VERTEX
  5
112F
330
1024
100
AcDbEntity
  8
0
 62
     7
100
AcDbVertex
100
AcDbPolyFaceMeshVertex
 10
2.384118989486598
 20
11.65142250061035
 30
7.168889964032841
 70
   192
  0
VERTEX
  5
1130
330
1024
100
AcDbEntity
  8
0
 62
     7
100
AcDbVertex
100
AcDbPolyFaceMeshVertex
 10
1.999998048324489
 20
11.64750576019287
 30
7.32388302128381
 70
   192
  0
VERTEX
  5
1131
330
1024
100
AcDbEntity
  8
0
 62
     7
100
AcDbVertex
100
AcDbPolyFaceMeshVertex
 10
2.692201570053011
 20
11.88173770904541
 30
7.43415066044397
 70
   192
  0
VERTEX
  5
1132
330
1024
100
AcDbEntity
  8
0
 62
     7
100
AcDbVertex
100
AcDbPolyFaceMeshVertex
 10
2.735155061263949
 20
11.81745147705078
 30
7.168889964032841
 70
   192
  0
VERTEX
  5
1133
330
1024
100
AcDbEntity
  8
0
 62
     7
100
AcDbVertex
100
AcDbPolyFaceMeshVertex
 10
2.963117555160426
 20
12.12728214263916
 30
7.43415066044397
 70
   192
  0
VERTEX
  5
1134
330
1024
100
AcDbEntity
  8
0
 62
     7
100
AcDbVertex
100
AcDbPolyFaceMeshVertex
 10
2.475004151840121
 20
11.35180950164795
 30
10.43882080357141
 70
   192
  0
VERTEX
  5
1135
330
1024
100
AcDbEntity
  8
0
 62
     7
100
AcDbVertex
100
AcDbPolyFaceMeshVertex
 10
1.999998048324489
 20
11.68827056884765
 30
7.77102752964563
 70
   192
  0
VERTEX
  5
1136
330
1024
100
AcDbEntity
  8
0
 62
     7
100
AcDbVertex
100
AcDbPolyFaceMeshVertex
 10
2.909101441879176
 20
11.55712223052978
 30
10.43882080357141
 70
   192
  0
VERTEX
  5
1137
330
1024
100
AcDbEntity
  8
0
 62
     7
100
AcDbVertex
100
AcDbPolyFaceMeshVertex
 10
1.999998048324489
 20
11.04967880249023
 30
11.8753375653512
 70
   192
  0
VERTEX
  5
1138
330
1024
100
AcDbEntity
  8
0
 62
     7
100
AcDbVertex
100
AcDbPolyFaceMeshVertex
 10
1.999998048324489
 20
11.00547885894775
 30
12.7191810254342
 70
   192
  0
VERTEX
  5
1139
330
1024
100
AcDbEntity
  8
0
 62
     7
100
AcDbVertex
100
AcDbPolyFaceMeshVertex
 10
3.039731935043239
 20
11.36162090301513
 30
11.90766617100305
 70
   192
  0
VERTEX
  5
113A
330
1024
100
AcDbEntity
  8
0
 62
     7
100
AcDbVertex
100
AcDbPolyFaceMeshVertex
 10
3.446664765853785
 20
11.73044300079346
 30
11.90766617100305
 70
   192
  0
VERTEX
  5
113B
330
1024
100
AcDbEntity
  8
0
 62
     7
100
AcDbVertex
100
AcDbPolyFaceMeshVertex
 10
1.999998048324489
 20
11.06589031219482
 30
13.14817997257776
 70
   192
  0
VERTEX
  5
113C
330
1024
100
AcDbEntity
  8
0
 62
     7
100
AcDbVertex
100
AcDbPolyFaceMeshVertex
 10
2.524270967025653
 20
11.18939971923828
 30
13.24803730290002
 70
   192
  0
VERTEX
  5
113D
330
1024
100
AcDbEntity
  8
0
 62
     7
100
AcDbVertex
100
AcDbPolyFaceMeshVertex
 10
1.999998048324489
 20
11.17521953582763
 30
13.33346554081506
 70
   192
  0
VERTEX
  5
113E
330
1024
100
AcDbEntity
  8
0
 62
     7
100
AcDbVertex
100
AcDbPolyFaceMeshVertex
 10
2.932069734115511
 20
11.5227518081665
 30
13.39909359257288
 70
   192
  0
VERTEX
  5
113F
330
1024
100
AcDbEntity
  8
0
 62
     7
100
AcDbVertex
100
AcDbPolyFaceMeshVertex
 10
3.003393128890902
 20
11.41600704193115
 30
13.24803730290002
 70
   192
  0
VERTEX
  5
1140
330
1024
100
AcDbEntity
  8
0
 62
     7
100
AcDbVertex
100
AcDbPolyFaceMeshVertex
 10
3.296865418929957
 20
11.85338306427002
 30
13.39909359257288
 70
   192
  0
VERTEX
  5
1141
330
1024
100
AcDbEntity
  8
0
 62
     7
100
AcDbVertex
100
AcDbPolyFaceMeshVertex
 10
3.797365144271761
 20
12.74066734313965
 30
13.24803730290002
 70
   192
  0
VERTEX
  5
1142
330
1024
100
AcDbEntity
  8
0
 62
     7
100
AcDbVertex
100
AcDbPolyFaceMeshVertex
 10
3.668580964584261
 20
12.22654247283935
 30
13.24803730290002
 70
   192
  0
VERTEX
  5
1143
330
1024
100
AcDbEntity
  8
0
 62
     7
100
AcDbVertex
100
AcDbPolyFaceMeshVertex
 10
3.731965974349879
 20
12.20028877258301
 30
13.06459232609338
 70
   192
  0
VERTEX
  5
1144
330
1024
100
AcDbEntity
  8
0
 62
     7
100
AcDbVertex
100
AcDbPolyFaceMeshVertex
 10
3.478761628646761
 20
11.70410251617431
 30
12.67304798405237
 70
   192
  0
VERTEX
  5
1145
330
1024
100
AcDbEntity
  8
0
 62
     7
100
AcDbVertex
100
AcDbPolyFaceMeshVertex
 10
3.264909699935817
 20
11.87960720062256
 30
10.43882080357141
 70
   192
  0
VERTEX
  5
1146
330
1024
100
AcDbEntity
  8
0
 62
     7
100
AcDbVertex
100
AcDbPolyFaceMeshVertex
 10
3.729013398666285
 20
12.20151138305664
 30
11.90766617100305
 70
   192
  0
VERTEX
  5
1147
330
1024
100
AcDbEntity
  8
0
 62
     7
100
AcDbVertex
100
AcDbPolyFaceMeshVertex
 10
2.453573182601839
 20
11.42246055603027
 30
6.91506954472131
 70
   192
  0
VERTEX
  5
1148
330
1024
100
AcDbEntity
  8
0
 62
     7
100
AcDbVertex
100
AcDbPolyFaceMeshVertex
 10
2.868085816879176
 20
11.61851024627685
 30
6.91506954472131
 70
   192
  0
VERTEX
  5
1149
330
1024
100
AcDbEntity
  8
0
 62
     7
100
AcDbVertex
100
AcDbPolyFaceMeshVertex
 10
2.798166230697535
 20
11.53522872924805
 30
6.892322504926388
 70
   192
  0
VERTEX
  5
114A
330
1024
100
AcDbEntity
  8
0
 62
     7
100
AcDbVertex
100
AcDbPolyFaceMeshVertex
 10
3.02288241722098
 20
12.07823276519775
 30
7.168889964032841
 70
   192
  0
VERTEX
  5
114B
330
1024
100
AcDbEntity
  8
0
 62
     7
100
AcDbVertex
100
AcDbPolyFaceMeshVertex
 10
3.151090577621371
 20
12.4408950805664
 30
7.43415066044397
 70
   192
  0
VERTEX
  5
114C
330
1024
100
AcDbEntity
  8
0
 62
     7
100
AcDbVertex
100
AcDbPolyFaceMeshVertex
 10
3.511781648178011
 20
12.29149055480957
 30
10.43882080357141
 70
   192
  0
VERTEX
  5
114D
330
1024
100
AcDbEntity
  8
0
 62
     7
100
AcDbVertex
100
AcDbPolyFaceMeshVertex
 10
3.628461793441676
 20
12.75730228424072
 30
10.43882080357141
 70
   192
  0
VERTEX
  5
114E
330
1024
100
AcDbEntity
  8
0
 62
     7
100
AcDbVertex
100
AcDbPolyFaceMeshVertex
 10
3.767373994369417
 20
12.18562126159668
 30
12.67304798405237
 70
   192
  0
VERTEX
  5
114F
330
1024
100
AcDbEntity
  8
0
 62
     7
100
AcDbVertex
100
AcDbPolyFaceMeshVertex
 10
3.903779939193629
 20
12.73018646240234
 30
12.67304798405237
 70
   192
  0
VERTEX
  5
1150
330
1024
100
AcDbEntity
  8
0
 62
     7
100
AcDbVertex
100
AcDbPolyFaceMeshVertex
 10
3.396104768295199
 20
11.77193927764892
 30
13.24803730290002
 70
   192
  0
VERTEX
  5
1151
330
1024
100
AcDbEntity
  8
0
 62
     7
100
AcDbVertex
100
AcDbPolyFaceMeshVertex
 10
3.645444825668239
 20
13.24499130249023
 30
13.39909359257288
 70
   192
  0
VERTEX
  5
1152
330
1024
100
AcDbEntity
  8
0
 62
     7
100
AcDbVertex
100
AcDbPolyFaceMeshVertex
 10
3.479581788558871
 20
13.70854568481445
 30
13.39909359257288
 70
   192
  0
VERTEX
  5
1153
330
1024
100
AcDbEntity
  8
0
 62
     7
100
AcDbVertex
100
AcDbPolyFaceMeshVertex
 10
3.77135653831473
 20
13.27003765106201
 30
13.24803730290002
 70
   192
  0
VERTEX
  5
1154
330
1024
100
AcDbEntity
  8
0
 62
     7
100
AcDbVertex
100
AcDbPolyFaceMeshVertex
 10
3.865636781234652
 20
12.73394298553467
 30
13.06459232609338
 70
   192
  0
VERTEX
  5
1155
330
1024
100
AcDbEntity
  8
0
 62
     7
100
AcDbVertex
100
AcDbPolyFaceMeshVertex
 10
3.862459138412379
 20
12.73425579071045
 30
11.90766617100305
 70
   192
  0
VERTEX
  5
1156
330
1024
100
AcDbEntity
  8
0
 62
     7
100
AcDbVertex
100
AcDbPolyFaceMeshVertex
 10
3.876234010238544
 20
13.29089832305908
 30
12.67304798405237
 70
   192
  0
VERTEX
  5
1157
330
1024
100
AcDbEntity
  8
0
 62
     7
100
AcDbVertex
100
AcDbPolyFaceMeshVertex
 10
3.239931062240511
 20
12.79556941986084
 30
7.43415066044397
 70
   192
  0
VERTEX
  5
1158
330
1024
100
AcDbEntity
  8
0
 62
     7
100
AcDbVertex
100
AcDbPolyFaceMeshVertex
 10
3.604902223129176
 20
13.2369270324707
 30
10.43882080357141
 70
   192
  0
VERTEX
  5
1159
330
1024
100
AcDbEntity
  8
0
 62
     7
100
AcDbVertex
100
AcDbPolyFaceMeshVertex
 10
3.596330598373317
 20
12.91769218444824
 30
6.892322504926388
 70
   192
  0
VERTEX
  5
115A
330
1024
100
AcDbEntity
  8
0
 62
     7
100
AcDbVertex
100
AcDbPolyFaceMeshVertex
 10
3.443574861068629
 20
12.31974411010742
 30
6.91506954472131
 70
   192
  0
VERTEX
  5
115B
330
1024
100
AcDbEntity
  8
0
 62
     7
100
AcDbVertex
100
AcDbPolyFaceMeshVertex
 10
3.382463410873317
 20
12.11952590942383
 30
6.892322504926388
 70
   192
  0
VERTEX
  5
115C
330
1024
100
AcDbEntity
  8
0
 62
     7
100
AcDbVertex
100
AcDbPolyFaceMeshVertex
 10
3.222520783920199
 20
12.4113073348999
 30
7.168889964032841
 70
   192
  0
VERTEX
  5
115D
330
1024
100
AcDbEntity
  8
0
 62
     7
100
AcDbVertex
100
AcDbPolyFaceMeshVertex
 10
3.316873506088167
 20
12.78799152374267
 30
7.168889964032841
 70
   192
  0
VERTEX
  5
115E
330
1024
100
AcDbEntity
  8
0
 62
     7
100
AcDbVertex
100
AcDbPolyFaceMeshVertex
 10
3.221990541000263
 20
13.1607608795166
 30
7.43415066044397
 70
   192
  0
VERTEX
  5
115F
330
1024
100
AcDbEntity
  8
0
 62
     7
100
AcDbVertex
100
AcDbPolyFaceMeshVertex
 10
3.835512116928011
 20
13.28279781341553
 30
11.90766617100305
 70
   192
  0
VERTEX
  5
1160
330
1024
100
AcDbEntity
  8
0
 62
     7
100
AcDbVertex
100
AcDbPolyFaceMeshVertex
 10
3.650487855453402
 20
13.79989814758301
 30
11.90766617100305
 70
   192
  0
VERTEX
  5
1161
330
1024
100
AcDbEntity
  8
0
 62
     7
100
AcDbVertex
100
AcDbPolyFaceMeshVertex
 10
3.669603303451449
 20
12.75325107574463
 30
13.39909359257288
 70
   192
  0
VERTEX
  5
1162
330
1024
100
AcDbEntity
  8
0
 62
     7
100
AcDbVertex
100
AcDbPolyFaceMeshVertex
 10
3.838643983383075
 20
13.28342151641846
 30
13.06459232609338
 70
   192
  0
VERTEX
  5
1163
330
1024
100
AcDbEntity
  8
0
 62
     7
100
AcDbVertex
100
AcDbPolyFaceMeshVertex
 10
3.653306916732685
 20
13.80140399932861
 30
13.06459232609338
 70
   192
  0
VERTEX
  5
1164
330
1024
100
AcDbEntity
  8
0
 62
     7
100
AcDbVertex
100
AcDbPolyFaceMeshVertex
 10
3.186300233383089
 20
14.10399150848389
 30
13.39909359257288
 70
   192
  0
VERTEX
  5
1165
330
1024
100
AcDbEntity
  8
0
 62
     7
100
AcDbVertex
100
AcDbPolyFaceMeshVertex
 10
2.881006196517848
 20
13.79869842529297
 30
7.43415066044397
 70
   192
  0
VERTEX
  5
1166
330
1024
100
AcDbEntity
  8
0
 62
     7
100
AcDbVertex
100
AcDbPolyFaceMeshVertex
 10
3.098813966293239
 20
13.50502014160156
 30
7.43415066044397
 70
   192
  0
VERTEX
  5
1167
330
1024
100
AcDbEntity
  8
0
 62
     7
100
AcDbVertex
100
AcDbPolyFaceMeshVertex
 10
3.166997865219013
 20
13.54146671295166
 30
7.168889964032841
 70
   192
  0
VERTEX
  5
1168
330
1024
100
AcDbEntity
  8
0
 62
     7
100
AcDbVertex
100
AcDbPolyFaceMeshVertex
 10
3.297822907943629
 20
13.1758451461792
 30
7.168889964032841
 70
   192
  0
VERTEX
  5
1169
330
1024
100
AcDbEntity
  8
0
 62
     7
100
AcDbVertex
100
AcDbPolyFaceMeshVertex
 10
3.55498690940848
 20
12.76453876495361
 30
6.91506954472131
 70
   192
  0
VERTEX
  5
116A
330
1024
100
AcDbEntity
  8
0
 62
     7
100
AcDbVertex
100
AcDbPolyFaceMeshVertex
 10
3.443124726791285
 20
13.68905925750732
 30
10.43882080357141
 70
   192
  0
VERTEX
  5
116B
330
1024
100
AcDbEntity
  8
0
 62
     7
100
AcDbVertex
100
AcDbPolyFaceMeshVertex
 10
3.323327973861598
 20
14.24102210998535
 30
11.90766617100305
 70
   192
  0
VERTEX
  5
116C
330
1024
100
AcDbEntity
  8
0
 62
     7
100
AcDbVertex
100
AcDbPolyFaceMeshVertex
 10
3.687108949203402
 20
13.81947040557861
 30
12.67304798405237
 70
   192
  0
VERTEX
  5
116D
330
1024
100
AcDbEntity
  8
0
 62
     7
100
AcDbVertex
100
AcDbPolyFaceMeshVertex
 10
3.325590089340121
 20
14.24328136444092
 30
13.06459232609338
 70
   192
  0
VERTEX
  5
116E
330
1024
100
AcDbEntity
  8
0
 62
     7
100
AcDbVertex
100
AcDbPolyFaceMeshVertex
 10
3.592802003402621
 20
13.76906394958496
 30
13.24803730290002
 70
   192
  0
VERTEX
  5
116F
330
1024
100
AcDbEntity
  8
0
 62
     7
100
AcDbVertex
100
AcDbPolyFaceMeshVertex
 10
2.742017701644808
 20
14.42235851287842
 30
13.39909359257288
 70
   192
  0
VERTEX
  5
1170
330
1024
100
AcDbEntity
  8
0
 62
     7
100
AcDbVertex
100
AcDbPolyFaceMeshVertex
 10
3.277078584213153
 20
14.19476985931396
 30
13.24803730290002
 70
   192
  0
VERTEX
  5
1171
330
1024
100
AcDbEntity
  8
0
 62
     7
100
AcDbVertex
100
AcDbPolyFaceMeshVertex
 10
3.352689698715121
 20
14.27038288116455
 30
12.67304798405237
 70
   192
  0
VERTEX
  5
1172
330
1024
100
AcDbEntity
  8
0
 62
     7
100
AcDbVertex
100
AcDbPolyFaceMeshVertex
 10
2.829141572494403
 20
14.59902954101562
 30
13.06459232609338
 70
   192
  0
VERTEX
  5
1173
330
1024
100
AcDbEntity
  8
0
 62
     7
100
AcDbVertex
100
AcDbPolyFaceMeshVertex
 10
3.157068208236598
 20
14.07476139068603
 30
10.43882080357141
 70
   192
  0
VERTEX
  5
1174
330
1024
100
AcDbEntity
  8
0
 62
     7
100
AcDbVertex
100
AcDbPolyFaceMeshVertex
 10
2.827730134506129
 20
14.59616374969482
 30
11.90766617100305
 70
   192
  0
VERTEX
  5
1175
330
1024
100
AcDbEntity
  8
0
 62
     7
100
AcDbVertex
100
AcDbPolyFaceMeshVertex
 10
2.935678437728785
 20
13.85336971282959
 30
7.168889964032841
 70
   192
  0
VERTEX
  5
1176
330
1024
100
AcDbEntity
  8
0
 62
     7
100
AcDbVertex
100
AcDbPolyFaceMeshVertex
 10
2.551061585922152
 20
14.03513431549072
 30
7.43415066044397
 70
   192
  0
VERTEX
  5
1177
330
1024
100
AcDbEntity
  8
0
 62
     7
100
AcDbVertex
100
AcDbPolyFaceMeshVertex
 10
3.378011659164339
 20
13.65425586700439
 30
6.91506954472131
 70
   192
  0
VERTEX
  5
1178
330
1024
100
AcDbEntity
  8
0
 62
     7
100
AcDbVertex
100
AcDbPolyFaceMeshVertex
 10
2.585256532211207
 20
14.10447692871094
 30
7.168889964032841
 70
   192
  0
VERTEX
  5
1179
330
1024
100
AcDbEntity
  8
0
 62
     7
100
AcDbVertex
100
AcDbPolyFaceMeshVertex
 10
2.723733857650653
 20
14.38528347015381
 30
10.43882080357141
 70
   192
  0
VERTEX
  5
117A
330
1024
100
AcDbEntity
  8
0
 62
     7
100
AcDbVertex
100
AcDbPolyFaceMeshVertex
 10
2.213582948226825
 20
14.54003620147705
 30
10.43882080357141
 70
   192
  0
VERTEX
  5
117B
330
1024
100
AcDbEntity
  8
0
 62
     7
100
AcDbVertex
100
AcDbPolyFaceMeshVertex
 10
2.846094087142848
 20
14.63340377807617
 30
12.67304798405237
 70
   192
  0
VERTEX
  5
117C
330
1024
100
AcDbEntity
  8
0
 62
     7
100
AcDbVertex
100
AcDbPolyFaceMeshVertex
 10
2.249696687240511
 20
14.8143196105957
 30
12.67304798405237
 70
   192
  0
VERTEX
  5
117D
330
1024
100
AcDbEntity
  8
0
 62
     7
100
AcDbVertex
100
AcDbPolyFaceMeshVertex
 10
2.798799470443629
 20
14.53749942779541
 30
13.24803730290002
 70
   192
  0
VERTEX
  5
117E
330
1024
100
AcDbEntity
  8
0
 62
     7
100
AcDbVertex
100
AcDbPolyFaceMeshVertex
 10
2.235738709945589
 20
14.70830249786377
 30
13.24803730290002
 70
   192
  0
VERTEX
  5
117F
330
1024
100
AcDbEntity
  8
0
 62
     7
100
AcDbVertex
100
AcDbPolyFaceMeshVertex
 10
2.218980744857685
 20
14.58102035522461
 30
13.39909359257288
 70
   192
  0
VERTEX
  5
1180
330
1024
100
AcDbEntity
  8
0
 62
     7
100
AcDbVertex
100
AcDbPolyFaceMeshVertex
 10
3.104864076156513
 20
14.02255630493164
 30
6.91506954472131
 70
   192
  0
VERTEX
  5
1181
330
1024
100
AcDbEntity
  8
0
 62
     7
100
AcDbVertex
100
AcDbPolyFaceMeshVertex
 10
3.382463410873317
 20
13.71585845947265
 30
6.892322504926388
 70
   192
  0
VERTEX
  5
1182
330
1024
100
AcDbEntity
  8
0
 62
     7
100
AcDbVertex
100
AcDbPolyFaceMeshVertex
 10
2.691080049056903
 20
14.31906795501709
 30
6.91506954472131
 70
   192
  0
VERTEX
  5
1183
330
1024
100
AcDbEntity
  8
0
 62
     7
100
AcDbVertex
100
AcDbPolyFaceMeshVertex
 10
2.798166230697535
 20
14.30015563964843
 30
6.892322504926388
 70
   192
  0
VERTEX
  5
1184
330
1024
100
AcDbEntity
  8
0
 62
     7
100
AcDbVertex
100
AcDbPolyFaceMeshVertex
 10
2.162626222152621
 20
14.15296459197998
 30
7.43415066044397
 70
   192
  0
VERTEX
  5
1185
330
1024
100
AcDbEntity
  8
0
 62
     7
100
AcDbVertex
100
AcDbPolyFaceMeshVertex
 10
1.680765107650653
 20
14.52259349822998
 30
10.43882080357141
 70
   192
  0
VERTEX
  5
1186
330
1024
100
AcDbEntity
  8
0
 62
     7
100
AcDbVertex
100
AcDbPolyFaceMeshVertex
 10
2.244276002426058
 20
14.77315330505371
 30
11.90766617100305
 70
   192
  0
VERTEX
  5
1187
330
1024
100
AcDbEntity
  8
0
 62
     7
100
AcDbVertex
100
AcDbPolyFaceMeshVertex
 10
1.626790956039339
 20
14.79392719268799
 30
12.67304798405237
 70
   192
  0
VERTEX
  5
1188
330
1024
100
AcDbEntity
  8
0
 62
     7
100
AcDbVertex
100
AcDbPolyFaceMeshVertex
 10
2.244691804428011
 20
14.77632045745849
 30
13.06459232609338
 70
   192
  0
VERTEX
  5
1189
330
1024
100
AcDbEntity
  8
0
 62
     7
100
AcDbVertex
100
AcDbPolyFaceMeshVertex
 10
1.647653535385035
 20
14.68905067443848
 30
13.24803730290002
 70
   192
  0
VERTEX
  5
118A
330
1024
100
AcDbEntity
  8
0
 62
     7
100
AcDbVertex
100
AcDbPolyFaceMeshVertex
 10
0.7386512313078875
 20
14.02386379241943
 30
13.39909359257288
 70
   192
  0
VERTEX
  5
118B
330
1024
100
AcDbEntity
  8
0
 62
     7
100
AcDbVertex
100
AcDbPolyFaceMeshVertex
 10
1.161157563705348
 20
14.37060642242431
 30
13.39909359257288
 70
   192
  0
VERTEX
  5
118C
330
1024
100
AcDbEntity
  8
0
 62
     7
100
AcDbVertex
100
AcDbPolyFaceMeshVertex
 10
1.096967652816676
 20
14.48178672790526
 30
13.24803730290002
 70
   192
  0
VERTEX
  5
118D
330
1024
100
AcDbEntity
  8
0
 62
     7
100
AcDbVertex
100
AcDbPolyFaceMeshVertex
 10
1.63427157737723
 20
14.75633716583252
 30
13.06459232609338
 70
   192
  0
VERTEX
  5
118E
330
1024
100
AcDbEntity
  8
0
 62
     7
100
AcDbVertex
100
AcDbPolyFaceMeshVertex
 10
1.634893373031513
 20
14.75320434570312
 30
11.90766617100305
 70
   192
  0
VERTEX
  5
118F
330
1024
100
AcDbEntity
  8
0
 62
     7
100
AcDbVertex
100
AcDbPolyFaceMeshVertex
 10
1.043502763290309
 20
14.57439231872558
 30
12.67304798405237
 70
   192
  0
VERTEX
  5
1190
330
1024
100
AcDbEntity
  8
0
 62
     7
100
AcDbVertex
100
AcDbPolyFaceMeshVertex
 10
1.756929353256129
 20
14.1396837234497
 30
7.43415066044397
 70
   192
  0
VERTEX
  5
1191
330
1024
100
AcDbEntity
  8
0
 62
     7
100
AcDbVertex
100
AcDbPolyFaceMeshVertex
 10
1.181829408187763
 20
14.33480739593506
 30
10.43882080357141
 70
   192
  0
VERTEX
  5
1192
330
1024
100
AcDbEntity
  8
0
 62
     7
100
AcDbVertex
100
AcDbPolyFaceMeshVertex
 10
1.338376954574489
 20
14.06365871429443
 30
7.168889964032841
 70
   192
  0
VERTEX
  5
1193
330
1024
100
AcDbEntity
  8
0
 62
     7
100
AcDbVertex
100
AcDbPolyFaceMeshVertex
 10
1.741846040267848
 20
14.21551418304443
 30
7.168889964032841
 70
   192
  0
VERTEX
  5
1194
330
1024
100
AcDbEntity
  8
0
 62
     7
100
AcDbVertex
100
AcDbPolyFaceMeshVertex
 10
1.695169404525667
 20
14.45018196105957
 30
6.91506954472131
 70
   192
  0
VERTEX
  5
1195
330
1024
100
AcDbEntity
  8
0
 62
     7
100
AcDbVertex
100
AcDbPolyFaceMeshVertex
 10
1.21874423362723
 20
14.2708683013916
 30
6.91506954472131
 70
   192
  0
VERTEX
  5
1196
330
1024
100
AcDbEntity
  8
0
 62
     7
100
AcDbVertex
100
AcDbPolyFaceMeshVertex
 10
2.172716096420199
 20
14.2296199798584
 30
7.168889964032841
 70
   192
  0
VERTEX
  5
1197
330
1024
100
AcDbEntity
  8
0
 62
     7
100
AcDbVertex
100
AcDbPolyFaceMeshVertex
 10
1.377035096664339
 20
13.99670028686523
 30
7.43415066044397
 70
   192
  0
VERTEX
  5
1198
330
1024
100
AcDbEntity
  8
0
 62
     7
100
AcDbVertex
100
AcDbPolyFaceMeshVertex
 10
1.063259080428991
 20
13.73919200897217
 30
7.43415066044397
 70
   192
  0
VERTEX
  5
1199
330
1024
100
AcDbEntity
  8
0
 62
     7
100
AcDbVertex
100
AcDbPolyFaceMeshVertex
 10
1.064264253158476
 20
14.53843402862549
 30
11.90766617100305
 70
   192
  0
VERTEX
  5
119A
330
1024
100
AcDbEntity
  8
0
 62
     7
100
AcDbVertex
100
AcDbPolyFaceMeshVertex
 10
0.5929526839446062
 20
14.15163898468017
 30
11.90766617100305
 70
   192
  0
VERTEX
  5
119B
330
1024
100
AcDbEntity
  8
0
 62
     7
100
AcDbVertex
100
AcDbPolyFaceMeshVertex
 10
1.062665895004176
 20
14.54120063781738
 30
13.06459232609338
 70
   192
  0
VERTEX
  5
119C
330
1024
100
AcDbEntity
  8
0
 62
     7
100
AcDbVertex
100
AcDbPolyFaceMeshVertex
 10
0.5905513320158989
 20
14.15374565124511
 30
13.06459232609338
 70
   192
  0
VERTEX
  5
119D
330
1024
100
AcDbEntity
  8
0
 62
     7
100
AcDbVertex
100
AcDbPolyFaceMeshVertex
 10
0.1978053603362078
 20
13.03581428527832
 30
13.24803730290002
 70
   192
  0
VERTEX
  5
119E
330
1024
100
AcDbEntity
  8
0
 62
     7
100
AcDbVertex
100
AcDbPolyFaceMeshVertex
 10
0.3314170394133562
 20
13.60884189605713
 30
13.24803730290002
 70
   192
  0
VERTEX
  5
119F
330
1024
100
AcDbEntity
  8
0
 62
     7
100
AcDbVertex
100
AcDbPolyFaceMeshVertex
 10
0.2680339369963676
 20
13.63509559631348
 30
13.06459232609338
 70
   192
  0
VERTEX
  5
11A0
330
1024
100
AcDbEntity
  8
0
 62
     7
100
AcDbVertex
100
AcDbPolyFaceMeshVertex
 10
0.5617351088713676
 20
14.17901611328125
 30
12.67304798405237
 70
   192
  0
VERTEX
  5
11A1
330
1024
100
AcDbEntity
  8
0
 62
     7
100
AcDbVertex
100
AcDbPolyFaceMeshVertex
 10
0.7697314772795672
 20
13.99660873413086
 30
10.43882080357141
 70
   192
  0
VERTEX
  5
11A2
330
1024
100
AcDbEntity
  8
0
 62
     7
100
AcDbVertex
100
AcDbPolyFaceMeshVertex
 10
0.2709846053313285
 20
13.63387298583984
 30
11.90766617100305
 70
   192
  0
VERTEX
  5
11A3
330
1024
100
AcDbEntity
  8
0
 62
     7
100
AcDbVertex
100
AcDbPolyFaceMeshVertex
 10
1.005128816146758
 20
13.79017066955566
 30
7.168889964032841
 70
   192
  0
VERTEX
  5
11A4
330
1024
100
AcDbEntity
  8
0
 62
     7
100
AcDbVertex
100
AcDbPolyFaceMeshVertex
 10
0.8489093337248796
 20
13.39448928833008
 30
7.43415066044397
 70
   192
  0
VERTEX
  5
11A5
330
1024
100
AcDbEntity
  8
0
 62
     7
100
AcDbVertex
100
AcDbPolyFaceMeshVertex
 10
0.488214448470977
 20
13.54389381408691
 30
10.43882080357141
 70
   192
  0
VERTEX
  5
11A6
330
1024
100
AcDbEntity
  8
0
 62
     7
100
AcDbVertex
100
AcDbPolyFaceMeshVertex
 10
0.3671588454436296
 20
13.02471446990967
 30
10.43882080357141
 70
   192
  0
VERTEX
  5
11A7
330
1024
100
AcDbEntity
  8
0
 62
     7
100
AcDbVertex
100
AcDbPolyFaceMeshVertex
 10
0.2326240096282106
 20
13.6497631072998
 30
12.67304798405237
 70
   192
  0
VERTEX
  5
11A8
330
1024
100
AcDbEntity
  8
0
 62
     7
100
AcDbVertex
100
AcDbPolyFaceMeshVertex
 10
0.0911025557707781
 20
13.04280757904052
 30
12.67304798405237
 70
   192
  0
VERTEX
  5
11A9
330
1024
100
AcDbEntity
  8
0
 62
     7
100
AcDbVertex
100
AcDbPolyFaceMeshVertex
 10
0.6421298537444074
 20
14.10851097106933
 30
13.24803730290002
 70
   192
  0
VERTEX
  5
11AA
330
1024
100
AcDbEntity
  8
0
 62
     7
100
AcDbVertex
100
AcDbPolyFaceMeshVertex
 10
0.4036674056242973
 20
12.91769218444824
 30
6.892322504926388
 70
   192
  0
VERTEX
  5
11AB
330
1024
100
AcDbEntity
  8
0
 62
     7
100
AcDbVertex
100
AcDbPolyFaceMeshVertex
 10
0.5564250502776176
 20
13.51564025878906
 30
6.91506954472131
 70
   192
  0
VERTEX
  5
11AC
330
1024
100
AcDbEntity
  8
0
 62
     7
100
AcDbVertex
100
AcDbPolyFaceMeshVertex
 10
0.6175345931242973
 20
13.71585845947265
 30
6.892322504926388
 70
   192
  0
VERTEX
  5
11AD
330
1024
100
AcDbEntity
  8
0
 62
     7
100
AcDbVertex
100
AcDbPolyFaceMeshVertex
 10
0.7965220961760622
 20
12.59522151947021
 30
7.43415066044397
 70
   192
  0
VERTEX
  5
11AE
330
1024
100
AcDbEntity
  8
0
 62
     7
100
AcDbVertex
100
AcDbPolyFaceMeshVertex
 10
0.7567348036955864
 20
12.99917984008789
 30
7.43415066044397
 70
   192
  0
VERTEX
  5
11AF
330
1024
100
AcDbEntity
  8
0
 62
     7
100
AcDbVertex
100
AcDbPolyFaceMeshVertex
 10
0.6795844588469464
 20
13.00423717498779
 30
7.168889964032841
 70
   192
  0
VERTEX
  5
11B0
330
1024
100
AcDbEntity
  8
0
 62
     7
100
AcDbVertex
100
AcDbPolyFaceMeshVertex
 10
0.7774772200774187
 20
13.42407703399658
 30
7.168889964032841
 70
   192
  0
VERTEX
  5
11B1
330
1024
100
AcDbEntity
  8
0
 62
     7
100
AcDbVertex
100
AcDbPolyFaceMeshVertex
 10
0.1325339827727276
 20
13.04009246826172
 30
11.90766617100305
 70
   192
  0
VERTEX
  5
11B2
330
1024
100
AcDbEntity
  8
0
 62
     7
100
AcDbVertex
100
AcDbPolyFaceMeshVertex
 10
0.1922969374846488
 20
12.43332004547119
 30
11.90766617100305
 70
   192
  0
VERTEX
  5
11B3
330
1024
100
AcDbEntity
  8
0
 62
     7
100
AcDbVertex
100
AcDbPolyFaceMeshVertex
 10
0.129346803207298
 20
13.04030132293701
 30
13.06459232609338
 70
   192
  0
VERTEX
  5
11B4
330
1024
100
AcDbEntity
  8
0
 62
     7
100
AcDbVertex
100
AcDbPolyFaceMeshVertex
 10
0.1892108473967582
 20
12.43249320983887
 30
13.06459232609338
 70
   192
  0
VERTEX
  5
11B5
330
1024
100
AcDbEntity
  8
0
 62
     7
100
AcDbVertex
100
AcDbPolyFaceMeshVertex
 10
0.3259105239104265
 20
13.02741813659668
 30
13.39909359257288
 70
   192
  0
VERTEX
  5
11B6
330
1024
100
AcDbEntity
  8
0
 62
     7
100
AcDbVertex
100
AcDbPolyFaceMeshVertex
 10
0.3794841323088676
 20
12.48347663879394
 30
13.39909359257288
 70
   192
  0
VERTEX
  5
11B7
330
1024
100
AcDbEntity
  8
0
 62
     7
100
AcDbVertex
100
AcDbPolyFaceMeshVertex
 10
0.6050586257170672
 20
11.98562240600586
 30
13.39909359257288
 70
   192
  0
VERTEX
  5
11B8
330
1024
100
AcDbEntity
  8
0
 62
     7
100
AcDbVertex
100
AcDbPolyFaceMeshVertex
 10
0.2554778609465593
 20
12.45024871826172
 30
13.24803730290002
 70
   192
  0
VERTEX
  5
11B9
330
1024
100
AcDbEntity
  8
0
 62
     7
100
AcDbVertex
100
AcDbPolyFaceMeshVertex
 10
0.1521892104338676
 20
12.42257308959961
 30
12.67304798405237
 70
   192
  0
VERTEX
  5
11BA
330
1024
100
AcDbEntity
  8
0
 62
     7
100
AcDbVertex
100
AcDbPolyFaceMeshVertex
 10
0.4412707839201886
 20
11.87618350982666
 30
13.06459232609338
 70
   192
  0
VERTEX
  5
11BB
330
1024
100
AcDbEntity
  8
0
 62
     7
100
AcDbVertex
100
AcDbPolyFaceMeshVertex
 10
0.4907283339690168
 20
12.51328372955322
 30
6.91506954472131
 70
   192
  0
VERTEX
  5
11BC
330
1024
100
AcDbEntity
  8
0
 62
     7
100
AcDbVertex
100
AcDbPolyFaceMeshVertex
 10
0.4408320937346489
 20
13.01988506317139
 30
6.91506954472131
 70
   192
  0
VERTEX
  5
11BD
330
1024
100
AcDbEntity
  8
0
 62
     7
100
AcDbVertex
100
AcDbPolyFaceMeshVertex
 10
0.7218398604582781
 20
12.57521057128906
 30
7.168889964032841
 70
   192
  0
VERTEX
  5
11BE
330
1024
100
AcDbEntity
  8
0
 62
     7
100
AcDbVertex
100
AcDbPolyFaceMeshVertex
 10
0.9640445265959769
 20
12.22548961639404
 30
7.43415066044397
 70
   192
  0
VERTEX
  5
11BF
330
1024
100
AcDbEntity
  8
0
 62
     7
100
AcDbVertex
100
AcDbPolyFaceMeshVertex
 10
0.4194125685881574
 20
12.49417495727539
 30
10.43882080357141
 70
   192
  0
VERTEX
  5
11C0
330
1024
100
AcDbEntity
  8
0
 62
     7
100
AcDbVertex
100
AcDbPolyFaceMeshVertex
 10
0.4439277205656964
 20
11.87795829772949
 30
11.90766617100305
 70
   192
  0
VERTEX
  5
11C1
330
1024
100
AcDbEntity
  8
0
 62
     7
100
AcDbVertex
100
AcDbPolyFaceMeshVertex
 10
0.4094028029631574
 20
11.85488986968994
 30
12.67304798405237
 70
   192
  0
VERTEX
  5
11C2
330
1024
100
AcDbEntity
  8
0
 62
     7
100
AcDbVertex
100
AcDbPolyFaceMeshVertex
 10
0.4983138594817192
 20
11.91429805755615
 30
13.24803730290002
 70
   192
  0
VERTEX
  5
11C3
330
1024
100
AcDbEntity
  8
0
 62
     7
100
AcDbVertex
100
AcDbPolyFaceMeshVertex
 10
0.9005393538664918
 20
11.48484706878662
 30
13.24803730290002
 70
   192
  0
VERTEX
  5
11C4
330
1024
100
AcDbEntity
  8
0
 62
     7
100
AcDbVertex
100
AcDbPolyFaceMeshVertex
 10
1.460725739974879
 20
11.32904529571533
 30
13.39909359257288
 70
   192
  0
VERTEX
  5
11C5
330
1024
100
AcDbEntity
  8
0
 62
     7
100
AcDbVertex
100
AcDbPolyFaceMeshVertex
 10
0.6175345931242973
 20
12.11952590942383
 30
6.892322504926388
 70
   192
  0
VERTEX
  5
11C6
330
1024
100
AcDbEntity
  8
0
 62
     7
100
AcDbVertex
100
AcDbPolyFaceMeshVertex
 10
1.048801377792266
 20
11.67806720733642
 30
6.91506954472131
 70
   192
  0
VERTEX
  5
11C7
330
1024
100
AcDbEntity
  8
0
 62
     7
100
AcDbVertex
100
AcDbPolyFaceMeshVertex
 10
0.7008170638274187
 20
12.04960632324219
 30
6.91506954472131
 70
   192
  0
VERTEX
  5
11C8
330
1024
100
AcDbEntity
  8
0
 62
     7
100
AcDbVertex
100
AcDbPolyFaceMeshVertex
 10
0.8997592482756573
 20
12.18253517150879
 30
7.168889964032841
 70
   192
  0
VERTEX
  5
11C9
330
1024
100
AcDbEntity
  8
0
 62
     7
100
AcDbVertex
100
AcDbPolyFaceMeshVertex
 10
1.241525605697535
 20
11.92922878265381
 30
7.43415066044397
 70
   192
  0
VERTEX
  5
11CA
330
1024
100
AcDbEntity
  8
0
 62
     7
100
AcDbVertex
100
AcDbPolyFaceMeshVertex
 10
1.999998048324489
 20
11.59572124481201
 30
8.601564371991822
 70
   192
  0
VERTEX
  5
11CB
330
1024
100
AcDbEntity
  8
0
 62
     7
100
AcDbVertex
100
AcDbPolyFaceMeshVertex
 10
1.599508241195589
 20
11.73788261413574
 30
7.43415066044397
 70
   192
  0
VERTEX
  5
11CC
330
1024
100
AcDbEntity
  8
0
 62
     7
100
AcDbVertex
100
AcDbPolyFaceMeshVertex
 10
0.6394290480803484
 20
12.00858879089355
 30
10.43882080357141
 70
   192
  0
VERTEX
  5
11CD
330
1024
100
AcDbEntity
  8
0
 62
     7
100
AcDbVertex
100
AcDbPolyFaceMeshVertex
 10
0.8607196364592581
 20
11.43295383453369
 30
11.90766617100305
 70
   192
  0
VERTEX
  5
11CE
330
1024
100
AcDbEntity
  8
0
 62
     7
100
AcDbVertex
100
AcDbPolyFaceMeshVertex
 10
0.8587741408537858
 20
11.43041896820068
 30
13.06459232609338
 70
   192
  0
VERTEX
  5
11CF
330
1024
100
AcDbEntity
  8
0
 62
     7
100
AcDbVertex
100
AcDbPolyFaceMeshVertex
 10
1.999998048324489
 20
11.40135955810547
 30
6.94855591099329
 70
   192
  0
VERTEX
  5
11D0
330
1024
100
AcDbEntity
  8
0
 62
     7
100
AcDbVertex
100
AcDbPolyFaceMeshVertex
 10
1.497747376937763
 20
11.43810176849365
 30
6.91506954472131
 70
   192
  0
VERTEX
  5
11D1
330
1024
100
AcDbEntity
  8
0
 62
     7
100
AcDbVertex
100
AcDbPolyFaceMeshVertex
 10
1.194456056136989
 20
11.86788940429687
 30
7.168889964032841
 70
   192
  0
VERTEX
  5
11D2
330
1024
100
AcDbEntity
  8
0
 62
     7
100
AcDbVertex
100
AcDbPolyFaceMeshVertex
 10
1.003856614608668
 20
11.61949348449707
 30
10.43882080357141
 70
   192
  0
VERTEX
  5
11D3
330
1024
100
AcDbEntity
  8
0
 62
     7
100
AcDbVertex
100
AcDbPolyFaceMeshVertex
 10
1.398435548324489
 20
11.14553928375244
 30
11.90766617100305
 70
   192
  0
VERTEX
  5
11D4
330
1024
100
AcDbEntity
  8
0
 62
     7
100
AcDbVertex
100
AcDbPolyFaceMeshVertex
 10
1.474012330551058
 20
11.36818981170653
 30
10.43882080357141
 70
   192
  0
VERTEX
  5
11D5
330
1024
100
AcDbEntity
  8
0
 62
     7
100
AcDbVertex
100
AcDbPolyFaceMeshVertex
 10
0.8354434523772269
 20
11.4000129699707
 30
12.67304798405237
 70
   192
  0
VERTEX
  5
11D6
330
1024
100
AcDbEntity
  8
0
 62
     7
100
AcDbVertex
100
AcDbPolyFaceMeshVertex
 10
1.397405580062763
 20
11.1425142288208
 30
13.06459232609338
 70
   192
  0
VERTEX
  5
11D7
330
1024
100
AcDbEntity
  8
0
 62
     7
100
AcDbVertex
100
AcDbPolyFaceMeshVertex
 10
0.978691056747337
 20
11.58669853210449
 30
13.39909359257288
 70
   192
  0
VERTEX
  5
11D8
330
1024
100
AcDbEntity
  8
0
 62
     7
100
AcDbVertex
100
AcDbPolyFaceMeshVertex
 10
1.201833680648707
 20
14.30015563964843
 30
6.892322504926388
 70
   192
  0
VERTEX
  5
11D9
330
1024
100
AcDbEntity
  8
0
 62
     7
100
AcDbVertex
100
AcDbPolyFaceMeshVertex
 10
1.999998048324489
 20
14.51402378082275
 30
6.892322504926388
 70
   192
  0
VERTEX
  5
11DA
330
1024
100
AcDbEntity
  8
0
 62
     7
100
AcDbVertex
100
AcDbPolyFaceMeshVertex
 10
3.532487824935817
 20
13.22252368927002
 30
6.91506954472131
 70
   192
  0
VERTEX
  5
11DB
330
1024
100
AcDbEntity
  8
0
 62
     7
100
AcDbVertex
100
AcDbPolyFaceMeshVertex
 10
0.8252391371916765
 20
13.9479284286499
 30
6.91506954472131
 70
   192
  0
VERTEX
  5
11DC
330
1024
100
AcDbEntity
  8
0
 62
     7
100
AcDbVertex
100
AcDbPolyFaceMeshVertex
 10
2.203947022933871
 20
14.4668378829956
 30
6.91506954472131
 70
   192
  0
VERTEX
  5
11DD
330
1024
100
AcDbEntity
  8
0
 62
     7
100
AcDbVertex
100
AcDbPolyFaceMeshVertex
 10
3.207838014144794
 20
11.9264440536499
 30
6.91506954472131
 70
   192
  0
VERTEX
  5
11DE
330
1024
100
AcDbEntity
  8
0
 62
     7
100
AcDbVertex
100
AcDbPolyFaceMeshVertex
 10
1.999998048324489
 20
11.32136058807373
 30
6.892322504926388
 70
   192
  0
VERTEX
  5
11DF
330
1024
100
AcDbEntity
  8
0
 62
     7
100
AcDbVertex
100
AcDbPolyFaceMeshVertex
 10
1.999998048324489
 20
11.32298183441162
 30
6.89336582462854
 70
   192
  0
VERTEX
  5
11E0
330
1024
100
AcDbEntity
  8
0
 62
     7
100
AcDbVertex
100
AcDbPolyFaceMeshVertex
 10
1.999998048324489
 20
11.32763481140137
 30
6.89640232365198
 70
   192
  0
VERTEX
  5
11E1
330
1024
100
AcDbEntity
  8
0
 62
     7
100
AcDbVertex
100
AcDbPolyFaceMeshVertex
 10
1.999998048324489
 20
11.34475898742675
 30
6.90788742344446
 70
   192
  0
VERTEX
  5
11E2
330
1024
100
AcDbEntity
  8
0
 62
     7
100
AcDbVertex
100
AcDbPolyFaceMeshVertex
 10
2.361673310775667
 20
11.72541046142578
 30
7.43415066044397
 70
   192
  0
VERTEX
  5
11E3
330
1024
100
AcDbEntity
  8
0
 62
     7
100
AcDbVertex
100
AcDbPolyFaceMeshVertex
 10
1.999998048324489
 20
11.31532192230224
 30
10.25532909672327
 70
   192
  0
VERTEX
  5
11E4
330
1024
100
AcDbEntity
  8
0
 62
     7
100
AcDbVertex
100
AcDbPolyFaceMeshVertex
 10
2.544187501449489
 20
11.12374877929687
 30
13.06459232609338
 70
   192
  0
VERTEX
  5
11E5
330
1024
100
AcDbEntity
  8
0
 62
     7
100
AcDbVertex
100
AcDbPolyFaceMeshVertex
 10
2.487005189437777
 20
11.31225204467773
 30
13.39909359257288
 70
   192
  0
VERTEX
  5
11E6
330
1024
100
AcDbEntity
  8
0
 62
     7
100
AcDbVertex
100
AcDbPolyFaceMeshVertex
 10
1.999998048324489
 20
11.25373268127441
 30
13.41151043217249
 70
   192
  0
VERTEX
  5
11E7
330
1024
100
AcDbEntity
  8
0
 62
     7
100
AcDbVertex
100
AcDbPolyFaceMeshVertex
 10
1.999998048324489
 20
11.29612350463867
 30
13.44774814884729
 70
   192
  0
VERTEX
  5
11E8
330
1024
100
AcDbEntity
  8
0
 62
     7
100
AcDbVertex
100
AcDbPolyFaceMeshVertex
 10
1.999998048324489
 20
11.31774139404297
 30
13.46528431217737
 70
   192
  0
VERTEX
  5
11E9
330
1024
100
AcDbEntity
  8
0
 62
     7
100
AcDbVertex
100
AcDbPolyFaceMeshVertex
 10
1.999998048324489
 20
11.32861042022705
 30
13.47391887943811
 70
   192
  0
VERTEX
  5
11EA
330
1024
100
AcDbEntity
  8
0
 62
     7
100
AcDbVertex
100
AcDbPolyFaceMeshVertex
 10
1.999998048324489
 20
11.33405494689941
 30
13.47820659916467
 70
   192
  0
VERTEX
  5
11EB
330
1024
100
AcDbEntity
  8
0
 62
     7
100
AcDbVertex
100
AcDbPolyFaceMeshVertex
 10
1.999998048324489
 20
11.3367223739624
 30
13.48029896061487
 70
   192
  0
VERTEX
  5
11EC
330
1024
100
AcDbEntity
  8
0
 62
     7
100
AcDbVertex
100
AcDbPolyFaceMeshVertex
 10
3.549974397201449
 20
12.27567195892334
 30
13.39909359257288
 70
   192
  0
VERTEX
  5
11ED
330
1024
100
AcDbEntity
  8
0
 62
     7
100
AcDbVertex
100
AcDbPolyFaceMeshVertex
 10
1.672700837631129
 20
14.56313705444336
 30
13.39909359257288
 70
   192
  0
VERTEX
  5
11EE
330
1024
100
AcDbEntity
  8
0
 62
     7
100
AcDbVertex
100
AcDbPolyFaceMeshVertex
 10
0.4500236067961687
 20
13.55971240997314
 30
13.39909359257288
 70
   192
  0
VERTEX
  5
11EF
330
1024
100
AcDbEntity
  8
0
 62
     7
100
AcDbVertex
100
AcDbPolyFaceMeshVertex
 10
1.419458344955348
 20
11.20747852325439
 30
13.24803730290002
 70
   192
  0
VERTEX
  5
11F0
330
1024
100
AcDbEntity
  8
0
 62
     7
100
AcDbVertex
100
AcDbPolyFaceMeshVertex
 10
1.385087922592067
 20
11.10622119903564
 30
12.67304798405237
 70
   192
  0
VERTEX
  5
11F1
330
1024
100
AcDbEntity
  8
0
 62
     7
100
AcDbVertex
100
AcDbPolyFaceMeshVertex
 10
1.574655488510035
 20
11.66466903686523
 30
7.168889964032841
 70
   192
  0
VERTEX
  5
11F2
330
1024
100
AcDbEntity
  8
0
 62
     7
100
AcDbVertex
100
AcDbPolyFaceMeshVertex
 10
1.201833680648707
 20
11.53522872924805
 30
6.892322504926388
 70
   192
  0
VERTEX
  5
11F3
330
1024
100
AcDbEntity
  8
0
 62
     7
100
AcDbVertex
100
AcDbPolyFaceMeshVertex
 10
1.999998048324489
 20
11.32136058807373
 30
6.761073077130978
 70
   192
  0
VERTEX
  5
11F4
330
1024
100
AcDbEntity
  8
0
 62
     7
100
AcDbVertex
100
AcDbPolyFaceMeshVertex
 10
1.201833680648707
 20
11.53522872924805
 30
6.761073077130978
 70
   192
  0
VERTEX
  5
11F5
330
1024
100
AcDbEntity
  8
0
 62
     7
100
AcDbVertex
100
AcDbPolyFaceMeshVertex
 10
3.382463410873317
 20
12.11952590942383
 30
6.761073077130978
 70
   192
  0
VERTEX
  5
11F6
330
1024
100
AcDbEntity
  8
0
 62
     7
100
AcDbVertex
100
AcDbPolyFaceMeshVertex
 10
2.798166230697535
 20
11.53522872924805
 30
6.761073077130978
 70
   192
  0
VERTEX
  5
11F7
330
1024
100
AcDbEntity
  8
0
 62
     7
100
AcDbVertex
100
AcDbPolyFaceMeshVertex
 10
3.382463410873317
 20
13.71585845947265
 30
6.761073077130978
 70
   192
  0
VERTEX
  5
11F8
330
1024
100
AcDbEntity
  8
0
 62
     7
100
AcDbVertex
100
AcDbPolyFaceMeshVertex
 10
3.596330598373317
 20
12.91769218444824
 30
6.761073077130978
 70
   192
  0
VERTEX
  5
11F9
330
1024
100
AcDbEntity
  8
0
 62
     7
100
AcDbVertex
100
AcDbPolyFaceMeshVertex
 10
1.999998048324489
 20
14.51402378082275
 30
6.761073077130978
 70
   192
  0
VERTEX
  5
11FA
330
1024
100
AcDbEntity
  8
0
 62
     7
100
AcDbVertex
100
AcDbPolyFaceMeshVertex
 10
2.798166230697535
 20
14.30015563964843
 30
6.761073077130978
 70
   192
  0
VERTEX
  5
11FB
330
1024
100
AcDbEntity
  8
0
 62
     7
100
AcDbVertex
100
AcDbPolyFaceMeshVertex
 10
0.6175345931242973
 20
13.71585845947265
 30
6.761073077130978
 70
   192
  0
VERTEX
  5
11FC
330
1024
100
AcDbEntity
  8
0
 62
     7
100
AcDbVertex
100
AcDbPolyFaceMeshVertex
 10
1.201833680648707
 20
14.30015563964843
 30
6.761073077130978
 70
   192
  0
VERTEX
  5
11FD
330
1024
100
AcDbEntity
  8
0
 62
     7
100
AcDbVertex
100
AcDbPolyFaceMeshVertex
 10
0.6175345931242973
 20
12.11952590942383
 30
6.761073077130978
 70
   192
  0
VERTEX
  5
11FE
330
1024
100
AcDbEntity
  8
0
 62
     7
100
AcDbVertex
100
AcDbPolyFaceMeshVertex
 10
0.4036674056242973
 20
12.91769218444824
 30
6.761073077130978
 70
   192
  0
VERTEX
  5
11FF
330
1024
100
AcDbEntity
  8
0
 62
     7
100
AcDbVertex
100
AcDbPolyFaceMeshVertex
 10
0.3636912856291765
 20
11.9729700088501
 30
6.572819674421021
 70
   192
  0
VERTEX
  5
1200
330
1024
100
AcDbEntity
  8
0
 62
     7
100
AcDbVertex
100
AcDbPolyFaceMeshVertex
 10
0.3196124587248796
 20
11.9475212097168
 30
6.38286682407922
 70
   192
  0
VERTEX
  5
1201
330
1024
100
AcDbEntity
  8
0
 62
     7
100
AcDbVertex
100
AcDbPolyFaceMeshVertex
 10
1.055276826400671
 20
11.28138446807861
 30
6.572819674421021
 70
   192
  0
VERTEX
  5
1202
330
1024
100
AcDbEntity
  8
0
 62
     7
100
AcDbVertex
100
AcDbPolyFaceMeshVertex
 10
0.0596560988615984
 20
12.91769218444824
 30
6.38286682407922
 70
   192
  0
VERTEX
  5
1203
330
1024
100
AcDbEntity
  8
0
 62
     7
100
AcDbVertex
100
AcDbPolyFaceMeshVertex
 10
0.3196124587248796
 20
13.88786315917968
 30
6.38286682407922
 70
   192
  0
VERTEX
  5
1204
330
1024
100
AcDbEntity
  8
0
 62
     7
100
AcDbVertex
100
AcDbPolyFaceMeshVertex
 10
0.3636912856291765
 20
13.86241436004638
 30
6.192914927411742
 70
   192
  0
VERTEX
  5
1205
330
1024
100
AcDbEntity
  8
0
 62
     7
100
AcDbVertex
100
AcDbPolyFaceMeshVertex
 10
0.1105536971282106
 20
12.91769218444824
 30
6.572819674421021
 70
   192
  0
VERTEX
  5
1206
330
1024
100
AcDbEntity
  8
0
 62
     7
100
AcDbVertex
100
AcDbPolyFaceMeshVertex
 10
0.4841174636076957
 20
12.04249668121338
 30
6.711874926496209
 70
   192
  0
VERTEX
  5
1207
330
1024
100
AcDbEntity
  8
0
 62
     7
100
AcDbVertex
100
AcDbPolyFaceMeshVertex
 10
0.3636912856291765
 20
13.86241436004638
 30
6.572819674421021
 70
   192
  0
VERTEX
  5
1208
330
1024
100
AcDbEntity
  8
0
 62
     7
100
AcDbVertex
100
AcDbPolyFaceMeshVertex
 10
1.029827073593047
 20
14.59807872772216
 30
6.38286682407922
 70
   192
  0
VERTEX
  5
1209
330
1024
100
AcDbEntity
  8
0
 62
     7
100
AcDbVertex
100
AcDbPolyFaceMeshVertex
 10
1.999998048324489
 20
14.85803508758545
 30
6.38286682407922
 70
   192
  0
VERTEX
  5
120A
330
1024
100
AcDbEntity
  8
0
 62
     7
100
AcDbVertex
100
AcDbPolyFaceMeshVertex
 10
1.999998048324489
 20
14.80713748931885
 30
6.192914927411742
 70
   192
  0
VERTEX
  5
120B
330
1024
100
AcDbEntity
  8
0
 62
     7
100
AcDbVertex
100
AcDbPolyFaceMeshVertex
 10
1.055276826400671
 20
14.55399990081787
 30
6.572819674421021
 70
   192
  0
VERTEX
  5
120C
330
1024
100
AcDbEntity
  8
0
 62
     7
100
AcDbVertex
100
AcDbPolyFaceMeshVertex
 10
0.4841174636076957
 20
13.7928876876831
 30
6.711874926496209
 70
   192
  0
VERTEX
  5
120D
330
1024
100
AcDbEntity
  8
0
 62
     7
100
AcDbVertex
100
AcDbPolyFaceMeshVertex
 10
1.999998048324489
 20
14.80713748931885
 30
6.572819674421021
 70
   192
  0
VERTEX
  5
120E
330
1024
100
AcDbEntity
  8
0
 62
     7
100
AcDbVertex
100
AcDbPolyFaceMeshVertex
 10
2.970170930404567
 20
14.59807872772216
 30
6.38286682407922
 70
   192
  0
VERTEX
  5
120F
330
1024
100
AcDbEntity
  8
0
 62
     7
100
AcDbVertex
100
AcDbPolyFaceMeshVertex
 10
3.940343812484652
 20
12.91769218444824
 30
6.38286682407922
 70
   192
  0
VERTEX
  5
1210
330
1024
100
AcDbEntity
  8
0
 62
     7
100
AcDbVertex
100
AcDbPolyFaceMeshVertex
 10
3.680383637924098
 20
13.88786315917968
 30
6.38286682407922
 70
   192
  0
VERTEX
  5
1211
330
1024
100
AcDbEntity
  8
0
 62
     7
100
AcDbVertex
100
AcDbPolyFaceMeshVertex
 10
3.636308625717067
 20
13.86241436004638
 30
6.572819674421021
 70
   192
  0
VERTEX
  5
1212
330
1024
100
AcDbEntity
  8
0
 62
     7
100
AcDbVertex
100
AcDbPolyFaceMeshVertex
 10
3.636308625717067
 20
13.86241436004638
 30
6.192914927411742
 70
   192
  0
VERTEX
  5
1213
330
1024
100
AcDbEntity
  8
0
 62
     7
100
AcDbVertex
100
AcDbPolyFaceMeshVertex
 10
2.944723084945589
 20
14.55399990081787
 30
6.572819674421021
 70
   192
  0
VERTEX
  5
1214
330
1024
100
AcDbEntity
  8
0
 62
     7
100
AcDbVertex
100
AcDbPolyFaceMeshVertex
 10
1.999998048324489
 20
14.66808223724365
 30
6.711874926496209
 70
   192
  0
VERTEX
  5
1215
330
1024
100
AcDbEntity
  8
0
 62
     7
100
AcDbVertex
100
AcDbPolyFaceMeshVertex
 10
3.636308625717067
 20
11.9729700088501
 30
6.572819674421021
 70
   192
  0
VERTEX
  5
1216
330
1024
100
AcDbEntity
  8
0
 62
     7
100
AcDbVertex
100
AcDbPolyFaceMeshVertex
 10
2.944723084945589
 20
11.28138446807861
 30
6.572819674421021
 70
   192
  0
VERTEX
  5
1217
330
1024
100
AcDbEntity
  8
0
 62
     7
100
AcDbVertex
100
AcDbPolyFaceMeshVertex
 10
2.970170930404567
 20
11.23730564117431
 30
6.38286682407922
 70
   192
  0
VERTEX
  5
1218
330
1024
100
AcDbEntity
  8
0
 62
     7
100
AcDbVertex
100
AcDbPolyFaceMeshVertex
 10
1.999998048324489
 20
11.02824687957763
 30
6.572819674421021
 70
   192
  0
VERTEX
  5
1219
330
1024
100
AcDbEntity
  8
0
 62
     7
100
AcDbVertex
100
AcDbPolyFaceMeshVertex
 10
1.999998048324489
 20
11.16730213165283
 30
6.711874926496209
 70
   192
  0
VERTEX
  5
121A
330
1024
100
AcDbEntity
  8
0
 62
     7
100
AcDbVertex
100
AcDbPolyFaceMeshVertex
 10
1.029827073593047
 20
11.23730564117431
 30
6.38286682407922
 70
   192
  0
VERTEX
  5
121B
330
1024
100
AcDbEntity
  8
0
 62
     7
100
AcDbVertex
100
AcDbPolyFaceMeshVertex
 10
0.3636912856291765
 20
11.9729700088501
 30
6.192914927411742
 70
   192
  0
VERTEX
  5
121C
330
1024
100
AcDbEntity
  8
0
 62
     7
100
AcDbVertex
100
AcDbPolyFaceMeshVertex
 10
3.515882447738544
 20
12.04249668121338
 30
6.711874926496209
 70
   192
  0
VERTEX
  5
121D
330
1024
100
AcDbEntity
  8
0
 62
     7
100
AcDbVertex
100
AcDbPolyFaceMeshVertex
 10
1.999998048324489
 20
10.97734928131103
 30
6.38286682407922
 70
   192
  0
VERTEX
  5
121E
330
1024
100
AcDbEntity
  8
0
 62
     7
100
AcDbVertex
100
AcDbPolyFaceMeshVertex
 10
1.999998048324489
 20
11.02824687957763
 30
6.192914927411742
 70
   192
  0
VERTEX
  5
121F
330
1024
100
AcDbEntity
  8
0
 62
     7
100
AcDbVertex
100
AcDbPolyFaceMeshVertex
 10
3.529844239730739
 20
12.03443527221679
 30
6.063712084699341
 70
   192
  0
VERTEX
  5
1220
330
1024
100
AcDbEntity
  8
0
 62
     7
100
AcDbVertex
100
AcDbPolyFaceMeshVertex
 10
3.636308625717067
 20
11.9729700088501
 30
6.192914927411742
 70
   192
  0
VERTEX
  5
1221
330
1024
100
AcDbEntity
  8
0
 62
     7
100
AcDbVertex
100
AcDbPolyFaceMeshVertex
 10
2.883256867904567
 20
11.38784599304199
 30
6.063712084699341
 70
   192
  0
VERTEX
  5
1222
330
1024
100
AcDbEntity
  8
0
 62
     7
100
AcDbVertex
100
AcDbPolyFaceMeshVertex
 10
1.999998048324489
 20
11.15117835998535
 30
6.063712084699341
 70
   192
  0
VERTEX
  5
1223
330
1024
100
AcDbEntity
  8
0
 62
     7
100
AcDbVertex
100
AcDbPolyFaceMeshVertex
 10
1.116743043441676
 20
11.38784599304199
 30
6.063712084699341
 70
   192
  0
VERTEX
  5
1224
330
1024
100
AcDbEntity
  8
0
 62
     7
100
AcDbVertex
100
AcDbPolyFaceMeshVertex
 10
0.4701537642668825
 20
12.03443527221679
 30
6.063712084699341
 70
   192
  0
VERTEX
  5
1225
330
1024
100
AcDbEntity
  8
0
 62
     7
100
AcDbVertex
100
AcDbPolyFaceMeshVertex
 10
0.2334842238615984
 20
12.91769218444824
 30
6.063712084699341
 70
   192
  0
VERTEX
  5
1226
330
1024
100
AcDbEntity
  8
0
 62
     7
100
AcDbVertex
100
AcDbPolyFaceMeshVertex
 10
0.4701537642668825
 20
13.80094909667969
 30
6.063712084699341
 70
   192
  0
VERTEX
  5
1227
330
1024
100
AcDbEntity
  8
0
 62
     7
100
AcDbVertex
100
AcDbPolyFaceMeshVertex
 10
1.116743043441676
 20
14.44753837585449
 30
6.063712084699341
 70
   192
  0
VERTEX
  5
1228
330
1024
100
AcDbEntity
  8
0
 62
     7
100
AcDbVertex
100
AcDbPolyFaceMeshVertex
 10
1.999998048324489
 20
14.68420600891113
 30
6.063712084699341
 70
   192
  0
VERTEX
  5
1229
330
1024
100
AcDbEntity
  8
0
 62
     7
100
AcDbVertex
100
AcDbPolyFaceMeshVertex
 10
2.883256867904567
 20
14.44753837585449
 30
6.063712084699341
 70
   192
  0
VERTEX
  5
122A
330
1024
100
AcDbEntity
  8
0
 62
     7
100
AcDbVertex
100
AcDbPolyFaceMeshVertex
 10
3.515882447738544
 20
13.7928876876831
 30
6.711874926496209
 70
   192
  0
VERTEX
  5
122B
330
1024
100
AcDbEntity
  8
0
 62
     7
100
AcDbVertex
100
AcDbPolyFaceMeshVertex
 10
3.889444306869417
 20
12.91769218444824
 30
6.572819674421021
 70
   192
  0
VERTEX
  5
122C
330
1024
100
AcDbEntity
  8
0
 62
     7
100
AcDbVertex
100
AcDbPolyFaceMeshVertex
 10
3.529844239730739
 20
13.80094909667969
 30
6.063712084699341
 70
   192
  0
VERTEX
  5
122D
330
1024
100
AcDbEntity
  8
0
 62
     7
100
AcDbVertex
100
AcDbPolyFaceMeshVertex
 10
3.766511872787379
 20
12.91769218444824
 30
6.063712084699341
 70
   192
  0
VERTEX
  5
122E
330
1024
100
AcDbEntity
  8
0
 62
     7
100
AcDbVertex
100
AcDbPolyFaceMeshVertex
 10
3.680383637924098
 20
11.9475212097168
 30
6.38286682407922
 70
   192
  0
VERTEX
  5
122F
330
1024
100
AcDbEntity
  8
0
 62
     7
100
AcDbVertex
100
AcDbPolyFaceMeshVertex
 10
2.875192597885035
 20
11.40180969238281
 30
6.711874926496209
 70
   192
  0
VERTEX
  5
1230
330
1024
100
AcDbEntity
  8
0
 62
     7
100
AcDbVertex
100
AcDbPolyFaceMeshVertex
 10
3.750390962142848
 20
12.91769218444824
 30
6.711874926496209
 70
   192
  0
VERTEX
  5
1231
330
1024
100
AcDbEntity
  8
0
 62
     7
100
AcDbVertex
100
AcDbPolyFaceMeshVertex
 10
2.875192597885035
 20
14.43357467651367
 30
6.711874926496209
 70
   192
  0
VERTEX
  5
1232
330
1024
100
AcDbEntity
  8
0
 62
     7
100
AcDbVertex
100
AcDbPolyFaceMeshVertex
 10
1.124803498763949
 20
14.43357467651367
 30
6.711874926496209
 70
   192
  0
VERTEX
  5
1233
330
1024
100
AcDbEntity
  8
0
 62
     7
100
AcDbVertex
100
AcDbPolyFaceMeshVertex
 10
0.2496089492033988
 20
12.91769218444824
 30
6.711874926496209
 70
   192
  0
VERTEX
  5
1234
330
1024
100
AcDbEntity
  8
0
 62
     7
100
AcDbVertex
100
AcDbPolyFaceMeshVertex
 10
1.124803498763949
 20
11.40180969238281
 30
6.711874926496209
 70
   192
  0
VERTEX
  5
1235
330
1024
100
AcDbEntity
  8
0
 62
     7
100
AcDbVertex
100
AcDbPolyFaceMeshVertex
 10
1.055276826400671
 20
11.28138446807861
 30
6.192914927411742
 70
   192
  0
VERTEX
  5
1236
330
1024
100
AcDbEntity
  8
0
 62
     7
100
AcDbVertex
100
AcDbPolyFaceMeshVertex
 10
0.1105536971282106
 20
12.91769218444824
 30
6.192914927411742
 70
   192
  0
VERTEX
  5
1237
330
1024
100
AcDbEntity
  8
0
 62
     7
100
AcDbVertex
100
AcDbPolyFaceMeshVertex
 10
1.055276826400671
 20
14.55399990081787
 30
6.192914927411742
 70
   192
  0
VERTEX
  5
1238
330
1024
100
AcDbEntity
  8
0
 62
     7
100
AcDbVertex
100
AcDbPolyFaceMeshVertex
 10
2.944723084945589
 20
14.55399990081787
 30
6.192914927411742
 70
   192
  0
VERTEX
  5
1239
330
1024
100
AcDbEntity
  8
0
 62
     7
100
AcDbVertex
100
AcDbPolyFaceMeshVertex
 10
3.889444306869417
 20
12.91769218444824
 30
6.192914927411742
 70
   192
  0
VERTEX
  5
123A
330
1024
100
AcDbEntity
  8
0
 62
     7
100
AcDbVertex
100
AcDbPolyFaceMeshVertex
 10
2.944723084945589
 20
11.28138446807861
 30
6.192914927411742
 70
   192
  0
VERTEX
  5
123B
330
1024
100
AcDbEntity
  8
0
 62
     7
100
AcDbVertex
100
AcDbPolyFaceMeshVertex
 10
2.865552857894794
 20
10.91769218444824
 30
5.844606364179323
 70
   192
  0
VERTEX
  5
123C
330
1024
100
AcDbEntity
  8
0
 62
     7
100
AcDbVertex
100
AcDbPolyFaceMeshVertex
 10
1.999998048324489
 20
10.91769218444824
 30
5.939766848493286
 70
   192
  0
VERTEX
  5
123D
330
1024
100
AcDbEntity
  8
0
 62
     7
100
AcDbVertex
100
AcDbPolyFaceMeshVertex
 10
1.999998048324489
 20
14.91769218444824
 30
5.939766848493286
 70
   192
  0
VERTEX
  5
123E
330
1024
100
AcDbEntity
  8
0
 62
     7
100
AcDbVertex
100
AcDbPolyFaceMeshVertex
 10
1.134447053451449
 20
14.91769218444824
 30
5.844606364179323
 70
   192
  0
VERTEX
  5
123F
330
1024
100
AcDbEntity
  8
0
 62
     7
100
AcDbVertex
100
AcDbPolyFaceMeshVertex
 10
3.999998048324489
 20
12.05213832855224
 30
5.844606364179323
 70
   192
  0
VERTEX
  5
1240
330
1024
100
AcDbEntity
  8
0
 62
     7
100
AcDbVertex
100
AcDbPolyFaceMeshVertex
 10
3.999998048324489
 20
10.91769218444824
 30
5.49999996464319
 70
   192
  0
VERTEX
  5
1241
330
1024
100
AcDbEntity
  8
0
 62
     7
100
AcDbVertex
100
AcDbPolyFaceMeshVertex
 10
3.999998048324489
 20
14.91769218444824
 30
5.49999996464319
 70
   192
  0
VERTEX
  5
1242
330
1024
100
AcDbEntity
  8
0
 62
     7
100
AcDbVertex
100
AcDbPolyFaceMeshVertex
 10
3.999998048324489
 20
13.78324604034424
 30
5.844606364179323
 70
   192
  0
VERTEX
  5
1243
330
1024
100
AcDbEntity
  8
0
 62
     7
100
AcDbVertex
100
AcDbPolyFaceMeshVertex
 10
-0.0000000443268817
 20
13.78324604034424
 30
5.844606364179323
 70
   192
  0
VERTEX
  5
1244
330
1024
100
AcDbEntity
  8
0
 62
     7
100
AcDbVertex
100
AcDbPolyFaceMeshVertex
 10
-0.0000000443268817
 20
14.91769218444824
 30
5.49999996464319
 70
   192
  0
VERTEX
  5
1245
330
1024
100
AcDbEntity
  8
0
 62
     7
100
AcDbVertex
100
AcDbPolyFaceMeshVertex
 10
-0.0000000443268817
 20
10.91769218444824
 30
5.49999996464319
 70
   192
  0
VERTEX
  5
1246
330
1024
100
AcDbEntity
  8
0
 62
     7
100
AcDbVertex
100
AcDbPolyFaceMeshVertex
 10
-0.0000000443268817
 20
12.05213832855224
 30
5.844606364179323
 70
   192
  0
VERTEX
  5
1247
330
1024
100
AcDbEntity
  8
0
 62
     7
100
AcDbVertex
100
AcDbPolyFaceMeshVertex
 10
3.999998048324489
 20
12.91769218444824
 30
5.939766848493286
 70
   192
  0
VERTEX
  5
1248
330
1024
100
AcDbEntity
  8
0
 62
     7
100
AcDbVertex
100
AcDbPolyFaceMeshVertex
 10
1.134447053451449
 20
10.91769218444824
 30
5.844606364179323
 70
   192
  0
VERTEX
  5
1249
330
1024
100
AcDbEntity
  8
0
 62
     7
100
AcDbVertex
100
AcDbPolyFaceMeshVertex
 10
-0.0000000443268817
 20
12.91769218444824
 30
5.939766848493286
 70
   192
  0
VERTEX
  5
124A
330
1024
100
AcDbEntity
  8
0
 62
     7
100
AcDbVertex
100
AcDbPolyFaceMeshVertex
 10
2.865552857894794
 20
14.91769218444824
 30
5.844606364179323
 70
   192
  0
VERTEX
  5
124B
330
1024
100
AcDbEntity
  8
0
 62
     7
100
AcDbVertex
100
AcDbPolyFaceMeshVertex
 10
-0.0000000443268817
 20
13.93653202056885
 30
16.14946171085901
 70
   192
  0
VERTEX
  5
124C
330
1024
100
AcDbEntity
  8
0
 62
     7
100
AcDbVertex
100
AcDbPolyFaceMeshVertex
 10
1.999998048324489
 20
14.91769218444824
 30
16.01897426884241
 70
   192
  0
VERTEX
  5
124D
330
1024
100
AcDbEntity
  8
0
 62
     7
100
AcDbVertex
100
AcDbPolyFaceMeshVertex
 10
0.9811591658781964
 20
14.91769218444824
 30
16.14946171085901
 70
   192
  0
VERTEX
  5
124E
330
1024
100
AcDbEntity
  8
0
 62
     7
100
AcDbVertex
100
AcDbPolyFaceMeshVertex
 10
3.362066224594013
 20
11.04296684265136
 30
16.19005581181116
 70
   192
  0
VERTEX
  5
124F
330
1024
100
AcDbEntity
  8
0
 62
     7
100
AcDbVertex
100
AcDbPolyFaceMeshVertex
 10
0.9811591658781964
 20
10.91769218444824
 30
16.14946171085901
 70
   192
  0
VERTEX
  5
1250
330
1024
100
AcDbEntity
  8
0
 62
     7
100
AcDbVertex
100
AcDbPolyFaceMeshVertex
 10
1.999998048324489
 20
10.91769218444824
 30
16.01897426884241
 70
   192
  0
VERTEX
  5
1251
330
1024
100
AcDbEntity
  8
0
 62
     7
100
AcDbVertex
100
AcDbPolyFaceMeshVertex
 10
0.1252746138762468
 20
11.55562496185303
 30
16.19005581181116
 70
   192
  0
VERTEX
  5
1252
330
1024
100
AcDbEntity
  8
0
 62
     7
100
AcDbVertex
100
AcDbPolyFaceMeshVertex
 10
-0.0000000443268817
 20
12.91769218444824
 30
16.01897426884241
 70
   192
  0
VERTEX
  5
1253
330
1024
100
AcDbEntity
  8
0
 62
     7
100
AcDbVertex
100
AcDbPolyFaceMeshVertex
 10
3.874723390121371
 20
14.27975940704345
 30
16.19005581181116
 70
   192
  0
VERTEX
  5
1254
330
1024
100
AcDbEntity
  8
0
 62
     7
100
AcDbVertex
100
AcDbPolyFaceMeshVertex
 10
-0.0000000443268817
 20
11.89885234832763
 30
16.14946171085901
 70
   192
  0
VERTEX
  5
1255
330
1024
100
AcDbEntity
  8
0
 62
     7
100
AcDbVertex
100
AcDbPolyFaceMeshVertex
 10
-0.0000000443268817
 20
10.91769218444824
 30
16.49999996464319
 70
   192
  0
VERTEX
  5
1256
330
1024
100
AcDbEntity
  8
0
 62
     7
100
AcDbVertex
100
AcDbPolyFaceMeshVertex
 10
0.1252746138762468
 20
14.27975940704345
 30
16.19005581181116
 70
   192
  0
VERTEX
  5
1257
330
1024
100
AcDbEntity
  8
0
 62
     7
100
AcDbVertex
100
AcDbPolyFaceMeshVertex
 10
3.018838838119403
 20
14.91769218444824
 30
16.14946171085901
 70
   192
  0
VERTEX
  5
1258
330
1024
100
AcDbEntity
  8
0
 62
     7
100
AcDbVertex
100
AcDbPolyFaceMeshVertex
 10
3.999998048324489
 20
13.93653202056885
 30
16.14946171085901
 70
   192
  0
VERTEX
  5
1259
330
1024
100
AcDbEntity
  8
0
 62
     7
100
AcDbVertex
100
AcDbPolyFaceMeshVertex
 10
3.999998048324489
 20
14.91769218444824
 30
16.49999996464319
 70
   192
  0
VERTEX
  5
125A
330
1024
100
AcDbEntity
  8
0
 62
     7
100
AcDbVertex
100
AcDbPolyFaceMeshVertex
 10
3.999998048324489
 20
11.89885234832763
 30
16.14946171085901
 70
   192
  0
VERTEX
  5
125B
330
1024
100
AcDbEntity
  8
0
 62
     7
100
AcDbVertex
100
AcDbPolyFaceMeshVertex
 10
3.999998048324489
 20
12.91769218444824
 30
16.01897426884241
 70
   192
  0
VERTEX
  5
125C
330
1024
100
AcDbEntity
  8
0
 62
     7
100
AcDbVertex
100
AcDbPolyFaceMeshVertex
 10
3.018838838119403
 20
10.91769218444824
 30
16.14946171085901
 70
   192
  0
VERTEX
  5
125D
330
1024
100
AcDbEntity
  8
0
 62
     7
100
AcDbVertex
100
AcDbPolyFaceMeshVertex
 10
3.999998048324489
 20
10.91769218444824
 30
16.49999996464319
 70
   192
  0
VERTEX
  5
125E
330
1024
100
AcDbEntity
  8
0
 62
     7
100
AcDbVertex
100
AcDbPolyFaceMeshVertex
 10
-0.0000000443268817
 20
14.91769218444824
 30
16.49999996464319
 70
   192
  0
VERTEX
  5
125F
330
1024
100
AcDbEntity
  8
0
 62
     7
100
AcDbVertex
100
AcDbPolyFaceMeshVertex
 10
0.6379317794035871
 20
11.04296684265136
 30
16.19005581181116
 70
   192
  0
VERTEX
  5
1260
330
1024
100
AcDbEntity
  8
0
 62
     7
100
AcDbVertex
100
AcDbPolyFaceMeshVertex
 10
3.874723390121371
 20
11.55562496185303
 30
16.19005581181116
 70
   192
  0
VERTEX
  5
1261
330
1024
100
AcDbEntity
  8
0
 62
     7
100
AcDbVertex
100
AcDbPolyFaceMeshVertex
 10
3.362066224594013
 20
14.79241752624512
 30
16.19005581181116
 70
   192
  0
VERTEX
  5
1262
330
1024
100
AcDbEntity
  8
0
 62
     7
100
AcDbVertex
100
AcDbPolyFaceMeshVertex
 10
0.6379317794035871
 20
14.79241752624512
 30
16.19005581181116
 70
   192
  0
VERTEX
  5
1263
330
1024
100
AcDbEntity
  8
0
 62
     7
100
AcDbVertex
100
AcDbPolyFaceMeshVertex
 10
-0.0000000443268817
 20
10.91769218444824
 30
34.49999996464319
 70
   192
  0
VERTEX
  5
1264
330
1024
100
AcDbEntity
  8
0
 62
     7
100
AcDbVertex
100
AcDbPolyFaceMeshVertex
 10
-0.0000000443268817
 20
14.91769218444824
 30
34.49999996464319
 70
   192
  0
VERTEX
  5
1265
330
1024
100
AcDbEntity
  8
0
 62
     7
100
AcDbVertex
100
AcDbPolyFaceMeshVertex
 10
3.999998048324489
 20
10.91769218444824
 30
34.49999996464319
 70
   192
  0
VERTEX
  5
1266
330
1024
100
AcDbEntity
  8
0
 62
     7
100
AcDbVertex
100
AcDbPolyFaceMeshVertex
 10
3.999998048324489
 20
14.91769218444824
 30
34.49999996464319
 70
   192
  0
VERTEX
  5
1267
330
1024
100
AcDbEntity
  8
0
 62
     7
100
AcDbVertex
100
AcDbPolyFaceMeshVertex
 10
3.999998048324489
 20
10.91769218444824
 30
-0.000000035356809
 70
   192
  0
VERTEX
  5
1268
330
1024
100
AcDbEntity
  8
0
 62
     7
100
AcDbVertex
100
AcDbPolyFaceMeshVertex
 10
3.999998048324489
 20
14.91769218444824
 30
-0.000000035356809
 70
   192
  0
VERTEX
  5
1269
330
1024
100
AcDbEntity
  8
0
 62
     7
100
AcDbVertex
100
AcDbPolyFaceMeshVertex
 10
-0.0000000443268817
 20
14.91769218444824
 30
-0.000000035356809
 70
   192
  0
VERTEX
  5
126A
330
1024
100
AcDbEntity
  8
0
 62
     7
100
AcDbVertex
100
AcDbPolyFaceMeshVertex
 10
-0.0000000443268817
 20
10.91769218444824
 30
-0.000000035356809
 70
   192
  0
VERTEX
  5
126B
330
1024
100
AcDbEntity
  8
0
 62
     7
100
AcDbFaceRecord
 10
0.0
 20
0.0
 30
0.0
 70
   128
 71
     1
 72
     2
 73
     3
  0
VERTEX
  5
126C
330
1024
100
AcDbEntity
  8
0
 62
     7
100
AcDbFaceRecord
 10
0.0
 20
0.0
 30
0.0
 70
   128
 71
     1
 72
     4
 73
     2
  0
VERTEX
  5
126D
330
1024
100
AcDbEntity
  8
0
 62
     7
100
AcDbFaceRecord
 10
0.0
 20
0.0
 30
0.0
 70
   128
 71
     4
 72
     5
 73
     6
  0
VERTEX
  5
126E
330
1024
100
AcDbEntity
  8
0
 62
     7
100
AcDbFaceRecord
 10
0.0
 20
0.0
 30
0.0
 70
   128
 71
     7
 72
     1
 73
     8
  0
VERTEX
  5
126F
330
1024
100
AcDbEntity
  8
0
 62
     7
100
AcDbFaceRecord
 10
0.0
 20
0.0
 30
0.0
 70
   128
 71
     7
 72
     4
 73
     1
  0
VERTEX
  5
1270
330
1024
100
AcDbEntity
  8
0
 62
     7
100
AcDbFaceRecord
 10
0.0
 20
0.0
 30
0.0
 70
   128
 71
     7
 72
     5
 73
     4
  0
VERTEX
  5
1271
330
1024
100
AcDbEntity
  8
0
 62
     7
100
AcDbFaceRecord
 10
0.0
 20
0.0
 30
0.0
 70
   128
 71
     9
 72
     5
 73
     7
  0
VERTEX
  5
1272
330
1024
100
AcDbEntity
  8
0
 62
     7
100
AcDbFaceRecord
 10
0.0
 20
0.0
 30
0.0
 70
   128
 71
     9
 72
    10
 73
     5
  0
VERTEX
  5
1273
330
1024
100
AcDbEntity
  8
0
 62
     7
100
AcDbFaceRecord
 10
0.0
 20
0.0
 30
0.0
 70
   128
 71
    10
 72
    11
 73
    12
  0
VERTEX
  5
1274
330
1024
100
AcDbEntity
  8
0
 62
     7
100
AcDbFaceRecord
 10
0.0
 20
0.0
 30
0.0
 70
   128
 71
    13
 72
     9
 73
    14
  0
VERTEX
  5
1275
330
1024
100
AcDbEntity
  8
0
 62
     7
100
AcDbFaceRecord
 10
0.0
 20
0.0
 30
0.0
 70
   128
 71
    13
 72
    10
 73
     9
  0
VERTEX
  5
1276
330
1024
100
AcDbEntity
  8
0
 62
     7
100
AcDbFaceRecord
 10
0.0
 20
0.0
 30
0.0
 70
   128
 71
    13
 72
    11
 73
    10
  0
VERTEX
  5
1277
330
1024
100
AcDbEntity
  8
0
 62
     7
100
AcDbFaceRecord
 10
0.0
 20
0.0
 30
0.0
 70
   128
 71
    15
 72
    11
 73
    13
  0
VERTEX
  5
1278
330
1024
100
AcDbEntity
  8
0
 62
     7
100
AcDbFaceRecord
 10
0.0
 20
0.0
 30
0.0
 70
   128
 71
    15
 72
    16
 73
    11
  0
VERTEX
  5
1279
330
1024
100
AcDbEntity
  8
0
 62
     7
100
AcDbFaceRecord
 10
0.0
 20
0.0
 30
0.0
 70
   128
 71
    17
 72
    18
 73
    19
  0
VERTEX
  5
127A
330
1024
100
AcDbEntity
  8
0
 62
     7
100
AcDbFaceRecord
 10
0.0
 20
0.0
 30
0.0
 70
   128
 71
    18
 72
    20
 73
    16
  0
VERTEX
  5
127B
330
1024
100
AcDbEntity
  8
0
 62
     7
100
AcDbFaceRecord
 10
0.0
 20
0.0
 30
0.0
 70
   128
 71
    21
 72
    15
 73
    22
  0
VERTEX
  5
127C
330
1024
100
AcDbEntity
  8
0
 62
     7
100
AcDbFaceRecord
 10
0.0
 20
0.0
 30
0.0
 70
   128
 71
    21
 72
    16
 73
    15
  0
VERTEX
  5
127D
330
1024
100
AcDbEntity
  8
0
 62
     7
100
AcDbFaceRecord
 10
0.0
 20
0.0
 30
0.0
 70
   128
 71
    21
 72
    18
 73
    16
  0
VERTEX
  5
127E
330
1024
100
AcDbEntity
  8
0
 62
     7
100
AcDbFaceRecord
 10
0.0
 20
0.0
 30
0.0
 70
   128
 71
    21
 72
    19
 73
    18
  0
VERTEX
  5
127F
330
1024
100
AcDbEntity
  8
0
 62
     7
100
AcDbFaceRecord
 10
0.0
 20
0.0
 30
0.0
 70
   128
 71
    23
 72
    24
 73
    25
  0
VERTEX
  5
1280
330
1024
100
AcDbEntity
  8
0
 62
     7
100
AcDbFaceRecord
 10
0.0
 20
0.0
 30
0.0
 70
   128
 71
     3
 72
    26
 73
    27
  0
VERTEX
  5
1281
330
1024
100
AcDbEntity
  8
0
 62
     7
100
AcDbFaceRecord
 10
0.0
 20
0.0
 30
0.0
 70
   128
 71
    28
 72
     2
 73
    29
  0
VERTEX
  5
1282
330
1024
100
AcDbEntity
  8
0
 62
     7
100
AcDbFaceRecord
 10
0.0
 20
0.0
 30
0.0
 70
   128
 71
    28
 72
     3
 73
     2
  0
VERTEX
  5
1283
330
1024
100
AcDbEntity
  8
0
 62
     7
100
AcDbFaceRecord
 10
0.0
 20
0.0
 30
0.0
 70
   128
 71
    28
 72
    26
 73
     3
  0
VERTEX
  5
1284
330
1024
100
AcDbEntity
  8
0
 62
     7
100
AcDbFaceRecord
 10
0.0
 20
0.0
 30
0.0
 70
   128
 71
    30
 72
    24
 73
    23
  0
VERTEX
  5
1285
330
1024
100
AcDbEntity
  8
0
 62
     7
100
AcDbFaceRecord
 10
0.0
 20
0.0
 30
0.0
 70
   128
 71
    31
 72
    26
 73
    28
  0
VERTEX
  5
1286
330
1024
100
AcDbEntity
  8
0
 62
     7
100
AcDbFaceRecord
 10
0.0
 20
0.0
 30
0.0
 70
   128
 71
    31
 72
    24
 73
    26
  0
VERTEX
  5
1287
330
1024
100
AcDbEntity
  8
0
 62
     7
100
AcDbFaceRecord
 10
0.0
 20
0.0
 30
0.0
 70
   128
 71
    31
 72
    25
 73
    24
  0
VERTEX
  5
1288
330
1024
100
AcDbEntity
  8
0
 62
     7
100
AcDbFaceRecord
 10
0.0
 20
0.0
 30
0.0
 70
   128
 71
    31
 72
    32
 73
    25
  0
VERTEX
  5
1289
330
1024
100
AcDbEntity
  8
0
 62
     7
100
AcDbFaceRecord
 10
0.0
 20
0.0
 30
0.0
 70
   128
 71
    33
 72
    34
 73
    35
  0
VERTEX
  5
128A
330
1024
100
AcDbEntity
  8
0
 62
     7
100
AcDbFaceRecord
 10
0.0
 20
0.0
 30
0.0
 70
   128
 71
    36
 72
    32
 73
    37
  0
VERTEX
  5
128B
330
1024
100
AcDbEntity
  8
0
 62
     7
100
AcDbFaceRecord
 10
0.0
 20
0.0
 30
0.0
 70
   128
 71
    38
 72
    27
 73
    39
  0
VERTEX
  5
128C
330
1024
100
AcDbEntity
  8
0
 62
     7
100
AcDbFaceRecord
 10
0.0
 20
0.0
 30
0.0
 70
   128
 71
    40
 72
    29
 73
    41
  0
VERTEX
  5
128D
330
1024
100
AcDbEntity
  8
0
 62
     7
100
AcDbFaceRecord
 10
0.0
 20
0.0
 30
0.0
 70
   128
 71
    42
 72
     8
 73
    43
  0
VERTEX
  5
128E
330
1024
100
AcDbEntity
  8
0
 62
     7
100
AcDbFaceRecord
 10
0.0
 20
0.0
 30
0.0
 70
   128
 71
    44
 72
     6
 73
    45
  0
VERTEX
  5
128F
330
1024
100
AcDbEntity
  8
0
 62
     7
100
AcDbFaceRecord
 10
0.0
 20
0.0
 30
0.0
 70
   128
 71
    46
 72
    14
 73
    47
  0
VERTEX
  5
1290
330
1024
100
AcDbEntity
  8
0
 62
     7
100
AcDbFaceRecord
 10
0.0
 20
0.0
 30
0.0
 70
   128
 71
    48
 72
    12
 73
    49
  0
VERTEX
  5
1291
330
1024
100
AcDbEntity
  8
0
 62
     7
100
AcDbFaceRecord
 10
0.0
 20
0.0
 30
0.0
 70
   128
 71
    50
 72
    22
 73
    51
  0
VERTEX
  5
1292
330
1024
100
AcDbEntity
  8
0
 62
     7
100
AcDbFaceRecord
 10
0.0
 20
0.0
 30
0.0
 70
   128
 71
    52
 72
    53
 73
    54
  0
VERTEX
  5
1293
330
1024
100
AcDbEntity
  8
0
 62
     7
100
AcDbFaceRecord
 10
0.0
 20
0.0
 30
0.0
 70
   128
 71
    55
 72
    30
 73
    56
  0
VERTEX
  5
1294
330
1024
100
AcDbEntity
  8
0
 62
     7
100
AcDbFaceRecord
 10
0.0
 20
0.0
 30
0.0
 70
   128
 71
    57
 72
    19
 73
    53
  0
VERTEX
  5
1295
330
1024
100
AcDbEntity
  8
0
 62
     7
100
AcDbFaceRecord
 10
0.0
 20
0.0
 30
0.0
 70
   128
 71
    57
 72
    17
 73
    19
  0
VERTEX
  5
1296
330
1024
100
AcDbEntity
  8
0
 62
     7
100
AcDbFaceRecord
 10
0.0
 20
0.0
 30
0.0
 70
   128
 71
    58
 72
    20
 73
    59
  0
VERTEX
  5
1297
330
1024
100
AcDbEntity
  8
0
 62
     7
100
AcDbFaceRecord
 10
0.0
 20
0.0
 30
0.0
 70
   128
 71
    60
 72
    23
 73
    25
  0
VERTEX
  5
1298
330
1024
100
AcDbEntity
  8
0
 62
     7
100
AcDbFaceRecord
 10
0.0
 20
0.0
 30
0.0
 70
   128
 71
    60
 72
    57
 73
    23
  0
VERTEX
  5
1299
330
1024
100
AcDbEntity
  8
0
 62
     7
100
AcDbFaceRecord
 10
0.0
 20
0.0
 30
0.0
 70
   128
 71
    60
 72
    17
 73
    57
  0
VERTEX
  5
129A
330
1024
100
AcDbEntity
  8
0
 62
     7
100
AcDbFaceRecord
 10
0.0
 20
0.0
 30
0.0
 70
   128
 71
    60
 72
    34
 73
    17
  0
VERTEX
  5
129B
330
1024
100
AcDbEntity
  8
0
 62
     7
100
AcDbFaceRecord
 10
0.0
 20
0.0
 30
0.0
 70
   128
 71
    61
 72
    30
 73
    55
  0
VERTEX
  5
129C
330
1024
100
AcDbEntity
  8
0
 62
     7
100
AcDbFaceRecord
 10
0.0
 20
0.0
 30
0.0
 70
   128
 71
    61
 72
    24
 73
    30
  0
VERTEX
  5
129D
330
1024
100
AcDbEntity
  8
0
 62
     7
100
AcDbFaceRecord
 10
0.0
 20
0.0
 30
0.0
 70
   128
 71
    61
 72
    26
 73
    24
  0
VERTEX
  5
129E
330
1024
100
AcDbEntity
  8
0
 62
     7
100
AcDbFaceRecord
 10
0.0
 20
0.0
 30
0.0
 70
   128
 71
    61
 72
    27
 73
    26
  0
VERTEX
  5
129F
330
1024
100
AcDbEntity
  8
0
 62
     7
100
AcDbFaceRecord
 10
0.0
 20
0.0
 30
0.0
 70
   128
 71
    61
 72
    39
 73
    27
  0
VERTEX
  5
12A0
330
1024
100
AcDbEntity
  8
0
 62
     7
100
AcDbFaceRecord
 10
0.0
 20
0.0
 30
0.0
 70
   128
 71
    39
 72
    61
 73
    55
  0
VERTEX
  5
12A1
330
1024
100
AcDbEntity
  8
0
 62
     7
100
AcDbFaceRecord
 10
0.0
 20
0.0
 30
0.0
 70
   128
 71
    62
 72
    53
 73
    52
  0
VERTEX
  5
12A2
330
1024
100
AcDbEntity
  8
0
 62
     7
100
AcDbFaceRecord
 10
0.0
 20
0.0
 30
0.0
 70
   128
 71
    62
 72
    57
 73
    53
  0
VERTEX
  5
12A3
330
1024
100
AcDbEntity
  8
0
 62
     7
100
AcDbFaceRecord
 10
0.0
 20
0.0
 30
0.0
 70
   128
 71
    62
 72
    23
 73
    57
  0
VERTEX
  5
12A4
330
1024
100
AcDbEntity
  8
0
 62
     7
100
AcDbFaceRecord
 10
0.0
 20
0.0
 30
0.0
 70
   128
 71
    62
 72
    30
 73
    23
  0
VERTEX
  5
12A5
330
1024
100
AcDbEntity
  8
0
 62
     7
100
AcDbFaceRecord
 10
0.0
 20
0.0
 30
0.0
 70
   128
 71
    62
 72
    56
 73
    30
  0
VERTEX
  5
12A6
330
1024
100
AcDbEntity
  8
0
 62
     7
100
AcDbFaceRecord
 10
0.0
 20
0.0
 30
0.0
 70
   128
 71
    56
 72
    62
 73
    52
  0
VERTEX
  5
12A7
330
1024
100
AcDbEntity
  8
0
 62
     7
100
AcDbFaceRecord
 10
0.0
 20
0.0
 30
0.0
 70
   128
 71
    63
 72
    22
 73
    50
  0
VERTEX
  5
12A8
330
1024
100
AcDbEntity
  8
0
 62
     7
100
AcDbFaceRecord
 10
0.0
 20
0.0
 30
0.0
 70
   128
 71
    63
 72
    21
 73
    22
  0
VERTEX
  5
12A9
330
1024
100
AcDbEntity
  8
0
 62
     7
100
AcDbFaceRecord
 10
0.0
 20
0.0
 30
0.0
 70
   128
 71
    63
 72
    19
 73
    21
  0
VERTEX
  5
12AA
330
1024
100
AcDbEntity
  8
0
 62
     7
100
AcDbFaceRecord
 10
0.0
 20
0.0
 30
0.0
 70
   128
 71
    63
 72
    53
 73
    19
  0
VERTEX
  5
12AB
330
1024
100
AcDbEntity
  8
0
 62
     7
100
AcDbFaceRecord
 10
0.0
 20
0.0
 30
0.0
 70
   128
 71
    63
 72
    54
 73
    53
  0
VERTEX
  5
12AC
330
1024
100
AcDbEntity
  8
0
 62
     7
100
AcDbFaceRecord
 10
0.0
 20
0.0
 30
0.0
 70
   128
 71
    54
 72
    63
 73
    50
  0
VERTEX
  5
12AD
330
1024
100
AcDbEntity
  8
0
 62
     7
100
AcDbFaceRecord
 10
0.0
 20
0.0
 30
0.0
 70
   128
 71
    64
 72
    14
 73
    46
  0
VERTEX
  5
12AE
330
1024
100
AcDbEntity
  8
0
 62
     7
100
AcDbFaceRecord
 10
0.0
 20
0.0
 30
0.0
 70
   128
 71
    64
 72
    13
 73
    14
  0
VERTEX
  5
12AF
330
1024
100
AcDbEntity
  8
0
 62
     7
100
AcDbFaceRecord
 10
0.0
 20
0.0
 30
0.0
 70
   128
 71
    64
 72
    15
 73
    13
  0
VERTEX
  5
12B0
330
1024
100
AcDbEntity
  8
0
 62
     7
100
AcDbFaceRecord
 10
0.0
 20
0.0
 30
0.0
 70
   128
 71
    64
 72
    22
 73
    15
  0
VERTEX
  5
12B1
330
1024
100
AcDbEntity
  8
0
 62
     7
100
AcDbFaceRecord
 10
0.0
 20
0.0
 30
0.0
 70
   128
 71
    64
 72
    51
 73
    22
  0
VERTEX
  5
12B2
330
1024
100
AcDbEntity
  8
0
 62
     7
100
AcDbFaceRecord
 10
0.0
 20
0.0
 30
0.0
 70
   128
 71
    51
 72
    64
 73
    46
  0
VERTEX
  5
12B3
330
1024
100
AcDbEntity
  8
0
 62
     7
100
AcDbFaceRecord
 10
0.0
 20
0.0
 30
0.0
 70
   128
 71
    65
 72
     8
 73
    42
  0
VERTEX
  5
12B4
330
1024
100
AcDbEntity
  8
0
 62
     7
100
AcDbFaceRecord
 10
0.0
 20
0.0
 30
0.0
 70
   128
 71
    65
 72
     7
 73
     8
  0
VERTEX
  5
12B5
330
1024
100
AcDbEntity
  8
0
 62
     7
100
AcDbFaceRecord
 10
0.0
 20
0.0
 30
0.0
 70
   128
 71
    65
 72
     9
 73
     7
  0
VERTEX
  5
12B6
330
1024
100
AcDbEntity
  8
0
 62
     7
100
AcDbFaceRecord
 10
0.0
 20
0.0
 30
0.0
 70
   128
 71
    65
 72
    14
 73
     9
  0
VERTEX
  5
12B7
330
1024
100
AcDbEntity
  8
0
 62
     7
100
AcDbFaceRecord
 10
0.0
 20
0.0
 30
0.0
 70
   128
 71
    65
 72
    47
 73
    14
  0
VERTEX
  5
12B8
330
1024
100
AcDbEntity
  8
0
 62
     7
100
AcDbFaceRecord
 10
0.0
 20
0.0
 30
0.0
 70
   128
 71
    47
 72
    65
 73
    42
  0
VERTEX
  5
12B9
330
1024
100
AcDbEntity
  8
0
 62
     7
100
AcDbFaceRecord
 10
0.0
 20
0.0
 30
0.0
 70
   128
 71
    66
 72
    27
 73
    38
  0
VERTEX
  5
12BA
330
1024
100
AcDbEntity
  8
0
 62
     7
100
AcDbFaceRecord
 10
0.0
 20
0.0
 30
0.0
 70
   128
 71
    66
 72
     3
 73
    27
  0
VERTEX
  5
12BB
330
1024
100
AcDbEntity
  8
0
 62
     7
100
AcDbFaceRecord
 10
0.0
 20
0.0
 30
0.0
 70
   128
 71
    66
 72
     1
 73
     3
  0
VERTEX
  5
12BC
330
1024
100
AcDbEntity
  8
0
 62
     7
100
AcDbFaceRecord
 10
0.0
 20
0.0
 30
0.0
 70
   128
 71
    66
 72
     8
 73
     1
  0
VERTEX
  5
12BD
330
1024
100
AcDbEntity
  8
0
 62
     7
100
AcDbFaceRecord
 10
0.0
 20
0.0
 30
0.0
 70
   128
 71
    66
 72
    43
 73
     8
  0
VERTEX
  5
12BE
330
1024
100
AcDbEntity
  8
0
 62
     7
100
AcDbFaceRecord
 10
0.0
 20
0.0
 30
0.0
 70
   128
 71
    43
 72
    66
 73
    38
  0
VERTEX
  5
12BF
330
1024
100
AcDbEntity
  8
0
 62
     7
100
AcDbFaceRecord
 10
0.0
 20
0.0
 30
0.0
 70
   128
 71
    67
 72
    29
 73
    40
  0
VERTEX
  5
12C0
330
1024
100
AcDbEntity
  8
0
 62
     7
100
AcDbFaceRecord
 10
0.0
 20
0.0
 30
0.0
 70
   128
 71
    67
 72
    28
 73
    29
  0
VERTEX
  5
12C1
330
1024
100
AcDbEntity
  8
0
 62
     7
100
AcDbFaceRecord
 10
0.0
 20
0.0
 30
0.0
 70
   128
 71
    67
 72
    31
 73
    28
  0
VERTEX
  5
12C2
330
1024
100
AcDbEntity
  8
0
 62
     7
100
AcDbFaceRecord
 10
0.0
 20
0.0
 30
0.0
 70
   128
 71
    67
 72
    32
 73
    31
  0
VERTEX
  5
12C3
330
1024
100
AcDbEntity
  8
0
 62
     7
100
AcDbFaceRecord
 10
0.0
 20
0.0
 30
0.0
 70
   128
 71
    67
 72
    37
 73
    32
  0
VERTEX
  5
12C4
330
1024
100
AcDbEntity
  8
0
 62
     7
100
AcDbFaceRecord
 10
0.0
 20
0.0
 30
0.0
 70
   128
 71
    37
 72
    67
 73
    40
  0
VERTEX
  5
12C5
330
1024
100
AcDbEntity
  8
0
 62
     7
100
AcDbFaceRecord
 10
0.0
 20
0.0
 30
0.0
 70
   128
 71
    68
 72
     6
 73
    44
  0
VERTEX
  5
12C6
330
1024
100
AcDbEntity
  8
0
 62
     7
100
AcDbFaceRecord
 10
0.0
 20
0.0
 30
0.0
 70
   128
 71
    68
 72
     4
 73
     6
  0
VERTEX
  5
12C7
330
1024
100
AcDbEntity
  8
0
 62
     7
100
AcDbFaceRecord
 10
0.0
 20
0.0
 30
0.0
 70
   128
 71
    68
 72
     2
 73
     4
  0
VERTEX
  5
12C8
330
1024
100
AcDbEntity
  8
0
 62
     7
100
AcDbFaceRecord
 10
0.0
 20
0.0
 30
0.0
 70
   128
 71
    68
 72
    29
 73
     2
  0
VERTEX
  5
12C9
330
1024
100
AcDbEntity
  8
0
 62
     7
100
AcDbFaceRecord
 10
0.0
 20
0.0
 30
0.0
 70
   128
 71
    68
 72
    41
 73
    29
  0
VERTEX
  5
12CA
330
1024
100
AcDbEntity
  8
0
 62
     7
100
AcDbFaceRecord
 10
0.0
 20
0.0
 30
0.0
 70
   128
 71
    41
 72
    68
 73
    44
  0
VERTEX
  5
12CB
330
1024
100
AcDbEntity
  8
0
 62
     7
100
AcDbFaceRecord
 10
0.0
 20
0.0
 30
0.0
 70
   128
 71
    69
 72
    12
 73
    48
  0
VERTEX
  5
12CC
330
1024
100
AcDbEntity
  8
0
 62
     7
100
AcDbFaceRecord
 10
0.0
 20
0.0
 30
0.0
 70
   128
 71
    69
 72
    10
 73
    12
  0
VERTEX
  5
12CD
330
1024
100
AcDbEntity
  8
0
 62
     7
100
AcDbFaceRecord
 10
0.0
 20
0.0
 30
0.0
 70
   128
 71
    69
 72
     5
 73
    10
  0
VERTEX
  5
12CE
330
1024
100
AcDbEntity
  8
0
 62
     7
100
AcDbFaceRecord
 10
0.0
 20
0.0
 30
0.0
 70
   128
 71
    69
 72
     6
 73
     5
  0
VERTEX
  5
12CF
330
1024
100
AcDbEntity
  8
0
 62
     7
100
AcDbFaceRecord
 10
0.0
 20
0.0
 30
0.0
 70
   128
 71
    69
 72
    45
 73
     6
  0
VERTEX
  5
12D0
330
1024
100
AcDbEntity
  8
0
 62
     7
100
AcDbFaceRecord
 10
0.0
 20
0.0
 30
0.0
 70
   128
 71
    45
 72
    69
 73
    48
  0
VERTEX
  5
12D1
330
1024
100
AcDbEntity
  8
0
 62
     7
100
AcDbFaceRecord
 10
0.0
 20
0.0
 30
0.0
 70
   128
 71
    70
 72
    20
 73
    58
  0
VERTEX
  5
12D2
330
1024
100
AcDbEntity
  8
0
 62
     7
100
AcDbFaceRecord
 10
0.0
 20
0.0
 30
0.0
 70
   128
 71
    70
 72
    16
 73
    20
  0
VERTEX
  5
12D3
330
1024
100
AcDbEntity
  8
0
 62
     7
100
AcDbFaceRecord
 10
0.0
 20
0.0
 30
0.0
 70
   128
 71
    70
 72
    11
 73
    16
  0
VERTEX
  5
12D4
330
1024
100
AcDbEntity
  8
0
 62
     7
100
AcDbFaceRecord
 10
0.0
 20
0.0
 30
0.0
 70
   128
 71
    70
 72
    12
 73
    11
  0
VERTEX
  5
12D5
330
1024
100
AcDbEntity
  8
0
 62
     7
100
AcDbFaceRecord
 10
0.0
 20
0.0
 30
0.0
 70
   128
 71
    70
 72
    49
 73
    12
  0
VERTEX
  5
12D6
330
1024
100
AcDbEntity
  8
0
 62
     7
100
AcDbFaceRecord
 10
0.0
 20
0.0
 30
0.0
 70
   128
 71
    49
 72
    70
 73
    58
  0
VERTEX
  5
12D7
330
1024
100
AcDbEntity
  8
0
 62
     7
100
AcDbFaceRecord
 10
0.0
 20
0.0
 30
0.0
 70
   128
 71
    71
 72
    34
 73
    33
  0
VERTEX
  5
12D8
330
1024
100
AcDbEntity
  8
0
 62
     7
100
AcDbFaceRecord
 10
0.0
 20
0.0
 30
0.0
 70
   128
 71
    71
 72
    17
 73
    34
  0
VERTEX
  5
12D9
330
1024
100
AcDbEntity
  8
0
 62
     7
100
AcDbFaceRecord
 10
0.0
 20
0.0
 30
0.0
 70
   128
 71
    71
 72
    18
 73
    17
  0
VERTEX
  5
12DA
330
1024
100
AcDbEntity
  8
0
 62
     7
100
AcDbFaceRecord
 10
0.0
 20
0.0
 30
0.0
 70
   128
 71
    71
 72
    20
 73
    18
  0
VERTEX
  5
12DB
330
1024
100
AcDbEntity
  8
0
 62
     7
100
AcDbFaceRecord
 10
0.0
 20
0.0
 30
0.0
 70
   128
 71
    71
 72
    59
 73
    20
  0
VERTEX
  5
12DC
330
1024
100
AcDbEntity
  8
0
 62
     7
100
AcDbFaceRecord
 10
0.0
 20
0.0
 30
0.0
 70
   128
 71
    59
 72
    71
 73
    33
  0
VERTEX
  5
12DD
330
1024
100
AcDbEntity
  8
0
 62
     7
100
AcDbFaceRecord
 10
0.0
 20
0.0
 30
0.0
 70
   128
 71
    72
 72
    32
 73
    36
  0
VERTEX
  5
12DE
330
1024
100
AcDbEntity
  8
0
 62
     7
100
AcDbFaceRecord
 10
0.0
 20
0.0
 30
0.0
 70
   128
 71
    72
 72
    25
 73
    32
  0
VERTEX
  5
12DF
330
1024
100
AcDbEntity
  8
0
 62
     7
100
AcDbFaceRecord
 10
0.0
 20
0.0
 30
0.0
 70
   128
 71
    72
 72
    60
 73
    25
  0
VERTEX
  5
12E0
330
1024
100
AcDbEntity
  8
0
 62
     7
100
AcDbFaceRecord
 10
0.0
 20
0.0
 30
0.0
 70
   128
 71
    72
 72
    34
 73
    60
  0
VERTEX
  5
12E1
330
1024
100
AcDbEntity
  8
0
 62
     7
100
AcDbFaceRecord
 10
0.0
 20
0.0
 30
0.0
 70
   128
 71
    72
 72
    35
 73
    34
  0
VERTEX
  5
12E2
330
1024
100
AcDbEntity
  8
0
 62
     7
100
AcDbFaceRecord
 10
0.0
 20
0.0
 30
0.0
 70
   128
 71
    35
 72
    72
 73
    36
  0
VERTEX
  5
12E3
330
1024
100
AcDbEntity
  8
0
 62
     7
100
AcDbFaceRecord
 10
0.0
 20
0.0
 30
0.0
 70
   128
 71
    73
 72
    74
 73
    75
  0
VERTEX
  5
12E4
330
1024
100
AcDbEntity
  8
0
 62
     7
100
AcDbFaceRecord
 10
0.0
 20
0.0
 30
0.0
 70
   128
 71
    76
 72
    77
 73
    78
  0
VERTEX
  5
12E5
330
1024
100
AcDbEntity
  8
0
 62
     7
100
AcDbFaceRecord
 10
0.0
 20
0.0
 30
0.0
 70
   128
 71
    79
 72
    80
 73
    81
  0
VERTEX
  5
12E6
330
1024
100
AcDbEntity
  8
0
 62
     7
100
AcDbFaceRecord
 10
0.0
 20
0.0
 30
0.0
 70
   128
 71
    82
 72
    83
 73
    84
  0
VERTEX
  5
12E7
330
1024
100
AcDbEntity
  8
0
 62
     7
100
AcDbFaceRecord
 10
0.0
 20
0.0
 30
0.0
 70
   128
 71
    85
 72
    86
 73
    87
  0
VERTEX
  5
12E8
330
1024
100
AcDbEntity
  8
0
 62
     7
100
AcDbFaceRecord
 10
0.0
 20
0.0
 30
0.0
 70
   128
 71
    88
 72
    89
 73
    90
  0
VERTEX
  5
12E9
330
1024
100
AcDbEntity
  8
0
 62
     7
100
AcDbFaceRecord
 10
0.0
 20
0.0
 30
0.0
 70
   128
 71
    35
 72
    36
 73
    77
  0
VERTEX
  5
12EA
330
1024
100
AcDbEntity
  8
0
 62
     7
100
AcDbFaceRecord
 10
0.0
 20
0.0
 30
0.0
 70
   128
 71
    59
 72
    33
 73
    74
  0
VERTEX
  5
12EB
330
1024
100
AcDbEntity
  8
0
 62
     7
100
AcDbFaceRecord
 10
0.0
 20
0.0
 30
0.0
 70
   128
 71
    49
 72
    58
 73
    89
  0
VERTEX
  5
12EC
330
1024
100
AcDbEntity
  8
0
 62
     7
100
AcDbFaceRecord
 10
0.0
 20
0.0
 30
0.0
 70
   128
 71
    45
 72
    48
 73
    86
  0
VERTEX
  5
12ED
330
1024
100
AcDbEntity
  8
0
 62
     7
100
AcDbFaceRecord
 10
0.0
 20
0.0
 30
0.0
 70
   128
 71
    41
 72
    44
 73
    83
  0
VERTEX
  5
12EE
330
1024
100
AcDbEntity
  8
0
 62
     7
100
AcDbFaceRecord
 10
0.0
 20
0.0
 30
0.0
 70
   128
 71
    37
 72
    40
 73
    80
  0
VERTEX
  5
12EF
330
1024
100
AcDbEntity
  8
0
 62
     7
100
AcDbFaceRecord
 10
0.0
 20
0.0
 30
0.0
 70
   128
 71
    91
 72
    80
 73
    79
  0
VERTEX
  5
12F0
330
1024
100
AcDbEntity
  8
0
 62
     7
100
AcDbFaceRecord
 10
0.0
 20
0.0
 30
0.0
 70
   128
 71
    91
 72
    37
 73
    80
  0
VERTEX
  5
12F1
330
1024
100
AcDbEntity
  8
0
 62
     7
100
AcDbFaceRecord
 10
0.0
 20
0.0
 30
0.0
 70
   128
 71
    91
 72
    36
 73
    37
  0
VERTEX
  5
12F2
330
1024
100
AcDbEntity
  8
0
 62
     7
100
AcDbFaceRecord
 10
0.0
 20
0.0
 30
0.0
 70
   128
 71
    91
 72
    77
 73
    36
  0
VERTEX
  5
12F3
330
1024
100
AcDbEntity
  8
0
 62
     7
100
AcDbFaceRecord
 10
0.0
 20
0.0
 30
0.0
 70
   128
 71
    91
 72
    78
 73
    77
  0
VERTEX
  5
12F4
330
1024
100
AcDbEntity
  8
0
 62
     7
100
AcDbFaceRecord
 10
0.0
 20
0.0
 30
0.0
 70
   128
 71
    78
 72
    91
 73
    79
  0
VERTEX
  5
12F5
330
1024
100
AcDbEntity
  8
0
 62
     7
100
AcDbFaceRecord
 10
0.0
 20
0.0
 30
0.0
 70
   128
 71
    92
 72
    83
 73
    82
  0
VERTEX
  5
12F6
330
1024
100
AcDbEntity
  8
0
 62
     7
100
AcDbFaceRecord
 10
0.0
 20
0.0
 30
0.0
 70
   128
 71
    92
 72
    41
 73
    83
  0
VERTEX
  5
12F7
330
1024
100
AcDbEntity
  8
0
 62
     7
100
AcDbFaceRecord
 10
0.0
 20
0.0
 30
0.0
 70
   128
 71
    92
 72
    40
 73
    41
  0
VERTEX
  5
12F8
330
1024
100
AcDbEntity
  8
0
 62
     7
100
AcDbFaceRecord
 10
0.0
 20
0.0
 30
0.0
 70
   128
 71
    92
 72
    80
 73
    40
  0
VERTEX
  5
12F9
330
1024
100
AcDbEntity
  8
0
 62
     7
100
AcDbFaceRecord
 10
0.0
 20
0.0
 30
0.0
 70
   128
 71
    92
 72
    81
 73
    80
  0
VERTEX
  5
12FA
330
1024
100
AcDbEntity
  8
0
 62
     7
100
AcDbFaceRecord
 10
0.0
 20
0.0
 30
0.0
 70
   128
 71
    81
 72
    92
 73
    82
  0
VERTEX
  5
12FB
330
1024
100
AcDbEntity
  8
0
 62
     7
100
AcDbFaceRecord
 10
0.0
 20
0.0
 30
0.0
 70
   128
 71
    93
 72
    86
 73
    85
  0
VERTEX
  5
12FC
330
1024
100
AcDbEntity
  8
0
 62
     7
100
AcDbFaceRecord
 10
0.0
 20
0.0
 30
0.0
 70
   128
 71
    93
 72
    45
 73
    86
  0
VERTEX
  5
12FD
330
1024
100
AcDbEntity
  8
0
 62
     7
100
AcDbFaceRecord
 10
0.0
 20
0.0
 30
0.0
 70
   128
 71
    93
 72
    44
 73
    45
  0
VERTEX
  5
12FE
330
1024
100
AcDbEntity
  8
0
 62
     7
100
AcDbFaceRecord
 10
0.0
 20
0.0
 30
0.0
 70
   128
 71
    93
 72
    83
 73
    44
  0
VERTEX
  5
12FF
330
1024
100
AcDbEntity
  8
0
 62
     7
100
AcDbFaceRecord
 10
0.0
 20
0.0
 30
0.0
 70
   128
 71
    93
 72
    84
 73
    83
  0
VERTEX
  5
1300
330
1024
100
AcDbEntity
  8
0
 62
     7
100
AcDbFaceRecord
 10
0.0
 20
0.0
 30
0.0
 70
   128
 71
    84
 72
    93
 73
    85
  0
VERTEX
  5
1301
330
1024
100
AcDbEntity
  8
0
 62
     7
100
AcDbFaceRecord
 10
0.0
 20
0.0
 30
0.0
 70
   128
 71
    94
 72
    89
 73
    88
  0
VERTEX
  5
1302
330
1024
100
AcDbEntity
  8
0
 62
     7
100
AcDbFaceRecord
 10
0.0
 20
0.0
 30
0.0
 70
   128
 71
    94
 72
    49
 73
    89
  0
VERTEX
  5
1303
330
1024
100
AcDbEntity
  8
0
 62
     7
100
AcDbFaceRecord
 10
0.0
 20
0.0
 30
0.0
 70
   128
 71
    94
 72
    48
 73
    49
  0
VERTEX
  5
1304
330
1024
100
AcDbEntity
  8
0
 62
     7
100
AcDbFaceRecord
 10
0.0
 20
0.0
 30
0.0
 70
   128
 71
    94
 72
    86
 73
    48
  0
VERTEX
  5
1305
330
1024
100
AcDbEntity
  8
0
 62
     7
100
AcDbFaceRecord
 10
0.0
 20
0.0
 30
0.0
 70
   128
 71
    94
 72
    87
 73
    86
  0
VERTEX
  5
1306
330
1024
100
AcDbEntity
  8
0
 62
     7
100
AcDbFaceRecord
 10
0.0
 20
0.0
 30
0.0
 70
   128
 71
    87
 72
    94
 73
    88
  0
VERTEX
  5
1307
330
1024
100
AcDbEntity
  8
0
 62
     7
100
AcDbFaceRecord
 10
0.0
 20
0.0
 30
0.0
 70
   128
 71
    95
 72
    74
 73
    73
  0
VERTEX
  5
1308
330
1024
100
AcDbEntity
  8
0
 62
     7
100
AcDbFaceRecord
 10
0.0
 20
0.0
 30
0.0
 70
   128
 71
    95
 72
    59
 73
    74
  0
VERTEX
  5
1309
330
1024
100
AcDbEntity
  8
0
 62
     7
100
AcDbFaceRecord
 10
0.0
 20
0.0
 30
0.0
 70
   128
 71
    95
 72
    58
 73
    59
  0
VERTEX
  5
130A
330
1024
100
AcDbEntity
  8
0
 62
     7
100
AcDbFaceRecord
 10
0.0
 20
0.0
 30
0.0
 70
   128
 71
    95
 72
    89
 73
    58
  0
VERTEX
  5
130B
330
1024
100
AcDbEntity
  8
0
 62
     7
100
AcDbFaceRecord
 10
0.0
 20
0.0
 30
0.0
 70
   128
 71
    95
 72
    90
 73
    89
  0
VERTEX
  5
130C
330
1024
100
AcDbEntity
  8
0
 62
     7
100
AcDbFaceRecord
 10
0.0
 20
0.0
 30
0.0
 70
   128
 71
    90
 72
    95
 73
    73
  0
VERTEX
  5
130D
330
1024
100
AcDbEntity
  8
0
 62
     7
100
AcDbFaceRecord
 10
0.0
 20
0.0
 30
0.0
 70
   128
 71
    96
 72
    77
 73
    76
  0
VERTEX
  5
130E
330
1024
100
AcDbEntity
  8
0
 62
     7
100
AcDbFaceRecord
 10
0.0
 20
0.0
 30
0.0
 70
   128
 71
    96
 72
    35
 73
    77
  0
VERTEX
  5
130F
330
1024
100
AcDbEntity
  8
0
 62
     7
100
AcDbFaceRecord
 10
0.0
 20
0.0
 30
0.0
 70
   128
 71
    96
 72
    33
 73
    35
  0
VERTEX
  5
1310
330
1024
100
AcDbEntity
  8
0
 62
     7
100
AcDbFaceRecord
 10
0.0
 20
0.0
 30
0.0
 70
   128
 71
    96
 72
    74
 73
    33
  0
VERTEX
  5
1311
330
1024
100
AcDbEntity
  8
0
 62
     7
100
AcDbFaceRecord
 10
0.0
 20
0.0
 30
0.0
 70
   128
 71
    96
 72
    75
 73
    74
  0
VERTEX
  5
1312
330
1024
100
AcDbEntity
  8
0
 62
     7
100
AcDbFaceRecord
 10
0.0
 20
0.0
 30
0.0
 70
   128
 71
    75
 72
    96
 73
    76
  0
VERTEX
  5
1313
330
1024
100
AcDbEntity
  8
0
 62
     7
100
AcDbFaceRecord
 10
0.0
 20
0.0
 30
0.0
 70
   128
 71
    97
 72
    76
 73
    98
  0
VERTEX
  5
1314
330
1024
100
AcDbEntity
  8
0
 62
     7
100
AcDbFaceRecord
 10
0.0
 20
0.0
 30
0.0
 70
   128
 71
    75
 72
    76
 73
    97
  0
VERTEX
  5
1315
330
1024
100
AcDbEntity
  8
0
 62
     7
100
AcDbFaceRecord
 10
0.0
 20
0.0
 30
0.0
 70
   128
 71
    99
 72
    73
 73
   100
  0
VERTEX
  5
1316
330
1024
100
AcDbEntity
  8
0
 62
     7
100
AcDbFaceRecord
 10
0.0
 20
0.0
 30
0.0
 70
   128
 71
    90
 72
    73
 73
    99
  0
VERTEX
  5
1317
330
1024
100
AcDbEntity
  8
0
 62
     7
100
AcDbFaceRecord
 10
0.0
 20
0.0
 30
0.0
 70
   128
 71
   101
 72
    88
 73
   102
  0
VERTEX
  5
1318
330
1024
100
AcDbEntity
  8
0
 62
     7
100
AcDbFaceRecord
 10
0.0
 20
0.0
 30
0.0
 70
   128
 71
    87
 72
    88
 73
   101
  0
VERTEX
  5
1319
330
1024
100
AcDbEntity
  8
0
 62
     7
100
AcDbFaceRecord
 10
0.0
 20
0.0
 30
0.0
 70
   128
 71
   103
 72
    85
 73
   104
  0
VERTEX
  5
131A
330
1024
100
AcDbEntity
  8
0
 62
     7
100
AcDbFaceRecord
 10
0.0
 20
0.0
 30
0.0
 70
   128
 71
    84
 72
    85
 73
   103
  0
VERTEX
  5
131B
330
1024
100
AcDbEntity
  8
0
 62
     7
100
AcDbFaceRecord
 10
0.0
 20
0.0
 30
0.0
 70
   128
 71
   105
 72
    82
 73
   106
  0
VERTEX
  5
131C
330
1024
100
AcDbEntity
  8
0
 62
     7
100
AcDbFaceRecord
 10
0.0
 20
0.0
 30
0.0
 70
   128
 71
    81
 72
    82
 73
   105
  0
VERTEX
  5
131D
330
1024
100
AcDbEntity
  8
0
 62
     7
100
AcDbFaceRecord
 10
0.0
 20
0.0
 30
0.0
 70
   128
 71
   107
 72
    79
 73
   108
  0
VERTEX
  5
131E
330
1024
100
AcDbEntity
  8
0
 62
     7
100
AcDbFaceRecord
 10
0.0
 20
0.0
 30
0.0
 70
   128
 71
    78
 72
    79
 73
   107
  0
VERTEX
  5
131F
330
1024
100
AcDbEntity
  8
0
 62
     7
100
AcDbFaceRecord
 10
0.0
 20
0.0
 30
0.0
 70
   128
 71
    78
 72
    98
 73
    76
  0
VERTEX
  5
1320
330
1024
100
AcDbEntity
  8
0
 62
     7
100
AcDbFaceRecord
 10
0.0
 20
0.0
 30
0.0
 70
   128
 71
    98
 72
    78
 73
   107
  0
VERTEX
  5
1321
330
1024
100
AcDbEntity
  8
0
 62
     7
100
AcDbFaceRecord
 10
0.0
 20
0.0
 30
0.0
 70
   128
 71
    81
 72
   108
 73
    79
  0
VERTEX
  5
1322
330
1024
100
AcDbEntity
  8
0
 62
     7
100
AcDbFaceRecord
 10
0.0
 20
0.0
 30
0.0
 70
   128
 71
   108
 72
    81
 73
   105
  0
VERTEX
  5
1323
330
1024
100
AcDbEntity
  8
0
 62
     7
100
AcDbFaceRecord
 10
0.0
 20
0.0
 30
0.0
 70
   128
 71
    84
 72
   106
 73
    82
  0
VERTEX
  5
1324
330
1024
100
AcDbEntity
  8
0
 62
     7
100
AcDbFaceRecord
 10
0.0
 20
0.0
 30
0.0
 70
   128
 71
   106
 72
    84
 73
   103
  0
VERTEX
  5
1325
330
1024
100
AcDbEntity
  8
0
 62
     7
100
AcDbFaceRecord
 10
0.0
 20
0.0
 30
0.0
 70
   128
 71
    87
 72
   104
 73
    85
  0
VERTEX
  5
1326
330
1024
100
AcDbEntity
  8
0
 62
     7
100
AcDbFaceRecord
 10
0.0
 20
0.0
 30
0.0
 70
   128
 71
   104
 72
    87
 73
   101
  0
VERTEX
  5
1327
330
1024
100
AcDbEntity
  8
0
 62
     7
100
AcDbFaceRecord
 10
0.0
 20
0.0
 30
0.0
 70
   128
 71
    90
 72
   102
 73
    88
  0
VERTEX
  5
1328
330
1024
100
AcDbEntity
  8
0
 62
     7
100
AcDbFaceRecord
 10
0.0
 20
0.0
 30
0.0
 70
   128
 71
   102
 72
    90
 73
    99
  0
VERTEX
  5
1329
330
1024
100
AcDbEntity
  8
0
 62
     7
100
AcDbFaceRecord
 10
0.0
 20
0.0
 30
0.0
 70
   128
 71
    75
 72
   100
 73
    73
  0
VERTEX
  5
132A
330
1024
100
AcDbEntity
  8
0
 62
     7
100
AcDbFaceRecord
 10
0.0
 20
0.0
 30
0.0
 70
   128
 71
   100
 72
    75
 73
    97
  0
VERTEX
  5
132B
330
1024
100
AcDbEntity
  8
0
 62
     7
100
AcDbFaceRecord
 10
0.0
 20
0.0
 30
0.0
 70
   128
 71
   109
 72
   110
 73
   111
  0
VERTEX
  5
132C
330
1024
100
AcDbEntity
  8
0
 62
     7
100
AcDbFaceRecord
 10
0.0
 20
0.0
 30
0.0
 70
   128
 71
   112
 72
   113
 73
   114
  0
VERTEX
  5
132D
330
1024
100
AcDbEntity
  8
0
 62
     7
100
AcDbFaceRecord
 10
0.0
 20
0.0
 30
0.0
 70
   128
 71
   112
 72
   110
 73
   113
  0
VERTEX
  5
132E
330
1024
100
AcDbEntity
  8
0
 62
     7
100
AcDbFaceRecord
 10
0.0
 20
0.0
 30
0.0
 70
   128
 71
   115
 72
   116
 73
   117
  0
VERTEX
  5
132F
330
1024
100
AcDbEntity
  8
0
 62
     7
100
AcDbFaceRecord
 10
0.0
 20
0.0
 30
0.0
 70
   128
 71
   118
 72
   119
 73
   120
  0
VERTEX
  5
1330
330
1024
100
AcDbEntity
  8
0
 62
     7
100
AcDbFaceRecord
 10
0.0
 20
0.0
 30
0.0
 70
   128
 71
   118
 72
   116
 73
   119
  0
VERTEX
  5
1331
330
1024
100
AcDbEntity
  8
0
 62
     7
100
AcDbFaceRecord
 10
0.0
 20
0.0
 30
0.0
 70
   128
 71
   114
 72
   121
 73
   122
  0
VERTEX
  5
1332
330
1024
100
AcDbEntity
  8
0
 62
     7
100
AcDbFaceRecord
 10
0.0
 20
0.0
 30
0.0
 70
   128
 71
   123
 72
   110
 73
   109
  0
VERTEX
  5
1333
330
1024
100
AcDbEntity
  8
0
 62
     7
100
AcDbFaceRecord
 10
0.0
 20
0.0
 30
0.0
 70
   128
 71
   123
 72
   113
 73
   110
  0
VERTEX
  5
1334
330
1024
100
AcDbEntity
  8
0
 62
     7
100
AcDbFaceRecord
 10
0.0
 20
0.0
 30
0.0
 70
   128
 71
   123
 72
   124
 73
   113
  0
VERTEX
  5
1335
330
1024
100
AcDbEntity
  8
0
 62
     7
100
AcDbFaceRecord
 10
0.0
 20
0.0
 30
0.0
 70
   128
 71
   123
 72
   125
 73
   124
  0
VERTEX
  5
1336
330
1024
100
AcDbEntity
  8
0
 62
     7
100
AcDbFaceRecord
 10
0.0
 20
0.0
 30
0.0
 70
   128
 71
   121
 72
   113
 73
   124
  0
VERTEX
  5
1337
330
1024
100
AcDbEntity
  8
0
 62
     7
100
AcDbFaceRecord
 10
0.0
 20
0.0
 30
0.0
 70
   128
 71
   121
 72
   114
 73
   113
  0
VERTEX
  5
1338
330
1024
100
AcDbEntity
  8
0
 62
     7
100
AcDbFaceRecord
 10
0.0
 20
0.0
 30
0.0
 70
   128
 71
   126
 72
   122
 73
   127
  0
VERTEX
  5
1339
330
1024
100
AcDbEntity
  8
0
 62
     7
100
AcDbFaceRecord
 10
0.0
 20
0.0
 30
0.0
 70
   128
 71
   126
 72
   114
 73
   122
  0
VERTEX
  5
133A
330
1024
100
AcDbEntity
  8
0
 62
     7
100
AcDbFaceRecord
 10
0.0
 20
0.0
 30
0.0
 70
   128
 71
   128
 72
   112
 73
   114
  0
VERTEX
  5
133B
330
1024
100
AcDbEntity
  8
0
 62
     7
100
AcDbFaceRecord
 10
0.0
 20
0.0
 30
0.0
 70
   128
 71
   128
 72
   119
 73
   112
  0
VERTEX
  5
133C
330
1024
100
AcDbEntity
  8
0
 62
     7
100
AcDbFaceRecord
 10
0.0
 20
0.0
 30
0.0
 70
   128
 71
   128
 72
   120
 73
   119
  0
VERTEX
  5
133D
330
1024
100
AcDbEntity
  8
0
 62
     7
100
AcDbFaceRecord
 10
0.0
 20
0.0
 30
0.0
 70
   128
 71
   128
 72
   114
 73
   126
  0
VERTEX
  5
133E
330
1024
100
AcDbEntity
  8
0
 62
     7
100
AcDbFaceRecord
 10
0.0
 20
0.0
 30
0.0
 70
   128
 71
   101
 72
   129
 73
   130
  0
VERTEX
  5
133F
330
1024
100
AcDbEntity
  8
0
 62
     7
100
AcDbFaceRecord
 10
0.0
 20
0.0
 30
0.0
 70
   128
 71
   131
 72
   130
 73
   129
  0
VERTEX
  5
1340
330
1024
100
AcDbEntity
  8
0
 62
     7
100
AcDbFaceRecord
 10
0.0
 20
0.0
 30
0.0
 70
   128
 71
   127
 72
   131
 73
   129
  0
VERTEX
  5
1341
330
1024
100
AcDbEntity
  8
0
 62
     7
100
AcDbFaceRecord
 10
0.0
 20
0.0
 30
0.0
 70
   128
 71
   127
 72
   132
 73
   131
  0
VERTEX
  5
1342
330
1024
100
AcDbEntity
  8
0
 62
     7
100
AcDbFaceRecord
 10
0.0
 20
0.0
 30
0.0
 70
   128
 71
   133
 72
   134
 73
   135
  0
VERTEX
  5
1343
330
1024
100
AcDbEntity
  8
0
 62
     7
100
AcDbFaceRecord
 10
0.0
 20
0.0
 30
0.0
 70
   128
 71
   132
 72
   127
 73
   122
  0
VERTEX
  5
1344
330
1024
100
AcDbEntity
  8
0
 62
     7
100
AcDbFaceRecord
 10
0.0
 20
0.0
 30
0.0
 70
   128
 71
   136
 72
   122
 73
   121
  0
VERTEX
  5
1345
330
1024
100
AcDbEntity
  8
0
 62
     7
100
AcDbFaceRecord
 10
0.0
 20
0.0
 30
0.0
 70
   128
 71
   136
 72
   132
 73
   122
  0
VERTEX
  5
1346
330
1024
100
AcDbEntity
  8
0
 62
     7
100
AcDbFaceRecord
 10
0.0
 20
0.0
 30
0.0
 70
   128
 71
   136
 72
   137
 73
   132
  0
VERTEX
  5
1347
330
1024
100
AcDbEntity
  8
0
 62
     7
100
AcDbFaceRecord
 10
0.0
 20
0.0
 30
0.0
 70
   128
 71
   138
 72
   126
 73
   127
  0
VERTEX
  5
1348
330
1024
100
AcDbEntity
  8
0
 62
     7
100
AcDbFaceRecord
 10
0.0
 20
0.0
 30
0.0
 70
   128
 71
   139
 72
   132
 73
   137
  0
VERTEX
  5
1349
330
1024
100
AcDbEntity
  8
0
 62
     7
100
AcDbFaceRecord
 10
0.0
 20
0.0
 30
0.0
 70
   128
 71
   139
 72
   131
 73
   132
  0
VERTEX
  5
134A
330
1024
100
AcDbEntity
  8
0
 62
     7
100
AcDbFaceRecord
 10
0.0
 20
0.0
 30
0.0
 70
   128
 71
   138
 72
   129
 73
   102
  0
VERTEX
  5
134B
330
1024
100
AcDbEntity
  8
0
 62
     7
100
AcDbFaceRecord
 10
0.0
 20
0.0
 30
0.0
 70
   128
 71
   138
 72
   127
 73
   129
  0
VERTEX
  5
134C
330
1024
100
AcDbEntity
  8
0
 62
     7
100
AcDbFaceRecord
 10
0.0
 20
0.0
 30
0.0
 70
   128
 71
   140
 72
   101
 73
   130
  0
VERTEX
  5
134D
330
1024
100
AcDbEntity
  8
0
 62
     7
100
AcDbFaceRecord
 10
0.0
 20
0.0
 30
0.0
 70
   128
 71
   141
 72
   142
 73
   143
  0
VERTEX
  5
134E
330
1024
100
AcDbEntity
  8
0
 62
     7
100
AcDbFaceRecord
 10
0.0
 20
0.0
 30
0.0
 70
   128
 71
   144
 72
   137
 73
   145
  0
VERTEX
  5
134F
330
1024
100
AcDbEntity
  8
0
 62
     7
100
AcDbFaceRecord
 10
0.0
 20
0.0
 30
0.0
 70
   128
 71
   144
 72
   139
 73
   137
  0
VERTEX
  5
1350
330
1024
100
AcDbEntity
  8
0
 62
     7
100
AcDbFaceRecord
 10
0.0
 20
0.0
 30
0.0
 70
   128
 71
   144
 72
   142
 73
   139
  0
VERTEX
  5
1351
330
1024
100
AcDbEntity
  8
0
 62
     7
100
AcDbFaceRecord
 10
0.0
 20
0.0
 30
0.0
 70
   128
 71
   144
 72
   143
 73
   142
  0
VERTEX
  5
1352
330
1024
100
AcDbEntity
  8
0
 62
     7
100
AcDbFaceRecord
 10
0.0
 20
0.0
 30
0.0
 70
   128
 71
   146
 72
   139
 73
   142
  0
VERTEX
  5
1353
330
1024
100
AcDbEntity
  8
0
 62
     7
100
AcDbFaceRecord
 10
0.0
 20
0.0
 30
0.0
 70
   128
 71
   146
 72
   131
 73
   139
  0
VERTEX
  5
1354
330
1024
100
AcDbEntity
  8
0
 62
     7
100
AcDbFaceRecord
 10
0.0
 20
0.0
 30
0.0
 70
   128
 71
   146
 72
   130
 73
   131
  0
VERTEX
  5
1355
330
1024
100
AcDbEntity
  8
0
 62
     7
100
AcDbFaceRecord
 10
0.0
 20
0.0
 30
0.0
 70
   128
 71
   146
 72
   140
 73
   130
  0
VERTEX
  5
1356
330
1024
100
AcDbEntity
  8
0
 62
     7
100
AcDbFaceRecord
 10
0.0
 20
0.0
 30
0.0
 70
   128
 71
   140
 72
   147
 73
   104
  0
VERTEX
  5
1357
330
1024
100
AcDbEntity
  8
0
 62
     7
100
AcDbFaceRecord
 10
0.0
 20
0.0
 30
0.0
 70
   128
 71
   140
 72
   148
 73
   147
  0
VERTEX
  5
1358
330
1024
100
AcDbEntity
  8
0
 62
     7
100
AcDbFaceRecord
 10
0.0
 20
0.0
 30
0.0
 70
   128
 71
   141
 72
   149
 73
   150
  0
VERTEX
  5
1359
330
1024
100
AcDbEntity
  8
0
 62
     7
100
AcDbFaceRecord
 10
0.0
 20
0.0
 30
0.0
 70
   128
 71
   149
 72
   143
 73
   151
  0
VERTEX
  5
135A
330
1024
100
AcDbEntity
  8
0
 62
     7
100
AcDbFaceRecord
 10
0.0
 20
0.0
 30
0.0
 70
   128
 71
   149
 72
   141
 73
   143
  0
VERTEX
  5
135B
330
1024
100
AcDbEntity
  8
0
 62
     7
100
AcDbFaceRecord
 10
0.0
 20
0.0
 30
0.0
 70
   128
 71
   152
 72
   150
 73
   149
  0
VERTEX
  5
135C
330
1024
100
AcDbEntity
  8
0
 62
     7
100
AcDbFaceRecord
 10
0.0
 20
0.0
 30
0.0
 70
   128
 71
   148
 72
   142
 73
   141
  0
VERTEX
  5
135D
330
1024
100
AcDbEntity
  8
0
 62
     7
100
AcDbFaceRecord
 10
0.0
 20
0.0
 30
0.0
 70
   128
 71
   148
 72
   146
 73
   142
  0
VERTEX
  5
135E
330
1024
100
AcDbEntity
  8
0
 62
     7
100
AcDbFaceRecord
 10
0.0
 20
0.0
 30
0.0
 70
   128
 71
   148
 72
   140
 73
   146
  0
VERTEX
  5
135F
330
1024
100
AcDbEntity
  8
0
 62
     7
100
AcDbFaceRecord
 10
0.0
 20
0.0
 30
0.0
 70
   128
 71
   153
 72
   150
 73
   154
  0
VERTEX
  5
1360
330
1024
100
AcDbEntity
  8
0
 62
     7
100
AcDbFaceRecord
 10
0.0
 20
0.0
 30
0.0
 70
   128
 71
   153
 72
   141
 73
   150
  0
VERTEX
  5
1361
330
1024
100
AcDbEntity
  8
0
 62
     7
100
AcDbFaceRecord
 10
0.0
 20
0.0
 30
0.0
 70
   128
 71
   153
 72
   148
 73
   141
  0
VERTEX
  5
1362
330
1024
100
AcDbEntity
  8
0
 62
     7
100
AcDbFaceRecord
 10
0.0
 20
0.0
 30
0.0
 70
   128
 71
   153
 72
   147
 73
   148
  0
VERTEX
  5
1363
330
1024
100
AcDbEntity
  8
0
 62
     7
100
AcDbFaceRecord
 10
0.0
 20
0.0
 30
0.0
 70
   128
 71
   104
 72
   155
 73
   103
  0
VERTEX
  5
1364
330
1024
100
AcDbEntity
  8
0
 62
     7
100
AcDbFaceRecord
 10
0.0
 20
0.0
 30
0.0
 70
   128
 71
   156
 72
   151
 73
   157
  0
VERTEX
  5
1365
330
1024
100
AcDbEntity
  8
0
 62
     7
100
AcDbFaceRecord
 10
0.0
 20
0.0
 30
0.0
 70
   128
 71
   156
 72
   149
 73
   151
  0
VERTEX
  5
1366
330
1024
100
AcDbEntity
  8
0
 62
     7
100
AcDbFaceRecord
 10
0.0
 20
0.0
 30
0.0
 70
   128
 71
   156
 72
   152
 73
   149
  0
VERTEX
  5
1367
330
1024
100
AcDbEntity
  8
0
 62
     7
100
AcDbFaceRecord
 10
0.0
 20
0.0
 30
0.0
 70
   128
 71
   156
 72
   158
 73
   152
  0
VERTEX
  5
1368
330
1024
100
AcDbEntity
  8
0
 62
     7
100
AcDbFaceRecord
 10
0.0
 20
0.0
 30
0.0
 70
   128
 71
   156
 72
   159
 73
   158
  0
VERTEX
  5
1369
330
1024
100
AcDbEntity
  8
0
 62
     7
100
AcDbFaceRecord
 10
0.0
 20
0.0
 30
0.0
 70
   128
 71
   160
 72
   150
 73
   152
  0
VERTEX
  5
136A
330
1024
100
AcDbEntity
  8
0
 62
     7
100
AcDbFaceRecord
 10
0.0
 20
0.0
 30
0.0
 70
   128
 71
   160
 72
   154
 73
   150
  0
VERTEX
  5
136B
330
1024
100
AcDbEntity
  8
0
 62
     7
100
AcDbFaceRecord
 10
0.0
 20
0.0
 30
0.0
 70
   128
 71
   161
 72
   154
 73
   160
  0
VERTEX
  5
136C
330
1024
100
AcDbEntity
  8
0
 62
     7
100
AcDbFaceRecord
 10
0.0
 20
0.0
 30
0.0
 70
   128
 71
   162
 72
   163
 73
   164
  0
VERTEX
  5
136D
330
1024
100
AcDbEntity
  8
0
 62
     7
100
AcDbFaceRecord
 10
0.0
 20
0.0
 30
0.0
 70
   128
 71
   161
 72
   164
 73
   163
  0
VERTEX
  5
136E
330
1024
100
AcDbEntity
  8
0
 62
     7
100
AcDbFaceRecord
 10
0.0
 20
0.0
 30
0.0
 70
   128
 71
   161
 72
   165
 73
   164
  0
VERTEX
  5
136F
330
1024
100
AcDbEntity
  8
0
 62
     7
100
AcDbFaceRecord
 10
0.0
 20
0.0
 30
0.0
 70
   128
 71
   166
 72
   167
 73
   168
  0
VERTEX
  5
1370
330
1024
100
AcDbEntity
  8
0
 62
     7
100
AcDbFaceRecord
 10
0.0
 20
0.0
 30
0.0
 70
   128
 71
   169
 72
   166
 73
   168
  0
VERTEX
  5
1371
330
1024
100
AcDbEntity
  8
0
 62
     7
100
AcDbFaceRecord
 10
0.0
 20
0.0
 30
0.0
 70
   128
 71
   165
 72
   161
 73
   160
  0
VERTEX
  5
1372
330
1024
100
AcDbEntity
  8
0
 62
     7
100
AcDbFaceRecord
 10
0.0
 20
0.0
 30
0.0
 70
   128
 71
   170
 72
   152
 73
   158
  0
VERTEX
  5
1373
330
1024
100
AcDbEntity
  8
0
 62
     7
100
AcDbFaceRecord
 10
0.0
 20
0.0
 30
0.0
 70
   128
 71
   170
 72
   160
 73
   152
  0
VERTEX
  5
1374
330
1024
100
AcDbEntity
  8
0
 62
     7
100
AcDbFaceRecord
 10
0.0
 20
0.0
 30
0.0
 70
   128
 71
   170
 72
   165
 73
   160
  0
VERTEX
  5
1375
330
1024
100
AcDbEntity
  8
0
 62
     7
100
AcDbFaceRecord
 10
0.0
 20
0.0
 30
0.0
 70
   128
 71
   170
 72
   167
 73
   165
  0
VERTEX
  5
1376
330
1024
100
AcDbEntity
  8
0
 62
     7
100
AcDbFaceRecord
 10
0.0
 20
0.0
 30
0.0
 70
   128
 71
   171
 72
   166
 73
   172
  0
VERTEX
  5
1377
330
1024
100
AcDbEntity
  8
0
 62
     7
100
AcDbFaceRecord
 10
0.0
 20
0.0
 30
0.0
 70
   128
 71
   171
 72
   167
 73
   166
  0
VERTEX
  5
1378
330
1024
100
AcDbEntity
  8
0
 62
     7
100
AcDbFaceRecord
 10
0.0
 20
0.0
 30
0.0
 70
   128
 71
   171
 72
   165
 73
   167
  0
VERTEX
  5
1379
330
1024
100
AcDbEntity
  8
0
 62
     7
100
AcDbFaceRecord
 10
0.0
 20
0.0
 30
0.0
 70
   128
 71
   171
 72
   164
 73
   165
  0
VERTEX
  5
137A
330
1024
100
AcDbEntity
  8
0
 62
     7
100
AcDbFaceRecord
 10
0.0
 20
0.0
 30
0.0
 70
   128
 71
   172
 72
   173
 73
   174
  0
VERTEX
  5
137B
330
1024
100
AcDbEntity
  8
0
 62
     7
100
AcDbFaceRecord
 10
0.0
 20
0.0
 30
0.0
 70
   128
 71
   173
 72
   166
 73
   169
  0
VERTEX
  5
137C
330
1024
100
AcDbEntity
  8
0
 62
     7
100
AcDbFaceRecord
 10
0.0
 20
0.0
 30
0.0
 70
   128
 71
   173
 72
   172
 73
   166
  0
VERTEX
  5
137D
330
1024
100
AcDbEntity
  8
0
 62
     7
100
AcDbFaceRecord
 10
0.0
 20
0.0
 30
0.0
 70
   128
 71
   175
 72
   174
 73
   176
  0
VERTEX
  5
137E
330
1024
100
AcDbEntity
  8
0
 62
     7
100
AcDbFaceRecord
 10
0.0
 20
0.0
 30
0.0
 70
   128
 71
   175
 72
   172
 73
   174
  0
VERTEX
  5
137F
330
1024
100
AcDbEntity
  8
0
 62
     7
100
AcDbFaceRecord
 10
0.0
 20
0.0
 30
0.0
 70
   128
 71
   177
 72
   171
 73
   172
  0
VERTEX
  5
1380
330
1024
100
AcDbEntity
  8
0
 62
     7
100
AcDbFaceRecord
 10
0.0
 20
0.0
 30
0.0
 70
   128
 71
   177
 72
   164
 73
   171
  0
VERTEX
  5
1381
330
1024
100
AcDbEntity
  8
0
 62
     7
100
AcDbFaceRecord
 10
0.0
 20
0.0
 30
0.0
 70
   128
 71
   177
 72
   162
 73
   164
  0
VERTEX
  5
1382
330
1024
100
AcDbEntity
  8
0
 62
     7
100
AcDbFaceRecord
 10
0.0
 20
0.0
 30
0.0
 70
   128
 71
   177
 72
   172
 73
   175
  0
VERTEX
  5
1383
330
1024
100
AcDbEntity
  8
0
 62
     7
100
AcDbFaceRecord
 10
0.0
 20
0.0
 30
0.0
 70
   128
 71
   178
 72
   179
 73
   180
  0
VERTEX
  5
1384
330
1024
100
AcDbEntity
  8
0
 62
     7
100
AcDbFaceRecord
 10
0.0
 20
0.0
 30
0.0
 70
   128
 71
   181
 72
   182
 73
   183
  0
VERTEX
  5
1385
330
1024
100
AcDbEntity
  8
0
 62
     7
100
AcDbFaceRecord
 10
0.0
 20
0.0
 30
0.0
 70
   128
 71
   182
 72
   176
 73
   174
  0
VERTEX
  5
1386
330
1024
100
AcDbEntity
  8
0
 62
     7
100
AcDbFaceRecord
 10
0.0
 20
0.0
 30
0.0
 70
   128
 71
   184
 72
   174
 73
   173
  0
VERTEX
  5
1387
330
1024
100
AcDbEntity
  8
0
 62
     7
100
AcDbFaceRecord
 10
0.0
 20
0.0
 30
0.0
 70
   128
 71
   184
 72
   182
 73
   174
  0
VERTEX
  5
1388
330
1024
100
AcDbEntity
  8
0
 62
     7
100
AcDbFaceRecord
 10
0.0
 20
0.0
 30
0.0
 70
   128
 71
   184
 72
   183
 73
   182
  0
VERTEX
  5
1389
330
1024
100
AcDbEntity
  8
0
 62
     7
100
AcDbFaceRecord
 10
0.0
 20
0.0
 30
0.0
 70
   128
 71
   185
 72
   176
 73
   186
  0
VERTEX
  5
138A
330
1024
100
AcDbEntity
  8
0
 62
     7
100
AcDbFaceRecord
 10
0.0
 20
0.0
 30
0.0
 70
   128
 71
   185
 72
   175
 73
   176
  0
VERTEX
  5
138B
330
1024
100
AcDbEntity
  8
0
 62
     7
100
AcDbFaceRecord
 10
0.0
 20
0.0
 30
0.0
 70
   128
 71
   108
 72
   185
 73
   186
  0
VERTEX
  5
138C
330
1024
100
AcDbEntity
  8
0
 62
     7
100
AcDbFaceRecord
 10
0.0
 20
0.0
 30
0.0
 70
   128
 71
   186
 72
   187
 73
   107
  0
VERTEX
  5
138D
330
1024
100
AcDbEntity
  8
0
 62
     7
100
AcDbFaceRecord
 10
0.0
 20
0.0
 30
0.0
 70
   128
 71
   186
 72
   188
 73
   187
  0
VERTEX
  5
138E
330
1024
100
AcDbEntity
  8
0
 62
     7
100
AcDbFaceRecord
 10
0.0
 20
0.0
 30
0.0
 70
   128
 71
   181
 72
   189
 73
   190
  0
VERTEX
  5
138F
330
1024
100
AcDbEntity
  8
0
 62
     7
100
AcDbFaceRecord
 10
0.0
 20
0.0
 30
0.0
 70
   128
 71
   189
 72
   183
 73
   191
  0
VERTEX
  5
1390
330
1024
100
AcDbEntity
  8
0
 62
     7
100
AcDbFaceRecord
 10
0.0
 20
0.0
 30
0.0
 70
   128
 71
   189
 72
   181
 73
   183
  0
VERTEX
  5
1391
330
1024
100
AcDbEntity
  8
0
 62
     7
100
AcDbFaceRecord
 10
0.0
 20
0.0
 30
0.0
 70
   128
 71
   192
 72
   190
 73
   189
  0
VERTEX
  5
1392
330
1024
100
AcDbEntity
  8
0
 62
     7
100
AcDbFaceRecord
 10
0.0
 20
0.0
 30
0.0
 70
   128
 71
   188
 72
   182
 73
   181
  0
VERTEX
  5
1393
330
1024
100
AcDbEntity
  8
0
 62
     7
100
AcDbFaceRecord
 10
0.0
 20
0.0
 30
0.0
 70
   128
 71
   188
 72
   176
 73
   182
  0
VERTEX
  5
1394
330
1024
100
AcDbEntity
  8
0
 62
     7
100
AcDbFaceRecord
 10
0.0
 20
0.0
 30
0.0
 70
   128
 71
   188
 72
   186
 73
   176
  0
VERTEX
  5
1395
330
1024
100
AcDbEntity
  8
0
 62
     7
100
AcDbFaceRecord
 10
0.0
 20
0.0
 30
0.0
 70
   128
 71
   193
 72
   190
 73
   194
  0
VERTEX
  5
1396
330
1024
100
AcDbEntity
  8
0
 62
     7
100
AcDbFaceRecord
 10
0.0
 20
0.0
 30
0.0
 70
   128
 71
   193
 72
   181
 73
   190
  0
VERTEX
  5
1397
330
1024
100
AcDbEntity
  8
0
 62
     7
100
AcDbFaceRecord
 10
0.0
 20
0.0
 30
0.0
 70
   128
 71
   193
 72
   188
 73
   181
  0
VERTEX
  5
1398
330
1024
100
AcDbEntity
  8
0
 62
     7
100
AcDbFaceRecord
 10
0.0
 20
0.0
 30
0.0
 70
   128
 71
   193
 72
   187
 73
   188
  0
VERTEX
  5
1399
330
1024
100
AcDbEntity
  8
0
 62
     7
100
AcDbFaceRecord
 10
0.0
 20
0.0
 30
0.0
 70
   128
 71
    97
 72
    98
 73
   195
  0
VERTEX
  5
139A
330
1024
100
AcDbEntity
  8
0
 62
     7
100
AcDbFaceRecord
 10
0.0
 20
0.0
 30
0.0
 70
   128
 71
   196
 72
   197
 73
   198
  0
VERTEX
  5
139B
330
1024
100
AcDbEntity
  8
0
 62
     7
100
AcDbFaceRecord
 10
0.0
 20
0.0
 30
0.0
 70
   128
 71
   199
 72
   191
 73
   178
  0
VERTEX
  5
139C
330
1024
100
AcDbEntity
  8
0
 62
     7
100
AcDbFaceRecord
 10
0.0
 20
0.0
 30
0.0
 70
   128
 71
   199
 72
   189
 73
   191
  0
VERTEX
  5
139D
330
1024
100
AcDbEntity
  8
0
 62
     7
100
AcDbFaceRecord
 10
0.0
 20
0.0
 30
0.0
 70
   128
 71
   199
 72
   192
 73
   189
  0
VERTEX
  5
139E
330
1024
100
AcDbEntity
  8
0
 62
     7
100
AcDbFaceRecord
 10
0.0
 20
0.0
 30
0.0
 70
   128
 71
   199
 72
   198
 73
   192
  0
VERTEX
  5
139F
330
1024
100
AcDbEntity
  8
0
 62
     7
100
AcDbFaceRecord
 10
0.0
 20
0.0
 30
0.0
 70
   128
 71
   199
 72
   196
 73
   198
  0
VERTEX
  5
13A0
330
1024
100
AcDbEntity
  8
0
 62
     7
100
AcDbFaceRecord
 10
0.0
 20
0.0
 30
0.0
 70
   128
 71
   200
 72
   190
 73
   192
  0
VERTEX
  5
13A1
330
1024
100
AcDbEntity
  8
0
 62
     7
100
AcDbFaceRecord
 10
0.0
 20
0.0
 30
0.0
 70
   128
 71
   200
 72
   194
 73
   190
  0
VERTEX
  5
13A2
330
1024
100
AcDbEntity
  8
0
 62
     7
100
AcDbFaceRecord
 10
0.0
 20
0.0
 30
0.0
 70
   128
 71
   201
 72
   109
 73
   202
  0
VERTEX
  5
13A3
330
1024
100
AcDbEntity
  8
0
 62
     7
100
AcDbFaceRecord
 10
0.0
 20
0.0
 30
0.0
 70
   128
 71
   203
 72
   198
 73
   197
  0
VERTEX
  5
13A4
330
1024
100
AcDbEntity
  8
0
 62
     7
100
AcDbFaceRecord
 10
0.0
 20
0.0
 30
0.0
 70
   128
 71
   203
 72
   192
 73
   198
  0
VERTEX
  5
13A5
330
1024
100
AcDbEntity
  8
0
 62
     7
100
AcDbFaceRecord
 10
0.0
 20
0.0
 30
0.0
 70
   128
 71
   203
 72
   200
 73
   192
  0
VERTEX
  5
13A6
330
1024
100
AcDbEntity
  8
0
 62
     7
100
AcDbFaceRecord
 10
0.0
 20
0.0
 30
0.0
 70
   128
 71
   203
 72
   204
 73
   200
  0
VERTEX
  5
13A7
330
1024
100
AcDbEntity
  8
0
 62
     7
100
AcDbFaceRecord
 10
0.0
 20
0.0
 30
0.0
 70
   128
 71
   205
 72
   115
 73
   204
  0
VERTEX
  5
13A8
330
1024
100
AcDbEntity
  8
0
 62
     7
100
AcDbFaceRecord
 10
0.0
 20
0.0
 30
0.0
 70
   128
 71
   206
 72
   195
 73
    98
  0
VERTEX
  5
13A9
330
1024
100
AcDbEntity
  8
0
 62
     7
100
AcDbFaceRecord
 10
0.0
 20
0.0
 30
0.0
 70
   128
 71
   206
 72
   194
 73
   195
  0
VERTEX
  5
13AA
330
1024
100
AcDbEntity
  8
0
 62
     7
100
AcDbFaceRecord
 10
0.0
 20
0.0
 30
0.0
 70
   128
 71
   206
 72
   193
 73
   194
  0
VERTEX
  5
13AB
330
1024
100
AcDbEntity
  8
0
 62
     7
100
AcDbFaceRecord
 10
0.0
 20
0.0
 30
0.0
 70
   128
 71
   206
 72
   187
 73
   193
  0
VERTEX
  5
13AC
330
1024
100
AcDbEntity
  8
0
 62
     7
100
AcDbFaceRecord
 10
0.0
 20
0.0
 30
0.0
 70
   128
 71
   206
 72
   107
 73
   187
  0
VERTEX
  5
13AD
330
1024
100
AcDbEntity
  8
0
 62
     7
100
AcDbFaceRecord
 10
0.0
 20
0.0
 30
0.0
 70
   128
 71
   179
 72
   183
 73
   184
  0
VERTEX
  5
13AE
330
1024
100
AcDbEntity
  8
0
 62
     7
100
AcDbFaceRecord
 10
0.0
 20
0.0
 30
0.0
 70
   128
 71
   179
 72
   191
 73
   183
  0
VERTEX
  5
13AF
330
1024
100
AcDbEntity
  8
0
 62
     7
100
AcDbFaceRecord
 10
0.0
 20
0.0
 30
0.0
 70
   128
 71
   179
 72
   178
 73
   191
  0
VERTEX
  5
13B0
330
1024
100
AcDbEntity
  8
0
 62
     7
100
AcDbFaceRecord
 10
0.0
 20
0.0
 30
0.0
 70
   128
 71
   207
 72
   168
 73
   208
  0
VERTEX
  5
13B1
330
1024
100
AcDbEntity
  8
0
 62
     7
100
AcDbFaceRecord
 10
0.0
 20
0.0
 30
0.0
 70
   128
 71
   207
 72
   169
 73
   168
  0
VERTEX
  5
13B2
330
1024
100
AcDbEntity
  8
0
 62
     7
100
AcDbFaceRecord
 10
0.0
 20
0.0
 30
0.0
 70
   128
 71
   106
 72
   162
 73
   105
  0
VERTEX
  5
13B3
330
1024
100
AcDbEntity
  8
0
 62
     7
100
AcDbFaceRecord
 10
0.0
 20
0.0
 30
0.0
 70
   128
 71
   106
 72
   163
 73
   162
  0
VERTEX
  5
13B4
330
1024
100
AcDbEntity
  8
0
 62
     7
100
AcDbFaceRecord
 10
0.0
 20
0.0
 30
0.0
 70
   128
 71
   155
 72
   153
 73
   154
  0
VERTEX
  5
13B5
330
1024
100
AcDbEntity
  8
0
 62
     7
100
AcDbFaceRecord
 10
0.0
 20
0.0
 30
0.0
 70
   128
 71
   155
 72
   147
 73
   153
  0
VERTEX
  5
13B6
330
1024
100
AcDbEntity
  8
0
 62
     7
100
AcDbFaceRecord
 10
0.0
 20
0.0
 30
0.0
 70
   128
 71
   155
 72
   104
 73
   147
  0
VERTEX
  5
13B7
330
1024
100
AcDbEntity
  8
0
 62
     7
100
AcDbFaceRecord
 10
0.0
 20
0.0
 30
0.0
 70
   128
 71
   209
 72
   145
 73
   133
  0
VERTEX
  5
13B8
330
1024
100
AcDbEntity
  8
0
 62
     7
100
AcDbFaceRecord
 10
0.0
 20
0.0
 30
0.0
 70
   128
 71
   209
 72
   144
 73
   145
  0
VERTEX
  5
13B9
330
1024
100
AcDbEntity
  8
0
 62
     7
100
AcDbFaceRecord
 10
0.0
 20
0.0
 30
0.0
 70
   128
 71
   209
 72
   143
 73
   144
  0
VERTEX
  5
13BA
330
1024
100
AcDbEntity
  8
0
 62
     7
100
AcDbFaceRecord
 10
0.0
 20
0.0
 30
0.0
 70
   128
 71
   209
 72
   151
 73
   143
  0
VERTEX
  5
13BB
330
1024
100
AcDbEntity
  8
0
 62
     7
100
AcDbFaceRecord
 10
0.0
 20
0.0
 30
0.0
 70
   128
 71
   209
 72
   157
 73
   151
  0
VERTEX
  5
13BC
330
1024
100
AcDbEntity
  8
0
 62
     7
100
AcDbFaceRecord
 10
0.0
 20
0.0
 30
0.0
 70
   128
 71
   134
 72
   137
 73
   136
  0
VERTEX
  5
13BD
330
1024
100
AcDbEntity
  8
0
 62
     7
100
AcDbFaceRecord
 10
0.0
 20
0.0
 30
0.0
 70
   128
 71
   134
 72
   145
 73
   137
  0
VERTEX
  5
13BE
330
1024
100
AcDbEntity
  8
0
 62
     7
100
AcDbFaceRecord
 10
0.0
 20
0.0
 30
0.0
 70
   128
 71
   134
 72
   133
 73
   145
  0
VERTEX
  5
13BF
330
1024
100
AcDbEntity
  8
0
 62
     7
100
AcDbFaceRecord
 10
0.0
 20
0.0
 30
0.0
 70
   128
 71
   100
 72
   120
 73
    99
  0
VERTEX
  5
13C0
330
1024
100
AcDbEntity
  8
0
 62
     7
100
AcDbFaceRecord
 10
0.0
 20
0.0
 30
0.0
 70
   128
 71
   100
 72
   118
 73
   120
  0
VERTEX
  5
13C1
330
1024
100
AcDbEntity
  8
0
 62
     7
100
AcDbFaceRecord
 10
0.0
 20
0.0
 30
0.0
 70
   128
 71
   196
 72
   199
 73
   178
  0
VERTEX
  5
13C2
330
1024
100
AcDbEntity
  8
0
 62
     7
100
AcDbFaceRecord
 10
0.0
 20
0.0
 30
0.0
 70
   128
 71
   210
 72
   169
 73
   207
  0
VERTEX
  5
13C3
330
1024
100
AcDbEntity
  8
0
 62
     7
100
AcDbFaceRecord
 10
0.0
 20
0.0
 30
0.0
 70
   128
 71
   210
 72
   173
 73
   169
  0
VERTEX
  5
13C4
330
1024
100
AcDbEntity
  8
0
 62
     7
100
AcDbFaceRecord
 10
0.0
 20
0.0
 30
0.0
 70
   128
 71
   210
 72
   184
 73
   173
  0
VERTEX
  5
13C5
330
1024
100
AcDbEntity
  8
0
 62
     7
100
AcDbFaceRecord
 10
0.0
 20
0.0
 30
0.0
 70
   128
 71
   210
 72
   179
 73
   184
  0
VERTEX
  5
13C6
330
1024
100
AcDbEntity
  8
0
 62
     7
100
AcDbFaceRecord
 10
0.0
 20
0.0
 30
0.0
 70
   128
 71
   210
 72
   180
 73
   179
  0
VERTEX
  5
13C7
330
1024
100
AcDbEntity
  8
0
 62
     7
100
AcDbFaceRecord
 10
0.0
 20
0.0
 30
0.0
 70
   128
 71
   180
 72
   210
 73
   207
  0
VERTEX
  5
13C8
330
1024
100
AcDbEntity
  8
0
 62
     7
100
AcDbFaceRecord
 10
0.0
 20
0.0
 30
0.0
 70
   128
 71
   211
 72
   158
 73
   159
  0
VERTEX
  5
13C9
330
1024
100
AcDbEntity
  8
0
 62
     7
100
AcDbFaceRecord
 10
0.0
 20
0.0
 30
0.0
 70
   128
 71
   211
 72
   170
 73
   158
  0
VERTEX
  5
13CA
330
1024
100
AcDbEntity
  8
0
 62
     7
100
AcDbFaceRecord
 10
0.0
 20
0.0
 30
0.0
 70
   128
 71
   211
 72
   167
 73
   170
  0
VERTEX
  5
13CB
330
1024
100
AcDbEntity
  8
0
 62
     7
100
AcDbFaceRecord
 10
0.0
 20
0.0
 30
0.0
 70
   128
 71
   211
 72
   168
 73
   167
  0
VERTEX
  5
13CC
330
1024
100
AcDbEntity
  8
0
 62
     7
100
AcDbFaceRecord
 10
0.0
 20
0.0
 30
0.0
 70
   128
 71
   211
 72
   208
 73
   168
  0
VERTEX
  5
13CD
330
1024
100
AcDbEntity
  8
0
 62
     7
100
AcDbFaceRecord
 10
0.0
 20
0.0
 30
0.0
 70
   128
 71
   208
 72
   211
 73
   159
  0
VERTEX
  5
13CE
330
1024
100
AcDbEntity
  8
0
 62
     7
100
AcDbFaceRecord
 10
0.0
 20
0.0
 30
0.0
 70
   128
 71
   159
 72
   156
 73
   157
  0
VERTEX
  5
13CF
330
1024
100
AcDbEntity
  8
0
 62
     7
100
AcDbFaceRecord
 10
0.0
 20
0.0
 30
0.0
 70
   128
 71
   157
 72
   209
 73
   133
  0
VERTEX
  5
13D0
330
1024
100
AcDbEntity
  8
0
 62
     7
100
AcDbFaceRecord
 10
0.0
 20
0.0
 30
0.0
 70
   128
 71
   212
 72
   124
 73
   125
  0
VERTEX
  5
13D1
330
1024
100
AcDbEntity
  8
0
 62
     7
100
AcDbFaceRecord
 10
0.0
 20
0.0
 30
0.0
 70
   128
 71
   212
 72
   121
 73
   124
  0
VERTEX
  5
13D2
330
1024
100
AcDbEntity
  8
0
 62
     7
100
AcDbFaceRecord
 10
0.0
 20
0.0
 30
0.0
 70
   128
 71
   212
 72
   136
 73
   121
  0
VERTEX
  5
13D3
330
1024
100
AcDbEntity
  8
0
 62
     7
100
AcDbFaceRecord
 10
0.0
 20
0.0
 30
0.0
 70
   128
 71
   212
 72
   134
 73
   136
  0
VERTEX
  5
13D4
330
1024
100
AcDbEntity
  8
0
 62
     7
100
AcDbFaceRecord
 10
0.0
 20
0.0
 30
0.0
 70
   128
 71
   212
 72
   135
 73
   134
  0
VERTEX
  5
13D5
330
1024
100
AcDbEntity
  8
0
 62
     7
100
AcDbFaceRecord
 10
0.0
 20
0.0
 30
0.0
 70
   128
 71
   135
 72
   212
 73
   125
  0
VERTEX
  5
13D6
330
1024
100
AcDbEntity
  8
0
 62
     7
100
AcDbFaceRecord
 10
0.0
 20
0.0
 30
0.0
 70
   128
 71
   201
 72
   125
 73
   123
  0
VERTEX
  5
13D7
330
1024
100
AcDbEntity
  8
0
 62
     7
100
AcDbFaceRecord
 10
0.0
 20
0.0
 30
0.0
 70
   128
 71
   201
 72
   123
 73
   109
  0
VERTEX
  5
13D8
330
1024
100
AcDbEntity
  8
0
 62
     7
100
AcDbFaceRecord
 10
0.0
 20
0.0
 30
0.0
 70
   128
 71
   213
 72
   116
 73
   115
  0
VERTEX
  5
13D9
330
1024
100
AcDbEntity
  8
0
 62
     7
100
AcDbFaceRecord
 10
0.0
 20
0.0
 30
0.0
 70
   128
 71
   213
 72
   119
 73
   116
  0
VERTEX
  5
13DA
330
1024
100
AcDbEntity
  8
0
 62
     7
100
AcDbFaceRecord
 10
0.0
 20
0.0
 30
0.0
 70
   128
 71
   213
 72
   112
 73
   119
  0
VERTEX
  5
13DB
330
1024
100
AcDbEntity
  8
0
 62
     7
100
AcDbFaceRecord
 10
0.0
 20
0.0
 30
0.0
 70
   128
 71
   213
 72
   110
 73
   112
  0
VERTEX
  5
13DC
330
1024
100
AcDbEntity
  8
0
 62
     7
100
AcDbFaceRecord
 10
0.0
 20
0.0
 30
0.0
 70
   128
 71
   213
 72
   111
 73
   110
  0
VERTEX
  5
13DD
330
1024
100
AcDbEntity
  8
0
 62
     7
100
AcDbFaceRecord
 10
0.0
 20
0.0
 30
0.0
 70
   128
 71
   205
 72
   111
 73
   213
  0
VERTEX
  5
13DE
330
1024
100
AcDbEntity
  8
0
 62
     7
100
AcDbFaceRecord
 10
0.0
 20
0.0
 30
0.0
 70
   128
 71
   205
 72
   213
 73
   115
  0
VERTEX
  5
13DF
330
1024
100
AcDbEntity
  8
0
 62
     7
100
AcDbFaceRecord
 10
0.0
 20
0.0
 30
0.0
 70
   128
 71
   214
 72
   118
 73
   100
  0
VERTEX
  5
13E0
330
1024
100
AcDbEntity
  8
0
 62
     7
100
AcDbFaceRecord
 10
0.0
 20
0.0
 30
0.0
 70
   128
 71
   214
 72
   116
 73
   118
  0
VERTEX
  5
13E1
330
1024
100
AcDbEntity
  8
0
 62
     7
100
AcDbFaceRecord
 10
0.0
 20
0.0
 30
0.0
 70
   128
 71
   214
 72
   117
 73
   116
  0
VERTEX
  5
13E2
330
1024
100
AcDbEntity
  8
0
 62
     7
100
AcDbFaceRecord
 10
0.0
 20
0.0
 30
0.0
 70
   128
 71
   215
 72
   117
 73
   214
  0
VERTEX
  5
13E3
330
1024
100
AcDbEntity
  8
0
 62
     7
100
AcDbFaceRecord
 10
0.0
 20
0.0
 30
0.0
 70
   128
 71
   216
 72
   215
 73
   214
  0
VERTEX
  5
13E4
330
1024
100
AcDbEntity
  8
0
 62
     7
100
AcDbFaceRecord
 10
0.0
 20
0.0
 30
0.0
 70
   128
 71
   217
 72
   216
 73
   214
  0
VERTEX
  5
13E5
330
1024
100
AcDbEntity
  8
0
 62
     7
100
AcDbFaceRecord
 10
0.0
 20
0.0
 30
0.0
 70
   128
 71
   218
 72
   217
 73
   214
  0
VERTEX
  5
13E6
330
1024
100
AcDbEntity
  8
0
 62
     7
100
AcDbFaceRecord
 10
0.0
 20
0.0
 30
0.0
 70
   128
 71
    97
 72
   218
 73
   214
  0
VERTEX
  5
13E7
330
1024
100
AcDbEntity
  8
0
 62
     7
100
AcDbFaceRecord
 10
0.0
 20
0.0
 30
0.0
 70
   128
 71
    97
 72
   214
 73
   100
  0
VERTEX
  5
13E8
330
1024
100
AcDbEntity
  8
0
 62
     7
100
AcDbFaceRecord
 10
0.0
 20
0.0
 30
0.0
 70
   128
 71
   219
 72
   138
 73
   102
  0
VERTEX
  5
13E9
330
1024
100
AcDbEntity
  8
0
 62
     7
100
AcDbFaceRecord
 10
0.0
 20
0.0
 30
0.0
 70
   128
 71
   219
 72
   126
 73
   138
  0
VERTEX
  5
13EA
330
1024
100
AcDbEntity
  8
0
 62
     7
100
AcDbFaceRecord
 10
0.0
 20
0.0
 30
0.0
 70
   128
 71
   219
 72
   128
 73
   126
  0
VERTEX
  5
13EB
330
1024
100
AcDbEntity
  8
0
 62
     7
100
AcDbFaceRecord
 10
0.0
 20
0.0
 30
0.0
 70
   128
 71
   219
 72
   120
 73
   128
  0
VERTEX
  5
13EC
330
1024
100
AcDbEntity
  8
0
 62
     7
100
AcDbFaceRecord
 10
0.0
 20
0.0
 30
0.0
 70
   128
 71
   219
 72
    99
 73
   120
  0
VERTEX
  5
13ED
330
1024
100
AcDbEntity
  8
0
 62
     7
100
AcDbFaceRecord
 10
0.0
 20
0.0
 30
0.0
 70
   128
 71
    99
 72
   219
 73
   102
  0
VERTEX
  5
13EE
330
1024
100
AcDbEntity
  8
0
 62
     7
100
AcDbFaceRecord
 10
0.0
 20
0.0
 30
0.0
 70
   128
 71
   102
 72
   129
 73
   101
  0
VERTEX
  5
13EF
330
1024
100
AcDbEntity
  8
0
 62
     7
100
AcDbFaceRecord
 10
0.0
 20
0.0
 30
0.0
 70
   128
 71
   101
 72
   140
 73
   104
  0
VERTEX
  5
13F0
330
1024
100
AcDbEntity
  8
0
 62
     7
100
AcDbFaceRecord
 10
0.0
 20
0.0
 30
0.0
 70
   128
 71
   220
 72
   163
 73
   106
  0
VERTEX
  5
13F1
330
1024
100
AcDbEntity
  8
0
 62
     7
100
AcDbFaceRecord
 10
0.0
 20
0.0
 30
0.0
 70
   128
 71
   220
 72
   161
 73
   163
  0
VERTEX
  5
13F2
330
1024
100
AcDbEntity
  8
0
 62
     7
100
AcDbFaceRecord
 10
0.0
 20
0.0
 30
0.0
 70
   128
 71
   220
 72
   154
 73
   161
  0
VERTEX
  5
13F3
330
1024
100
AcDbEntity
  8
0
 62
     7
100
AcDbFaceRecord
 10
0.0
 20
0.0
 30
0.0
 70
   128
 71
   220
 72
   155
 73
   154
  0
VERTEX
  5
13F4
330
1024
100
AcDbEntity
  8
0
 62
     7
100
AcDbFaceRecord
 10
0.0
 20
0.0
 30
0.0
 70
   128
 71
   220
 72
   103
 73
   155
  0
VERTEX
  5
13F5
330
1024
100
AcDbEntity
  8
0
 62
     7
100
AcDbFaceRecord
 10
0.0
 20
0.0
 30
0.0
 70
   128
 71
   103
 72
   220
 73
   106
  0
VERTEX
  5
13F6
330
1024
100
AcDbEntity
  8
0
 62
     7
100
AcDbFaceRecord
 10
0.0
 20
0.0
 30
0.0
 70
   128
 71
   221
 72
   185
 73
   108
  0
VERTEX
  5
13F7
330
1024
100
AcDbEntity
  8
0
 62
     7
100
AcDbFaceRecord
 10
0.0
 20
0.0
 30
0.0
 70
   128
 71
   221
 72
   175
 73
   185
  0
VERTEX
  5
13F8
330
1024
100
AcDbEntity
  8
0
 62
     7
100
AcDbFaceRecord
 10
0.0
 20
0.0
 30
0.0
 70
   128
 71
   221
 72
   177
 73
   175
  0
VERTEX
  5
13F9
330
1024
100
AcDbEntity
  8
0
 62
     7
100
AcDbFaceRecord
 10
0.0
 20
0.0
 30
0.0
 70
   128
 71
   221
 72
   162
 73
   177
  0
VERTEX
  5
13FA
330
1024
100
AcDbEntity
  8
0
 62
     7
100
AcDbFaceRecord
 10
0.0
 20
0.0
 30
0.0
 70
   128
 71
   221
 72
   105
 73
   162
  0
VERTEX
  5
13FB
330
1024
100
AcDbEntity
  8
0
 62
     7
100
AcDbFaceRecord
 10
0.0
 20
0.0
 30
0.0
 70
   128
 71
   105
 72
   221
 73
   108
  0
VERTEX
  5
13FC
330
1024
100
AcDbEntity
  8
0
 62
     7
100
AcDbFaceRecord
 10
0.0
 20
0.0
 30
0.0
 70
   128
 71
   108
 72
   186
 73
   107
  0
VERTEX
  5
13FD
330
1024
100
AcDbEntity
  8
0
 62
     7
100
AcDbFaceRecord
 10
0.0
 20
0.0
 30
0.0
 70
   128
 71
   107
 72
   206
 73
    98
  0
VERTEX
  5
13FE
330
1024
100
AcDbEntity
  8
0
 62
     7
100
AcDbFaceRecord
 10
0.0
 20
0.0
 30
0.0
 70
   128
 71
   218
 72
    97
 73
   195
  0
VERTEX
  5
13FF
330
1024
100
AcDbEntity
  8
0
 62
     7
100
AcDbFaceRecord
 10
0.0
 20
0.0
 30
0.0
 70
   128
 71
   217
 72
   218
 73
   195
  0
VERTEX
  5
1400
330
1024
100
AcDbEntity
  8
0
 62
     7
100
AcDbFaceRecord
 10
0.0
 20
0.0
 30
0.0
 70
   128
 71
   222
 72
   204
 73
   115
  0
VERTEX
  5
1401
330
1024
100
AcDbEntity
  8
0
 62
     7
100
AcDbFaceRecord
 10
0.0
 20
0.0
 30
0.0
 70
   128
 71
   222
 72
   200
 73
   204
  0
VERTEX
  5
1402
330
1024
100
AcDbEntity
  8
0
 62
     7
100
AcDbFaceRecord
 10
0.0
 20
0.0
 30
0.0
 70
   128
 71
   222
 72
   194
 73
   200
  0
VERTEX
  5
1403
330
1024
100
AcDbEntity
  8
0
 62
     7
100
AcDbFaceRecord
 10
0.0
 20
0.0
 30
0.0
 70
   128
 71
   222
 72
   195
 73
   194
  0
VERTEX
  5
1404
330
1024
100
AcDbEntity
  8
0
 62
     7
100
AcDbFaceRecord
 10
0.0
 20
0.0
 30
0.0
 70
   128
 71
   222
 72
   217
 73
   195
  0
VERTEX
  5
1405
330
1024
100
AcDbEntity
  8
0
 62
     7
100
AcDbFaceRecord
 10
0.0
 20
0.0
 30
0.0
 70
   128
 71
   216
 72
   217
 73
   222
  0
VERTEX
  5
1406
330
1024
100
AcDbEntity
  8
0
 62
     7
100
AcDbFaceRecord
 10
0.0
 20
0.0
 30
0.0
 70
   128
 71
   215
 72
   216
 73
   222
  0
VERTEX
  5
1407
330
1024
100
AcDbEntity
  8
0
 62
     7
100
AcDbFaceRecord
 10
0.0
 20
0.0
 30
0.0
 70
   128
 71
   117
 72
   215
 73
   222
  0
VERTEX
  5
1408
330
1024
100
AcDbEntity
  8
0
 62
     7
100
AcDbFaceRecord
 10
0.0
 20
0.0
 30
0.0
 70
   128
 71
   117
 72
   222
 73
   115
  0
VERTEX
  5
1409
330
1024
100
AcDbEntity
  8
0
 62
     7
100
AcDbFaceRecord
 10
0.0
 20
0.0
 30
0.0
 70
   128
 71
   223
 72
   202
 73
   109
  0
VERTEX
  5
140A
330
1024
100
AcDbEntity
  8
0
 62
     7
100
AcDbFaceRecord
 10
0.0
 20
0.0
 30
0.0
 70
   128
 71
   223
 72
   197
 73
   202
  0
VERTEX
  5
140B
330
1024
100
AcDbEntity
  8
0
 62
     7
100
AcDbFaceRecord
 10
0.0
 20
0.0
 30
0.0
 70
   128
 71
   223
 72
   203
 73
   197
  0
VERTEX
  5
140C
330
1024
100
AcDbEntity
  8
0
 62
     7
100
AcDbFaceRecord
 10
0.0
 20
0.0
 30
0.0
 70
   128
 71
   223
 72
   204
 73
   203
  0
VERTEX
  5
140D
330
1024
100
AcDbEntity
  8
0
 62
     7
100
AcDbFaceRecord
 10
0.0
 20
0.0
 30
0.0
 70
   128
 71
   223
 72
   205
 73
   204
  0
VERTEX
  5
140E
330
1024
100
AcDbEntity
  8
0
 62
     7
100
AcDbFaceRecord
 10
0.0
 20
0.0
 30
0.0
 70
   128
 71
   111
 72
   205
 73
   223
  0
VERTEX
  5
140F
330
1024
100
AcDbEntity
  8
0
 62
     7
100
AcDbFaceRecord
 10
0.0
 20
0.0
 30
0.0
 70
   128
 71
   111
 72
   223
 73
   109
  0
VERTEX
  5
1410
330
1024
100
AcDbEntity
  8
0
 62
     7
100
AcDbFaceRecord
 10
0.0
 20
0.0
 30
0.0
 70
   128
 71
   224
 72
   197
 73
   196
  0
VERTEX
  5
1411
330
1024
100
AcDbEntity
  8
0
 62
     7
100
AcDbFaceRecord
 10
0.0
 20
0.0
 30
0.0
 70
   128
 71
   224
 72
   202
 73
   197
  0
VERTEX
  5
1412
330
1024
100
AcDbEntity
  8
0
 62
     7
100
AcDbFaceRecord
 10
0.0
 20
0.0
 30
0.0
 70
   128
 71
   224
 72
   201
 73
   202
  0
VERTEX
  5
1413
330
1024
100
AcDbEntity
  8
0
 62
     7
100
AcDbFaceRecord
 10
0.0
 20
0.0
 30
0.0
 70
   128
 71
   225
 72
   135
 73
   226
  0
VERTEX
  5
1414
330
1024
100
AcDbEntity
  8
0
 62
     7
100
AcDbFaceRecord
 10
0.0
 20
0.0
 30
0.0
 70
   128
 71
   227
 72
   208
 73
   228
  0
VERTEX
  5
1415
330
1024
100
AcDbEntity
  8
0
 62
     7
100
AcDbFaceRecord
 10
0.0
 20
0.0
 30
0.0
 70
   128
 71
   229
 72
   180
 73
   230
  0
VERTEX
  5
1416
330
1024
100
AcDbEntity
  8
0
 62
     7
100
AcDbFaceRecord
 10
0.0
 20
0.0
 30
0.0
 70
   128
 71
   231
 72
   196
 73
   232
  0
VERTEX
  5
1417
330
1024
100
AcDbEntity
  8
0
 62
     7
100
AcDbFaceRecord
 10
0.0
 20
0.0
 30
0.0
 70
   128
 71
   201
 72
   233
 73
   234
  0
VERTEX
  5
1418
330
1024
100
AcDbEntity
  8
0
 62
     7
100
AcDbFaceRecord
 10
0.0
 20
0.0
 30
0.0
 70
   128
 71
   133
 72
   135
 73
   225
  0
VERTEX
  5
1419
330
1024
100
AcDbEntity
  8
0
 62
     7
100
AcDbFaceRecord
 10
0.0
 20
0.0
 30
0.0
 70
   128
 71
   125
 72
   201
 73
   234
  0
VERTEX
  5
141A
330
1024
100
AcDbEntity
  8
0
 62
     7
100
AcDbFaceRecord
 10
0.0
 20
0.0
 30
0.0
 70
   128
 71
   224
 72
   196
 73
   231
  0
VERTEX
  5
141B
330
1024
100
AcDbEntity
  8
0
 62
     7
100
AcDbFaceRecord
 10
0.0
 20
0.0
 30
0.0
 70
   128
 71
   178
 72
   180
 73
   229
  0
VERTEX
  5
141C
330
1024
100
AcDbEntity
  8
0
 62
     7
100
AcDbFaceRecord
 10
0.0
 20
0.0
 30
0.0
 70
   128
 71
   207
 72
   208
 73
   227
  0
VERTEX
  5
141D
330
1024
100
AcDbEntity
  8
0
 62
     7
100
AcDbFaceRecord
 10
0.0
 20
0.0
 30
0.0
 70
   128
 71
   157
 72
   235
 73
   159
  0
VERTEX
  5
141E
330
1024
100
AcDbEntity
  8
0
 62
     7
100
AcDbFaceRecord
 10
0.0
 20
0.0
 30
0.0
 70
   128
 71
   157
 72
   236
 73
   235
  0
VERTEX
  5
141F
330
1024
100
AcDbEntity
  8
0
 62
     7
100
AcDbFaceRecord
 10
0.0
 20
0.0
 30
0.0
 70
   128
 71
   237
 72
   238
 73
   239
  0
VERTEX
  5
1420
330
1024
100
AcDbEntity
  8
0
 62
     7
100
AcDbFaceRecord
 10
0.0
 20
0.0
 30
0.0
 70
   128
 71
   240
 72
   241
 73
   242
  0
VERTEX
  5
1421
330
1024
100
AcDbEntity
  8
0
 62
     7
100
AcDbFaceRecord
 10
0.0
 20
0.0
 30
0.0
 70
   128
 71
   243
 72
   244
 73
   245
  0
VERTEX
  5
1422
330
1024
100
AcDbEntity
  8
0
 62
     7
100
AcDbFaceRecord
 10
0.0
 20
0.0
 30
0.0
 70
   128
 71
   246
 72
   247
 73
   248
  0
VERTEX
  5
1423
330
1024
100
AcDbEntity
  8
0
 62
     7
100
AcDbFaceRecord
 10
0.0
 20
0.0
 30
0.0
 70
   128
 71
   249
 72
   250
 73
   251
  0
VERTEX
  5
1424
330
1024
100
AcDbEntity
  8
0
 62
     7
100
AcDbFaceRecord
 10
0.0
 20
0.0
 30
0.0
 70
   128
 71
   252
 72
   253
 73
   254
  0
VERTEX
  5
1425
330
1024
100
AcDbEntity
  8
0
 62
     7
100
AcDbFaceRecord
 10
0.0
 20
0.0
 30
0.0
 70
   128
 71
   226
 72
   234
 73
   248
  0
VERTEX
  5
1426
330
1024
100
AcDbEntity
  8
0
 62
     7
100
AcDbFaceRecord
 10
0.0
 20
0.0
 30
0.0
 70
   128
 71
   226
 72
   125
 73
   234
  0
VERTEX
  5
1427
330
1024
100
AcDbEntity
  8
0
 62
     7
100
AcDbFaceRecord
 10
0.0
 20
0.0
 30
0.0
 70
   128
 71
   125
 72
   226
 73
   135
  0
VERTEX
  5
1428
330
1024
100
AcDbEntity
  8
0
 62
     7
100
AcDbFaceRecord
 10
0.0
 20
0.0
 30
0.0
 70
   128
 71
   236
 72
   225
 73
   251
  0
VERTEX
  5
1429
330
1024
100
AcDbEntity
  8
0
 62
     7
100
AcDbFaceRecord
 10
0.0
 20
0.0
 30
0.0
 70
   128
 71
   236
 72
   133
 73
   225
  0
VERTEX
  5
142A
330
1024
100
AcDbEntity
  8
0
 62
     7
100
AcDbFaceRecord
 10
0.0
 20
0.0
 30
0.0
 70
   128
 71
   133
 72
   236
 73
   157
  0
VERTEX
  5
142B
330
1024
100
AcDbEntity
  8
0
 62
     7
100
AcDbFaceRecord
 10
0.0
 20
0.0
 30
0.0
 70
   128
 71
   228
 72
   235
 73
   253
  0
VERTEX
  5
142C
330
1024
100
AcDbEntity
  8
0
 62
     7
100
AcDbFaceRecord
 10
0.0
 20
0.0
 30
0.0
 70
   128
 71
   228
 72
   159
 73
   235
  0
VERTEX
  5
142D
330
1024
100
AcDbEntity
  8
0
 62
     7
100
AcDbFaceRecord
 10
0.0
 20
0.0
 30
0.0
 70
   128
 71
   159
 72
   228
 73
   208
  0
VERTEX
  5
142E
330
1024
100
AcDbEntity
  8
0
 62
     7
100
AcDbFaceRecord
 10
0.0
 20
0.0
 30
0.0
 70
   128
 71
   230
 72
   227
 73
   239
  0
VERTEX
  5
142F
330
1024
100
AcDbEntity
  8
0
 62
     7
100
AcDbFaceRecord
 10
0.0
 20
0.0
 30
0.0
 70
   128
 71
   230
 72
   207
 73
   227
  0
VERTEX
  5
1430
330
1024
100
AcDbEntity
  8
0
 62
     7
100
AcDbFaceRecord
 10
0.0
 20
0.0
 30
0.0
 70
   128
 71
   207
 72
   230
 73
   180
  0
VERTEX
  5
1431
330
1024
100
AcDbEntity
  8
0
 62
     7
100
AcDbFaceRecord
 10
0.0
 20
0.0
 30
0.0
 70
   128
 71
   232
 72
   229
 73
   242
  0
VERTEX
  5
1432
330
1024
100
AcDbEntity
  8
0
 62
     7
100
AcDbFaceRecord
 10
0.0
 20
0.0
 30
0.0
 70
   128
 71
   232
 72
   178
 73
   229
  0
VERTEX
  5
1433
330
1024
100
AcDbEntity
  8
0
 62
     7
100
AcDbFaceRecord
 10
0.0
 20
0.0
 30
0.0
 70
   128
 71
   178
 72
   232
 73
   196
  0
VERTEX
  5
1434
330
1024
100
AcDbEntity
  8
0
 62
     7
100
AcDbFaceRecord
 10
0.0
 20
0.0
 30
0.0
 70
   128
 71
   233
 72
   231
 73
   245
  0
VERTEX
  5
1435
330
1024
100
AcDbEntity
  8
0
 62
     7
100
AcDbFaceRecord
 10
0.0
 20
0.0
 30
0.0
 70
   128
 71
   233
 72
   224
 73
   231
  0
VERTEX
  5
1436
330
1024
100
AcDbEntity
  8
0
 62
     7
100
AcDbFaceRecord
 10
0.0
 20
0.0
 30
0.0
 70
   128
 71
   224
 72
   233
 73
   201
  0
VERTEX
  5
1437
330
1024
100
AcDbEntity
  8
0
 62
     7
100
AcDbFaceRecord
 10
0.0
 20
0.0
 30
0.0
 70
   128
 71
   255
 72
   245
 73
   244
  0
VERTEX
  5
1438
330
1024
100
AcDbEntity
  8
0
 62
     7
100
AcDbFaceRecord
 10
0.0
 20
0.0
 30
0.0
 70
   128
 71
   255
 72
   233
 73
   245
  0
VERTEX
  5
1439
330
1024
100
AcDbEntity
  8
0
 62
     7
100
AcDbFaceRecord
 10
0.0
 20
0.0
 30
0.0
 70
   128
 71
   255
 72
   234
 73
   233
  0
VERTEX
  5
143A
330
1024
100
AcDbEntity
  8
0
 62
     7
100
AcDbFaceRecord
 10
0.0
 20
0.0
 30
0.0
 70
   128
 71
   255
 72
   248
 73
   234
  0
VERTEX
  5
143B
330
1024
100
AcDbEntity
  8
0
 62
     7
100
AcDbFaceRecord
 10
0.0
 20
0.0
 30
0.0
 70
   128
 71
   255
 72
   246
 73
   248
  0
VERTEX
  5
143C
330
1024
100
AcDbEntity
  8
0
 62
     7
100
AcDbFaceRecord
 10
0.0
 20
0.0
 30
0.0
 70
   128
 71
   246
 72
   255
 73
   244
  0
VERTEX
  5
143D
330
1024
100
AcDbEntity
  8
0
 62
     7
100
AcDbFaceRecord
 10
0.0
 20
0.0
 30
0.0
 70
   128
 71
   256
 72
   242
 73
   241
  0
VERTEX
  5
143E
330
1024
100
AcDbEntity
  8
0
 62
     7
100
AcDbFaceRecord
 10
0.0
 20
0.0
 30
0.0
 70
   128
 71
   256
 72
   232
 73
   242
  0
VERTEX
  5
143F
330
1024
100
AcDbEntity
  8
0
 62
     7
100
AcDbFaceRecord
 10
0.0
 20
0.0
 30
0.0
 70
   128
 71
   256
 72
   231
 73
   232
  0
VERTEX
  5
1440
330
1024
100
AcDbEntity
  8
0
 62
     7
100
AcDbFaceRecord
 10
0.0
 20
0.0
 30
0.0
 70
   128
 71
   256
 72
   245
 73
   231
  0
VERTEX
  5
1441
330
1024
100
AcDbEntity
  8
0
 62
     7
100
AcDbFaceRecord
 10
0.0
 20
0.0
 30
0.0
 70
   128
 71
   256
 72
   243
 73
   245
  0
VERTEX
  5
1442
330
1024
100
AcDbEntity
  8
0
 62
     7
100
AcDbFaceRecord
 10
0.0
 20
0.0
 30
0.0
 70
   128
 71
   243
 72
   256
 73
   241
  0
VERTEX
  5
1443
330
1024
100
AcDbEntity
  8
0
 62
     7
100
AcDbFaceRecord
 10
0.0
 20
0.0
 30
0.0
 70
   128
 71
   257
 72
   239
 73
   238
  0
VERTEX
  5
1444
330
1024
100
AcDbEntity
  8
0
 62
     7
100
AcDbFaceRecord
 10
0.0
 20
0.0
 30
0.0
 70
   128
 71
   257
 72
   230
 73
   239
  0
VERTEX
  5
1445
330
1024
100
AcDbEntity
  8
0
 62
     7
100
AcDbFaceRecord
 10
0.0
 20
0.0
 30
0.0
 70
   128
 71
   257
 72
   229
 73
   230
  0
VERTEX
  5
1446
330
1024
100
AcDbEntity
  8
0
 62
     7
100
AcDbFaceRecord
 10
0.0
 20
0.0
 30
0.0
 70
   128
 71
   257
 72
   242
 73
   229
  0
VERTEX
  5
1447
330
1024
100
AcDbEntity
  8
0
 62
     7
100
AcDbFaceRecord
 10
0.0
 20
0.0
 30
0.0
 70
   128
 71
   257
 72
   240
 73
   242
  0
VERTEX
  5
1448
330
1024
100
AcDbEntity
  8
0
 62
     7
100
AcDbFaceRecord
 10
0.0
 20
0.0
 30
0.0
 70
   128
 71
   240
 72
   257
 73
   238
  0
VERTEX
  5
1449
330
1024
100
AcDbEntity
  8
0
 62
     7
100
AcDbFaceRecord
 10
0.0
 20
0.0
 30
0.0
 70
   128
 71
   258
 72
   253
 73
   252
  0
VERTEX
  5
144A
330
1024
100
AcDbEntity
  8
0
 62
     7
100
AcDbFaceRecord
 10
0.0
 20
0.0
 30
0.0
 70
   128
 71
   258
 72
   228
 73
   253
  0
VERTEX
  5
144B
330
1024
100
AcDbEntity
  8
0
 62
     7
100
AcDbFaceRecord
 10
0.0
 20
0.0
 30
0.0
 70
   128
 71
   258
 72
   227
 73
   228
  0
VERTEX
  5
144C
330
1024
100
AcDbEntity
  8
0
 62
     7
100
AcDbFaceRecord
 10
0.0
 20
0.0
 30
0.0
 70
   128
 71
   258
 72
   239
 73
   227
  0
VERTEX
  5
144D
330
1024
100
AcDbEntity
  8
0
 62
     7
100
AcDbFaceRecord
 10
0.0
 20
0.0
 30
0.0
 70
   128
 71
   258
 72
   237
 73
   239
  0
VERTEX
  5
144E
330
1024
100
AcDbEntity
  8
0
 62
     7
100
AcDbFaceRecord
 10
0.0
 20
0.0
 30
0.0
 70
   128
 71
   237
 72
   258
 73
   252
  0
VERTEX
  5
144F
330
1024
100
AcDbEntity
  8
0
 62
     7
100
AcDbFaceRecord
 10
0.0
 20
0.0
 30
0.0
 70
   128
 71
   259
 72
   251
 73
   250
  0
VERTEX
  5
1450
330
1024
100
AcDbEntity
  8
0
 62
     7
100
AcDbFaceRecord
 10
0.0
 20
0.0
 30
0.0
 70
   128
 71
   259
 72
   236
 73
   251
  0
VERTEX
  5
1451
330
1024
100
AcDbEntity
  8
0
 62
     7
100
AcDbFaceRecord
 10
0.0
 20
0.0
 30
0.0
 70
   128
 71
   259
 72
   235
 73
   236
  0
VERTEX
  5
1452
330
1024
100
AcDbEntity
  8
0
 62
     7
100
AcDbFaceRecord
 10
0.0
 20
0.0
 30
0.0
 70
   128
 71
   259
 72
   253
 73
   235
  0
VERTEX
  5
1453
330
1024
100
AcDbEntity
  8
0
 62
     7
100
AcDbFaceRecord
 10
0.0
 20
0.0
 30
0.0
 70
   128
 71
   259
 72
   254
 73
   253
  0
VERTEX
  5
1454
330
1024
100
AcDbEntity
  8
0
 62
     7
100
AcDbFaceRecord
 10
0.0
 20
0.0
 30
0.0
 70
   128
 71
   254
 72
   259
 73
   250
  0
VERTEX
  5
1455
330
1024
100
AcDbEntity
  8
0
 62
     7
100
AcDbFaceRecord
 10
0.0
 20
0.0
 30
0.0
 70
   128
 71
   260
 72
   248
 73
   247
  0
VERTEX
  5
1456
330
1024
100
AcDbEntity
  8
0
 62
     7
100
AcDbFaceRecord
 10
0.0
 20
0.0
 30
0.0
 70
   128
 71
   260
 72
   226
 73
   248
  0
VERTEX
  5
1457
330
1024
100
AcDbEntity
  8
0
 62
     7
100
AcDbFaceRecord
 10
0.0
 20
0.0
 30
0.0
 70
   128
 71
   260
 72
   225
 73
   226
  0
VERTEX
  5
1458
330
1024
100
AcDbEntity
  8
0
 62
     7
100
AcDbFaceRecord
 10
0.0
 20
0.0
 30
0.0
 70
   128
 71
   260
 72
   251
 73
   225
  0
VERTEX
  5
1459
330
1024
100
AcDbEntity
  8
0
 62
     7
100
AcDbFaceRecord
 10
0.0
 20
0.0
 30
0.0
 70
   128
 71
   260
 72
   249
 73
   251
  0
VERTEX
  5
145A
330
1024
100
AcDbEntity
  8
0
 62
     7
100
AcDbFaceRecord
 10
0.0
 20
0.0
 30
0.0
 70
   128
 71
   249
 72
   260
 73
   247
  0
VERTEX
  5
145B
330
1024
100
AcDbEntity
  8
0
 62
     7
100
AcDbFaceRecord
 10
0.0
 20
0.0
 30
0.0
 70
   128
 71
   261
 72
   262
 73
   263
  0
VERTEX
  5
145C
330
1024
100
AcDbEntity
  8
0
 62
     7
100
AcDbFaceRecord
 10
0.0
 20
0.0
 30
0.0
 70
   128
 71
   264
 72
   263
 73
   262
  0
VERTEX
  5
145D
330
1024
100
AcDbEntity
  8
0
 62
     7
100
AcDbFaceRecord
 10
0.0
 20
0.0
 30
0.0
 70
   128
 71
   264
 72
   265
 73
   263
  0
VERTEX
  5
145E
330
1024
100
AcDbEntity
  8
0
 62
     7
100
AcDbFaceRecord
 10
0.0
 20
0.0
 30
0.0
 70
   128
 71
   266
 72
   267
 73
   268
  0
VERTEX
  5
145F
330
1024
100
AcDbEntity
  8
0
 62
     7
100
AcDbFaceRecord
 10
0.0
 20
0.0
 30
0.0
 70
   128
 71
   269
 72
   270
 73
   271
  0
VERTEX
  5
1460
330
1024
100
AcDbEntity
  8
0
 62
     7
100
AcDbFaceRecord
 10
0.0
 20
0.0
 30
0.0
 70
   128
 71
   269
 72
   267
 73
   270
  0
VERTEX
  5
1461
330
1024
100
AcDbEntity
  8
0
 62
     7
100
AcDbFaceRecord
 10
0.0
 20
0.0
 30
0.0
 70
   128
 71
   272
 72
   273
 73
   274
  0
VERTEX
  5
1462
330
1024
100
AcDbEntity
  8
0
 62
     7
100
AcDbFaceRecord
 10
0.0
 20
0.0
 30
0.0
 70
   128
 71
   275
 72
   264
 73
   276
  0
VERTEX
  5
1463
330
1024
100
AcDbEntity
  8
0
 62
     7
100
AcDbFaceRecord
 10
0.0
 20
0.0
 30
0.0
 70
   128
 71
   275
 72
   265
 73
   264
  0
VERTEX
  5
1464
330
1024
100
AcDbEntity
  8
0
 62
     7
100
AcDbFaceRecord
 10
0.0
 20
0.0
 30
0.0
 70
   128
 71
   275
 72
   272
 73
   265
  0
VERTEX
  5
1465
330
1024
100
AcDbEntity
  8
0
 62
     7
100
AcDbFaceRecord
 10
0.0
 20
0.0
 30
0.0
 70
   128
 71
   277
 72
   274
 73
   278
  0
VERTEX
  5
1466
330
1024
100
AcDbEntity
  8
0
 62
     7
100
AcDbFaceRecord
 10
0.0
 20
0.0
 30
0.0
 70
   128
 71
   277
 72
   272
 73
   274
  0
VERTEX
  5
1467
330
1024
100
AcDbEntity
  8
0
 62
     7
100
AcDbFaceRecord
 10
0.0
 20
0.0
 30
0.0
 70
   128
 71
   277
 72
   265
 73
   272
  0
VERTEX
  5
1468
330
1024
100
AcDbEntity
  8
0
 62
     7
100
AcDbFaceRecord
 10
0.0
 20
0.0
 30
0.0
 70
   128
 71
   277
 72
   263
 73
   265
  0
VERTEX
  5
1469
330
1024
100
AcDbEntity
  8
0
 62
     7
100
AcDbFaceRecord
 10
0.0
 20
0.0
 30
0.0
 70
   128
 71
   279
 72
   280
 73
   281
  0
VERTEX
  5
146A
330
1024
100
AcDbEntity
  8
0
 62
     7
100
AcDbFaceRecord
 10
0.0
 20
0.0
 30
0.0
 70
   128
 71
   282
 72
   283
 73
   284
  0
VERTEX
  5
146B
330
1024
100
AcDbEntity
  8
0
 62
     7
100
AcDbFaceRecord
 10
0.0
 20
0.0
 30
0.0
 70
   128
 71
   282
 72
   280
 73
   283
  0
VERTEX
  5
146C
330
1024
100
AcDbEntity
  8
0
 62
     7
100
AcDbFaceRecord
 10
0.0
 20
0.0
 30
0.0
 70
   128
 71
   285
 72
   286
 73
   287
  0
VERTEX
  5
146D
330
1024
100
AcDbEntity
  8
0
 62
     7
100
AcDbFaceRecord
 10
0.0
 20
0.0
 30
0.0
 70
   128
 71
   261
 72
   287
 73
   286
  0
VERTEX
  5
146E
330
1024
100
AcDbEntity
  8
0
 62
     7
100
AcDbFaceRecord
 10
0.0
 20
0.0
 30
0.0
 70
   128
 71
   261
 72
   288
 73
   287
  0
VERTEX
  5
146F
330
1024
100
AcDbEntity
  8
0
 62
     7
100
AcDbFaceRecord
 10
0.0
 20
0.0
 30
0.0
 70
   128
 71
   278
 72
   289
 73
   290
  0
VERTEX
  5
1470
330
1024
100
AcDbEntity
  8
0
 62
     7
100
AcDbFaceRecord
 10
0.0
 20
0.0
 30
0.0
 70
   128
 71
   291
 72
   267
 73
   266
  0
VERTEX
  5
1471
330
1024
100
AcDbEntity
  8
0
 62
     7
100
AcDbFaceRecord
 10
0.0
 20
0.0
 30
0.0
 70
   128
 71
   291
 72
   270
 73
   267
  0
VERTEX
  5
1472
330
1024
100
AcDbEntity
  8
0
 62
     7
100
AcDbFaceRecord
 10
0.0
 20
0.0
 30
0.0
 70
   128
 71
   291
 72
   292
 73
   270
  0
VERTEX
  5
1473
330
1024
100
AcDbEntity
  8
0
 62
     7
100
AcDbFaceRecord
 10
0.0
 20
0.0
 30
0.0
 70
   128
 71
   291
 72
   293
 73
   292
  0
VERTEX
  5
1474
330
1024
100
AcDbEntity
  8
0
 62
     7
100
AcDbFaceRecord
 10
0.0
 20
0.0
 30
0.0
 70
   128
 71
   294
 72
   270
 73
   292
  0
VERTEX
  5
1475
330
1024
100
AcDbEntity
  8
0
 62
     7
100
AcDbFaceRecord
 10
0.0
 20
0.0
 30
0.0
 70
   128
 71
   294
 72
   271
 73
   270
  0
VERTEX
  5
1476
330
1024
100
AcDbEntity
  8
0
 62
     7
100
AcDbFaceRecord
 10
0.0
 20
0.0
 30
0.0
 70
   128
 71
   295
 72
   271
 73
   294
  0
VERTEX
  5
1477
330
1024
100
AcDbEntity
  8
0
 62
     7
100
AcDbFaceRecord
 10
0.0
 20
0.0
 30
0.0
 70
   128
 71
   289
 72
   269
 73
   271
  0
VERTEX
  5
1478
330
1024
100
AcDbEntity
  8
0
 62
     7
100
AcDbFaceRecord
 10
0.0
 20
0.0
 30
0.0
 70
   128
 71
   289
 72
   274
 73
   269
  0
VERTEX
  5
1479
330
1024
100
AcDbEntity
  8
0
 62
     7
100
AcDbFaceRecord
 10
0.0
 20
0.0
 30
0.0
 70
   128
 71
   289
 72
   278
 73
   274
  0
VERTEX
  5
147A
330
1024
100
AcDbEntity
  8
0
 62
     7
100
AcDbFaceRecord
 10
0.0
 20
0.0
 30
0.0
 70
   128
 71
   296
 72
   295
 73
   297
  0
VERTEX
  5
147B
330
1024
100
AcDbEntity
  8
0
 62
     7
100
AcDbFaceRecord
 10
0.0
 20
0.0
 30
0.0
 70
   128
 71
   296
 72
   271
 73
   295
  0
VERTEX
  5
147C
330
1024
100
AcDbEntity
  8
0
 62
     7
100
AcDbFaceRecord
 10
0.0
 20
0.0
 30
0.0
 70
   128
 71
   296
 72
   289
 73
   271
  0
VERTEX
  5
147D
330
1024
100
AcDbEntity
  8
0
 62
     7
100
AcDbFaceRecord
 10
0.0
 20
0.0
 30
0.0
 70
   128
 71
   296
 72
   290
 73
   289
  0
VERTEX
  5
147E
330
1024
100
AcDbEntity
  8
0
 62
     7
100
AcDbFaceRecord
 10
0.0
 20
0.0
 30
0.0
 70
   128
 71
   288
 72
   277
 73
   278
  0
VERTEX
  5
147F
330
1024
100
AcDbEntity
  8
0
 62
     7
100
AcDbFaceRecord
 10
0.0
 20
0.0
 30
0.0
 70
   128
 71
   288
 72
   263
 73
   277
  0
VERTEX
  5
1480
330
1024
100
AcDbEntity
  8
0
 62
     7
100
AcDbFaceRecord
 10
0.0
 20
0.0
 30
0.0
 70
   128
 71
   288
 72
   261
 73
   263
  0
VERTEX
  5
1481
330
1024
100
AcDbEntity
  8
0
 62
     7
100
AcDbFaceRecord
 10
0.0
 20
0.0
 30
0.0
 70
   128
 71
   298
 72
   290
 73
   299
  0
VERTEX
  5
1482
330
1024
100
AcDbEntity
  8
0
 62
     7
100
AcDbFaceRecord
 10
0.0
 20
0.0
 30
0.0
 70
   128
 71
   298
 72
   278
 73
   290
  0
VERTEX
  5
1483
330
1024
100
AcDbEntity
  8
0
 62
     7
100
AcDbFaceRecord
 10
0.0
 20
0.0
 30
0.0
 70
   128
 71
   298
 72
   288
 73
   278
  0
VERTEX
  5
1484
330
1024
100
AcDbEntity
  8
0
 62
     7
100
AcDbFaceRecord
 10
0.0
 20
0.0
 30
0.0
 70
   128
 71
   298
 72
   287
 73
   288
  0
VERTEX
  5
1485
330
1024
100
AcDbEntity
  8
0
 62
     7
100
AcDbFaceRecord
 10
0.0
 20
0.0
 30
0.0
 70
   128
 71
   300
 72
   262
 73
   261
  0
VERTEX
  5
1486
330
1024
100
AcDbEntity
  8
0
 62
     7
100
AcDbFaceRecord
 10
0.0
 20
0.0
 30
0.0
 70
   128
 71
   300
 72
   283
 73
   262
  0
VERTEX
  5
1487
330
1024
100
AcDbEntity
  8
0
 62
     7
100
AcDbFaceRecord
 10
0.0
 20
0.0
 30
0.0
 70
   128
 71
   300
 72
   284
 73
   283
  0
VERTEX
  5
1488
330
1024
100
AcDbEntity
  8
0
 62
     7
100
AcDbFaceRecord
 10
0.0
 20
0.0
 30
0.0
 70
   128
 71
   300
 72
   261
 73
   286
  0
VERTEX
  5
1489
330
1024
100
AcDbEntity
  8
0
 62
     7
100
AcDbFaceRecord
 10
0.0
 20
0.0
 30
0.0
 70
   128
 71
   252
 72
   301
 73
   302
  0
VERTEX
  5
148A
330
1024
100
AcDbEntity
  8
0
 62
     7
100
AcDbFaceRecord
 10
0.0
 20
0.0
 30
0.0
 70
   128
 71
   303
 72
   302
 73
   301
  0
VERTEX
  5
148B
330
1024
100
AcDbEntity
  8
0
 62
     7
100
AcDbFaceRecord
 10
0.0
 20
0.0
 30
0.0
 70
   128
 71
   285
 72
   303
 73
   301
  0
VERTEX
  5
148C
330
1024
100
AcDbEntity
  8
0
 62
     7
100
AcDbFaceRecord
 10
0.0
 20
0.0
 30
0.0
 70
   128
 71
   285
 72
   304
 73
   303
  0
VERTEX
  5
148D
330
1024
100
AcDbEntity
  8
0
 62
     7
100
AcDbFaceRecord
 10
0.0
 20
0.0
 30
0.0
 70
   128
 71
   299
 72
   305
 73
   306
  0
VERTEX
  5
148E
330
1024
100
AcDbEntity
  8
0
 62
     7
100
AcDbFaceRecord
 10
0.0
 20
0.0
 30
0.0
 70
   128
 71
   297
 72
   307
 73
   308
  0
VERTEX
  5
148F
330
1024
100
AcDbEntity
  8
0
 62
     7
100
AcDbFaceRecord
 10
0.0
 20
0.0
 30
0.0
 70
   128
 71
   309
 72
   310
 73
   311
  0
VERTEX
  5
1490
330
1024
100
AcDbEntity
  8
0
 62
     7
100
AcDbFaceRecord
 10
0.0
 20
0.0
 30
0.0
 70
   128
 71
   307
 72
   297
 73
   295
  0
VERTEX
  5
1491
330
1024
100
AcDbEntity
  8
0
 62
     7
100
AcDbFaceRecord
 10
0.0
 20
0.0
 30
0.0
 70
   128
 71
   312
 72
   295
 73
   294
  0
VERTEX
  5
1492
330
1024
100
AcDbEntity
  8
0
 62
     7
100
AcDbFaceRecord
 10
0.0
 20
0.0
 30
0.0
 70
   128
 71
   312
 72
   307
 73
   295
  0
VERTEX
  5
1493
330
1024
100
AcDbEntity
  8
0
 62
     7
100
AcDbFaceRecord
 10
0.0
 20
0.0
 30
0.0
 70
   128
 71
   312
 72
   313
 73
   307
  0
VERTEX
  5
1494
330
1024
100
AcDbEntity
  8
0
 62
     7
100
AcDbFaceRecord
 10
0.0
 20
0.0
 30
0.0
 70
   128
 71
   314
 72
   307
 73
   313
  0
VERTEX
  5
1495
330
1024
100
AcDbEntity
  8
0
 62
     7
100
AcDbFaceRecord
 10
0.0
 20
0.0
 30
0.0
 70
   128
 71
   314
 72
   308
 73
   307
  0
VERTEX
  5
1496
330
1024
100
AcDbEntity
  8
0
 62
     7
100
AcDbFaceRecord
 10
0.0
 20
0.0
 30
0.0
 70
   128
 71
   305
 72
   296
 73
   297
  0
VERTEX
  5
1497
330
1024
100
AcDbEntity
  8
0
 62
     7
100
AcDbFaceRecord
 10
0.0
 20
0.0
 30
0.0
 70
   128
 71
   305
 72
   290
 73
   296
  0
VERTEX
  5
1498
330
1024
100
AcDbEntity
  8
0
 62
     7
100
AcDbFaceRecord
 10
0.0
 20
0.0
 30
0.0
 70
   128
 71
   305
 72
   299
 73
   290
  0
VERTEX
  5
1499
330
1024
100
AcDbEntity
  8
0
 62
     7
100
AcDbFaceRecord
 10
0.0
 20
0.0
 30
0.0
 70
   128
 71
   315
 72
   308
 73
   316
  0
VERTEX
  5
149A
330
1024
100
AcDbEntity
  8
0
 62
     7
100
AcDbFaceRecord
 10
0.0
 20
0.0
 30
0.0
 70
   128
 71
   315
 72
   297
 73
   308
  0
VERTEX
  5
149B
330
1024
100
AcDbEntity
  8
0
 62
     7
100
AcDbFaceRecord
 10
0.0
 20
0.0
 30
0.0
 70
   128
 71
   315
 72
   305
 73
   297
  0
VERTEX
  5
149C
330
1024
100
AcDbEntity
  8
0
 62
     7
100
AcDbFaceRecord
 10
0.0
 20
0.0
 30
0.0
 70
   128
 71
   315
 72
   306
 73
   305
  0
VERTEX
  5
149D
330
1024
100
AcDbEntity
  8
0
 62
     7
100
AcDbFaceRecord
 10
0.0
 20
0.0
 30
0.0
 70
   128
 71
   304
 72
   298
 73
   299
  0
VERTEX
  5
149E
330
1024
100
AcDbEntity
  8
0
 62
     7
100
AcDbFaceRecord
 10
0.0
 20
0.0
 30
0.0
 70
   128
 71
   304
 72
   287
 73
   298
  0
VERTEX
  5
149F
330
1024
100
AcDbEntity
  8
0
 62
     7
100
AcDbFaceRecord
 10
0.0
 20
0.0
 30
0.0
 70
   128
 71
   304
 72
   285
 73
   287
  0
VERTEX
  5
14A0
330
1024
100
AcDbEntity
  8
0
 62
     7
100
AcDbFaceRecord
 10
0.0
 20
0.0
 30
0.0
 70
   128
 71
   317
 72
   286
 73
   285
  0
VERTEX
  5
14A1
330
1024
100
AcDbEntity
  8
0
 62
     7
100
AcDbFaceRecord
 10
0.0
 20
0.0
 30
0.0
 70
   128
 71
   318
 72
   306
 73
   319
  0
VERTEX
  5
14A2
330
1024
100
AcDbEntity
  8
0
 62
     7
100
AcDbFaceRecord
 10
0.0
 20
0.0
 30
0.0
 70
   128
 71
   318
 72
   299
 73
   306
  0
VERTEX
  5
14A3
330
1024
100
AcDbEntity
  8
0
 62
     7
100
AcDbFaceRecord
 10
0.0
 20
0.0
 30
0.0
 70
   128
 71
   318
 72
   304
 73
   299
  0
VERTEX
  5
14A4
330
1024
100
AcDbEntity
  8
0
 62
     7
100
AcDbFaceRecord
 10
0.0
 20
0.0
 30
0.0
 70
   128
 71
   318
 72
   303
 73
   304
  0
VERTEX
  5
14A5
330
1024
100
AcDbEntity
  8
0
 62
     7
100
AcDbFaceRecord
 10
0.0
 20
0.0
 30
0.0
 70
   128
 71
   317
 72
   301
 73
   254
  0
VERTEX
  5
14A6
330
1024
100
AcDbEntity
  8
0
 62
     7
100
AcDbFaceRecord
 10
0.0
 20
0.0
 30
0.0
 70
   128
 71
   317
 72
   285
 73
   301
  0
VERTEX
  5
14A7
330
1024
100
AcDbEntity
  8
0
 62
     7
100
AcDbFaceRecord
 10
0.0
 20
0.0
 30
0.0
 70
   128
 71
   320
 72
   252
 73
   302
  0
VERTEX
  5
14A8
330
1024
100
AcDbEntity
  8
0
 62
     7
100
AcDbFaceRecord
 10
0.0
 20
0.0
 30
0.0
 70
   128
 71
   321
 72
   322
 73
   323
  0
VERTEX
  5
14A9
330
1024
100
AcDbEntity
  8
0
 62
     7
100
AcDbFaceRecord
 10
0.0
 20
0.0
 30
0.0
 70
   128
 71
   324
 72
   313
 73
   325
  0
VERTEX
  5
14AA
330
1024
100
AcDbEntity
  8
0
 62
     7
100
AcDbFaceRecord
 10
0.0
 20
0.0
 30
0.0
 70
   128
 71
   324
 72
   314
 73
   313
  0
VERTEX
  5
14AB
330
1024
100
AcDbEntity
  8
0
 62
     7
100
AcDbFaceRecord
 10
0.0
 20
0.0
 30
0.0
 70
   128
 71
   324
 72
   322
 73
   314
  0
VERTEX
  5
14AC
330
1024
100
AcDbEntity
  8
0
 62
     7
100
AcDbFaceRecord
 10
0.0
 20
0.0
 30
0.0
 70
   128
 71
   324
 72
   323
 73
   322
  0
VERTEX
  5
14AD
330
1024
100
AcDbEntity
  8
0
 62
     7
100
AcDbFaceRecord
 10
0.0
 20
0.0
 30
0.0
 70
   128
 71
   326
 72
   314
 73
   322
  0
VERTEX
  5
14AE
330
1024
100
AcDbEntity
  8
0
 62
     7
100
AcDbFaceRecord
 10
0.0
 20
0.0
 30
0.0
 70
   128
 71
   326
 72
   308
 73
   314
  0
VERTEX
  5
14AF
330
1024
100
AcDbEntity
  8
0
 62
     7
100
AcDbFaceRecord
 10
0.0
 20
0.0
 30
0.0
 70
   128
 71
   326
 72
   316
 73
   308
  0
VERTEX
  5
14B0
330
1024
100
AcDbEntity
  8
0
 62
     7
100
AcDbFaceRecord
 10
0.0
 20
0.0
 30
0.0
 70
   128
 71
   327
 72
   316
 73
   326
  0
VERTEX
  5
14B1
330
1024
100
AcDbEntity
  8
0
 62
     7
100
AcDbFaceRecord
 10
0.0
 20
0.0
 30
0.0
 70
   128
 71
   328
 72
   315
 73
   316
  0
VERTEX
  5
14B2
330
1024
100
AcDbEntity
  8
0
 62
     7
100
AcDbFaceRecord
 10
0.0
 20
0.0
 30
0.0
 70
   128
 71
   328
 72
   306
 73
   315
  0
VERTEX
  5
14B3
330
1024
100
AcDbEntity
  8
0
 62
     7
100
AcDbFaceRecord
 10
0.0
 20
0.0
 30
0.0
 70
   128
 71
   328
 72
   319
 73
   306
  0
VERTEX
  5
14B4
330
1024
100
AcDbEntity
  8
0
 62
     7
100
AcDbFaceRecord
 10
0.0
 20
0.0
 30
0.0
 70
   128
 71
   329
 72
   319
 73
   328
  0
VERTEX
  5
14B5
330
1024
100
AcDbEntity
  8
0
 62
     7
100
AcDbFaceRecord
 10
0.0
 20
0.0
 30
0.0
 70
   128
 71
   330
 72
   318
 73
   319
  0
VERTEX
  5
14B6
330
1024
100
AcDbEntity
  8
0
 62
     7
100
AcDbFaceRecord
 10
0.0
 20
0.0
 30
0.0
 70
   128
 71
   330
 72
   303
 73
   318
  0
VERTEX
  5
14B7
330
1024
100
AcDbEntity
  8
0
 62
     7
100
AcDbFaceRecord
 10
0.0
 20
0.0
 30
0.0
 70
   128
 71
   330
 72
   302
 73
   303
  0
VERTEX
  5
14B8
330
1024
100
AcDbEntity
  8
0
 62
     7
100
AcDbFaceRecord
 10
0.0
 20
0.0
 30
0.0
 70
   128
 71
   330
 72
   320
 73
   302
  0
VERTEX
  5
14B9
330
1024
100
AcDbEntity
  8
0
 62
     7
100
AcDbFaceRecord
 10
0.0
 20
0.0
 30
0.0
 70
   128
 71
   320
 72
   331
 73
   237
  0
VERTEX
  5
14BA
330
1024
100
AcDbEntity
  8
0
 62
     7
100
AcDbFaceRecord
 10
0.0
 20
0.0
 30
0.0
 70
   128
 71
   320
 72
   332
 73
   331
  0
VERTEX
  5
14BB
330
1024
100
AcDbEntity
  8
0
 62
     7
100
AcDbFaceRecord
 10
0.0
 20
0.0
 30
0.0
 70
   128
 71
   329
 72
   333
 73
   334
  0
VERTEX
  5
14BC
330
1024
100
AcDbEntity
  8
0
 62
     7
100
AcDbFaceRecord
 10
0.0
 20
0.0
 30
0.0
 70
   128
 71
   327
 72
   335
 73
   336
  0
VERTEX
  5
14BD
330
1024
100
AcDbEntity
  8
0
 62
     7
100
AcDbFaceRecord
 10
0.0
 20
0.0
 30
0.0
 70
   128
 71
   321
 72
   337
 73
   338
  0
VERTEX
  5
14BE
330
1024
100
AcDbEntity
  8
0
 62
     7
100
AcDbFaceRecord
 10
0.0
 20
0.0
 30
0.0
 70
   128
 71
   337
 72
   323
 73
   339
  0
VERTEX
  5
14BF
330
1024
100
AcDbEntity
  8
0
 62
     7
100
AcDbFaceRecord
 10
0.0
 20
0.0
 30
0.0
 70
   128
 71
   337
 72
   321
 73
   323
  0
VERTEX
  5
14C0
330
1024
100
AcDbEntity
  8
0
 62
     7
100
AcDbFaceRecord
 10
0.0
 20
0.0
 30
0.0
 70
   128
 71
   340
 72
   338
 73
   337
  0
VERTEX
  5
14C1
330
1024
100
AcDbEntity
  8
0
 62
     7
100
AcDbFaceRecord
 10
0.0
 20
0.0
 30
0.0
 70
   128
 71
   335
 72
   322
 73
   321
  0
VERTEX
  5
14C2
330
1024
100
AcDbEntity
  8
0
 62
     7
100
AcDbFaceRecord
 10
0.0
 20
0.0
 30
0.0
 70
   128
 71
   335
 72
   326
 73
   322
  0
VERTEX
  5
14C3
330
1024
100
AcDbEntity
  8
0
 62
     7
100
AcDbFaceRecord
 10
0.0
 20
0.0
 30
0.0
 70
   128
 71
   335
 72
   327
 73
   326
  0
VERTEX
  5
14C4
330
1024
100
AcDbEntity
  8
0
 62
     7
100
AcDbFaceRecord
 10
0.0
 20
0.0
 30
0.0
 70
   128
 71
   341
 72
   338
 73
   342
  0
VERTEX
  5
14C5
330
1024
100
AcDbEntity
  8
0
 62
     7
100
AcDbFaceRecord
 10
0.0
 20
0.0
 30
0.0
 70
   128
 71
   341
 72
   321
 73
   338
  0
VERTEX
  5
14C6
330
1024
100
AcDbEntity
  8
0
 62
     7
100
AcDbFaceRecord
 10
0.0
 20
0.0
 30
0.0
 70
   128
 71
   341
 72
   335
 73
   321
  0
VERTEX
  5
14C7
330
1024
100
AcDbEntity
  8
0
 62
     7
100
AcDbFaceRecord
 10
0.0
 20
0.0
 30
0.0
 70
   128
 71
   341
 72
   336
 73
   335
  0
VERTEX
  5
14C8
330
1024
100
AcDbEntity
  8
0
 62
     7
100
AcDbFaceRecord
 10
0.0
 20
0.0
 30
0.0
 70
   128
 71
   333
 72
   316
 73
   327
  0
VERTEX
  5
14C9
330
1024
100
AcDbEntity
  8
0
 62
     7
100
AcDbFaceRecord
 10
0.0
 20
0.0
 30
0.0
 70
   128
 71
   333
 72
   328
 73
   316
  0
VERTEX
  5
14CA
330
1024
100
AcDbEntity
  8
0
 62
     7
100
AcDbFaceRecord
 10
0.0
 20
0.0
 30
0.0
 70
   128
 71
   333
 72
   329
 73
   328
  0
VERTEX
  5
14CB
330
1024
100
AcDbEntity
  8
0
 62
     7
100
AcDbFaceRecord
 10
0.0
 20
0.0
 30
0.0
 70
   128
 71
   343
 72
   336
 73
   344
  0
VERTEX
  5
14CC
330
1024
100
AcDbEntity
  8
0
 62
     7
100
AcDbFaceRecord
 10
0.0
 20
0.0
 30
0.0
 70
   128
 71
   343
 72
   327
 73
   336
  0
VERTEX
  5
14CD
330
1024
100
AcDbEntity
  8
0
 62
     7
100
AcDbFaceRecord
 10
0.0
 20
0.0
 30
0.0
 70
   128
 71
   343
 72
   333
 73
   327
  0
VERTEX
  5
14CE
330
1024
100
AcDbEntity
  8
0
 62
     7
100
AcDbFaceRecord
 10
0.0
 20
0.0
 30
0.0
 70
   128
 71
   343
 72
   334
 73
   333
  0
VERTEX
  5
14CF
330
1024
100
AcDbEntity
  8
0
 62
     7
100
AcDbFaceRecord
 10
0.0
 20
0.0
 30
0.0
 70
   128
 71
   332
 72
   319
 73
   329
  0
VERTEX
  5
14D0
330
1024
100
AcDbEntity
  8
0
 62
     7
100
AcDbFaceRecord
 10
0.0
 20
0.0
 30
0.0
 70
   128
 71
   332
 72
   330
 73
   319
  0
VERTEX
  5
14D1
330
1024
100
AcDbEntity
  8
0
 62
     7
100
AcDbFaceRecord
 10
0.0
 20
0.0
 30
0.0
 70
   128
 71
   332
 72
   320
 73
   330
  0
VERTEX
  5
14D2
330
1024
100
AcDbEntity
  8
0
 62
     7
100
AcDbFaceRecord
 10
0.0
 20
0.0
 30
0.0
 70
   128
 71
   345
 72
   334
 73
   346
  0
VERTEX
  5
14D3
330
1024
100
AcDbEntity
  8
0
 62
     7
100
AcDbFaceRecord
 10
0.0
 20
0.0
 30
0.0
 70
   128
 71
   345
 72
   329
 73
   334
  0
VERTEX
  5
14D4
330
1024
100
AcDbEntity
  8
0
 62
     7
100
AcDbFaceRecord
 10
0.0
 20
0.0
 30
0.0
 70
   128
 71
   345
 72
   332
 73
   329
  0
VERTEX
  5
14D5
330
1024
100
AcDbEntity
  8
0
 62
     7
100
AcDbFaceRecord
 10
0.0
 20
0.0
 30
0.0
 70
   128
 71
   345
 72
   331
 73
   332
  0
VERTEX
  5
14D6
330
1024
100
AcDbEntity
  8
0
 62
     7
100
AcDbFaceRecord
 10
0.0
 20
0.0
 30
0.0
 70
   128
 71
   237
 72
   347
 73
   238
  0
VERTEX
  5
14D7
330
1024
100
AcDbEntity
  8
0
 62
     7
100
AcDbFaceRecord
 10
0.0
 20
0.0
 30
0.0
 70
   128
 71
   348
 72
   339
 73
   349
  0
VERTEX
  5
14D8
330
1024
100
AcDbEntity
  8
0
 62
     7
100
AcDbFaceRecord
 10
0.0
 20
0.0
 30
0.0
 70
   128
 71
   348
 72
   337
 73
   339
  0
VERTEX
  5
14D9
330
1024
100
AcDbEntity
  8
0
 62
     7
100
AcDbFaceRecord
 10
0.0
 20
0.0
 30
0.0
 70
   128
 71
   348
 72
   340
 73
   337
  0
VERTEX
  5
14DA
330
1024
100
AcDbEntity
  8
0
 62
     7
100
AcDbFaceRecord
 10
0.0
 20
0.0
 30
0.0
 70
   128
 71
   348
 72
   350
 73
   340
  0
VERTEX
  5
14DB
330
1024
100
AcDbEntity
  8
0
 62
     7
100
AcDbFaceRecord
 10
0.0
 20
0.0
 30
0.0
 70
   128
 71
   348
 72
   351
 73
   350
  0
VERTEX
  5
14DC
330
1024
100
AcDbEntity
  8
0
 62
     7
100
AcDbFaceRecord
 10
0.0
 20
0.0
 30
0.0
 70
   128
 71
   352
 72
   338
 73
   340
  0
VERTEX
  5
14DD
330
1024
100
AcDbEntity
  8
0
 62
     7
100
AcDbFaceRecord
 10
0.0
 20
0.0
 30
0.0
 70
   128
 71
   352
 72
   342
 73
   338
  0
VERTEX
  5
14DE
330
1024
100
AcDbEntity
  8
0
 62
     7
100
AcDbFaceRecord
 10
0.0
 20
0.0
 30
0.0
 70
   128
 71
   353
 72
   342
 73
   352
  0
VERTEX
  5
14DF
330
1024
100
AcDbEntity
  8
0
 62
     7
100
AcDbFaceRecord
 10
0.0
 20
0.0
 30
0.0
 70
   128
 71
   354
 72
   341
 73
   342
  0
VERTEX
  5
14E0
330
1024
100
AcDbEntity
  8
0
 62
     7
100
AcDbFaceRecord
 10
0.0
 20
0.0
 30
0.0
 70
   128
 71
   354
 72
   336
 73
   341
  0
VERTEX
  5
14E1
330
1024
100
AcDbEntity
  8
0
 62
     7
100
AcDbFaceRecord
 10
0.0
 20
0.0
 30
0.0
 70
   128
 71
   354
 72
   344
 73
   336
  0
VERTEX
  5
14E2
330
1024
100
AcDbEntity
  8
0
 62
     7
100
AcDbFaceRecord
 10
0.0
 20
0.0
 30
0.0
 70
   128
 71
   355
 72
   344
 73
   354
  0
VERTEX
  5
14E3
330
1024
100
AcDbEntity
  8
0
 62
     7
100
AcDbFaceRecord
 10
0.0
 20
0.0
 30
0.0
 70
   128
 71
   356
 72
   343
 73
   344
  0
VERTEX
  5
14E4
330
1024
100
AcDbEntity
  8
0
 62
     7
100
AcDbFaceRecord
 10
0.0
 20
0.0
 30
0.0
 70
   128
 71
   356
 72
   334
 73
   343
  0
VERTEX
  5
14E5
330
1024
100
AcDbEntity
  8
0
 62
     7
100
AcDbFaceRecord
 10
0.0
 20
0.0
 30
0.0
 70
   128
 71
   356
 72
   346
 73
   334
  0
VERTEX
  5
14E6
330
1024
100
AcDbEntity
  8
0
 62
     7
100
AcDbFaceRecord
 10
0.0
 20
0.0
 30
0.0
 70
   128
 71
   357
 72
   346
 73
   356
  0
VERTEX
  5
14E7
330
1024
100
AcDbEntity
  8
0
 62
     7
100
AcDbFaceRecord
 10
0.0
 20
0.0
 30
0.0
 70
   128
 71
   358
 72
   359
 73
   360
  0
VERTEX
  5
14E8
330
1024
100
AcDbEntity
  8
0
 62
     7
100
AcDbFaceRecord
 10
0.0
 20
0.0
 30
0.0
 70
   128
 71
   357
 72
   360
 73
   359
  0
VERTEX
  5
14E9
330
1024
100
AcDbEntity
  8
0
 62
     7
100
AcDbFaceRecord
 10
0.0
 20
0.0
 30
0.0
 70
   128
 71
   357
 72
   361
 73
   360
  0
VERTEX
  5
14EA
330
1024
100
AcDbEntity
  8
0
 62
     7
100
AcDbFaceRecord
 10
0.0
 20
0.0
 30
0.0
 70
   128
 71
   355
 72
   362
 73
   363
  0
VERTEX
  5
14EB
330
1024
100
AcDbEntity
  8
0
 62
     7
100
AcDbFaceRecord
 10
0.0
 20
0.0
 30
0.0
 70
   128
 71
   353
 72
   364
 73
   365
  0
VERTEX
  5
14EC
330
1024
100
AcDbEntity
  8
0
 62
     7
100
AcDbFaceRecord
 10
0.0
 20
0.0
 30
0.0
 70
   128
 71
   366
 72
   367
 73
   368
  0
VERTEX
  5
14ED
330
1024
100
AcDbEntity
  8
0
 62
     7
100
AcDbFaceRecord
 10
0.0
 20
0.0
 30
0.0
 70
   128
 71
   369
 72
   366
 73
   368
  0
VERTEX
  5
14EE
330
1024
100
AcDbEntity
  8
0
 62
     7
100
AcDbFaceRecord
 10
0.0
 20
0.0
 30
0.0
 70
   128
 71
   364
 72
   353
 73
   352
  0
VERTEX
  5
14EF
330
1024
100
AcDbEntity
  8
0
 62
     7
100
AcDbFaceRecord
 10
0.0
 20
0.0
 30
0.0
 70
   128
 71
   370
 72
   340
 73
   350
  0
VERTEX
  5
14F0
330
1024
100
AcDbEntity
  8
0
 62
     7
100
AcDbFaceRecord
 10
0.0
 20
0.0
 30
0.0
 70
   128
 71
   370
 72
   352
 73
   340
  0
VERTEX
  5
14F1
330
1024
100
AcDbEntity
  8
0
 62
     7
100
AcDbFaceRecord
 10
0.0
 20
0.0
 30
0.0
 70
   128
 71
   370
 72
   364
 73
   352
  0
VERTEX
  5
14F2
330
1024
100
AcDbEntity
  8
0
 62
     7
100
AcDbFaceRecord
 10
0.0
 20
0.0
 30
0.0
 70
   128
 71
   370
 72
   367
 73
   364
  0
VERTEX
  5
14F3
330
1024
100
AcDbEntity
  8
0
 62
     7
100
AcDbFaceRecord
 10
0.0
 20
0.0
 30
0.0
 70
   128
 71
   371
 72
   366
 73
   372
  0
VERTEX
  5
14F4
330
1024
100
AcDbEntity
  8
0
 62
     7
100
AcDbFaceRecord
 10
0.0
 20
0.0
 30
0.0
 70
   128
 71
   371
 72
   367
 73
   366
  0
VERTEX
  5
14F5
330
1024
100
AcDbEntity
  8
0
 62
     7
100
AcDbFaceRecord
 10
0.0
 20
0.0
 30
0.0
 70
   128
 71
   371
 72
   364
 73
   367
  0
VERTEX
  5
14F6
330
1024
100
AcDbEntity
  8
0
 62
     7
100
AcDbFaceRecord
 10
0.0
 20
0.0
 30
0.0
 70
   128
 71
   371
 72
   365
 73
   364
  0
VERTEX
  5
14F7
330
1024
100
AcDbEntity
  8
0
 62
     7
100
AcDbFaceRecord
 10
0.0
 20
0.0
 30
0.0
 70
   128
 71
   362
 72
   342
 73
   353
  0
VERTEX
  5
14F8
330
1024
100
AcDbEntity
  8
0
 62
     7
100
AcDbFaceRecord
 10
0.0
 20
0.0
 30
0.0
 70
   128
 71
   362
 72
   354
 73
   342
  0
VERTEX
  5
14F9
330
1024
100
AcDbEntity
  8
0
 62
     7
100
AcDbFaceRecord
 10
0.0
 20
0.0
 30
0.0
 70
   128
 71
   362
 72
   355
 73
   354
  0
VERTEX
  5
14FA
330
1024
100
AcDbEntity
  8
0
 62
     7
100
AcDbFaceRecord
 10
0.0
 20
0.0
 30
0.0
 70
   128
 71
   373
 72
   365
 73
   374
  0
VERTEX
  5
14FB
330
1024
100
AcDbEntity
  8
0
 62
     7
100
AcDbFaceRecord
 10
0.0
 20
0.0
 30
0.0
 70
   128
 71
   373
 72
   353
 73
   365
  0
VERTEX
  5
14FC
330
1024
100
AcDbEntity
  8
0
 62
     7
100
AcDbFaceRecord
 10
0.0
 20
0.0
 30
0.0
 70
   128
 71
   373
 72
   362
 73
   353
  0
VERTEX
  5
14FD
330
1024
100
AcDbEntity
  8
0
 62
     7
100
AcDbFaceRecord
 10
0.0
 20
0.0
 30
0.0
 70
   128
 71
   373
 72
   363
 73
   362
  0
VERTEX
  5
14FE
330
1024
100
AcDbEntity
  8
0
 62
     7
100
AcDbFaceRecord
 10
0.0
 20
0.0
 30
0.0
 70
   128
 71
   361
 72
   344
 73
   355
  0
VERTEX
  5
14FF
330
1024
100
AcDbEntity
  8
0
 62
     7
100
AcDbFaceRecord
 10
0.0
 20
0.0
 30
0.0
 70
   128
 71
   361
 72
   356
 73
   344
  0
VERTEX
  5
1500
330
1024
100
AcDbEntity
  8
0
 62
     7
100
AcDbFaceRecord
 10
0.0
 20
0.0
 30
0.0
 70
   128
 71
   361
 72
   357
 73
   356
  0
VERTEX
  5
1501
330
1024
100
AcDbEntity
  8
0
 62
     7
100
AcDbFaceRecord
 10
0.0
 20
0.0
 30
0.0
 70
   128
 71
   375
 72
   363
 73
   376
  0
VERTEX
  5
1502
330
1024
100
AcDbEntity
  8
0
 62
     7
100
AcDbFaceRecord
 10
0.0
 20
0.0
 30
0.0
 70
   128
 71
   375
 72
   355
 73
   363
  0
VERTEX
  5
1503
330
1024
100
AcDbEntity
  8
0
 62
     7
100
AcDbFaceRecord
 10
0.0
 20
0.0
 30
0.0
 70
   128
 71
   375
 72
   361
 73
   355
  0
VERTEX
  5
1504
330
1024
100
AcDbEntity
  8
0
 62
     7
100
AcDbFaceRecord
 10
0.0
 20
0.0
 30
0.0
 70
   128
 71
   375
 72
   360
 73
   361
  0
VERTEX
  5
1505
330
1024
100
AcDbEntity
  8
0
 62
     7
100
AcDbFaceRecord
 10
0.0
 20
0.0
 30
0.0
 70
   128
 71
   377
 72
   378
 73
   379
  0
VERTEX
  5
1506
330
1024
100
AcDbEntity
  8
0
 62
     7
100
AcDbFaceRecord
 10
0.0
 20
0.0
 30
0.0
 70
   128
 71
   376
 72
   379
 73
   378
  0
VERTEX
  5
1507
330
1024
100
AcDbEntity
  8
0
 62
     7
100
AcDbFaceRecord
 10
0.0
 20
0.0
 30
0.0
 70
   128
 71
   376
 72
   380
 73
   379
  0
VERTEX
  5
1508
330
1024
100
AcDbEntity
  8
0
 62
     7
100
AcDbFaceRecord
 10
0.0
 20
0.0
 30
0.0
 70
   128
 71
   374
 72
   381
 73
   382
  0
VERTEX
  5
1509
330
1024
100
AcDbEntity
  8
0
 62
     7
100
AcDbFaceRecord
 10
0.0
 20
0.0
 30
0.0
 70
   128
 71
   383
 72
   366
 73
   369
  0
VERTEX
  5
150A
330
1024
100
AcDbEntity
  8
0
 62
     7
100
AcDbFaceRecord
 10
0.0
 20
0.0
 30
0.0
 70
   128
 71
   383
 72
   372
 73
   366
  0
VERTEX
  5
150B
330
1024
100
AcDbEntity
  8
0
 62
     7
100
AcDbFaceRecord
 10
0.0
 20
0.0
 30
0.0
 70
   128
 71
   384
 72
   372
 73
   383
  0
VERTEX
  5
150C
330
1024
100
AcDbEntity
  8
0
 62
     7
100
AcDbFaceRecord
 10
0.0
 20
0.0
 30
0.0
 70
   128
 71
   381
 72
   371
 73
   372
  0
VERTEX
  5
150D
330
1024
100
AcDbEntity
  8
0
 62
     7
100
AcDbFaceRecord
 10
0.0
 20
0.0
 30
0.0
 70
   128
 71
   381
 72
   365
 73
   371
  0
VERTEX
  5
150E
330
1024
100
AcDbEntity
  8
0
 62
     7
100
AcDbFaceRecord
 10
0.0
 20
0.0
 30
0.0
 70
   128
 71
   381
 72
   374
 73
   365
  0
VERTEX
  5
150F
330
1024
100
AcDbEntity
  8
0
 62
     7
100
AcDbFaceRecord
 10
0.0
 20
0.0
 30
0.0
 70
   128
 71
   385
 72
   384
 73
   386
  0
VERTEX
  5
1510
330
1024
100
AcDbEntity
  8
0
 62
     7
100
AcDbFaceRecord
 10
0.0
 20
0.0
 30
0.0
 70
   128
 71
   385
 72
   372
 73
   384
  0
VERTEX
  5
1511
330
1024
100
AcDbEntity
  8
0
 62
     7
100
AcDbFaceRecord
 10
0.0
 20
0.0
 30
0.0
 70
   128
 71
   385
 72
   381
 73
   372
  0
VERTEX
  5
1512
330
1024
100
AcDbEntity
  8
0
 62
     7
100
AcDbFaceRecord
 10
0.0
 20
0.0
 30
0.0
 70
   128
 71
   385
 72
   382
 73
   381
  0
VERTEX
  5
1513
330
1024
100
AcDbEntity
  8
0
 62
     7
100
AcDbFaceRecord
 10
0.0
 20
0.0
 30
0.0
 70
   128
 71
   380
 72
   373
 73
   374
  0
VERTEX
  5
1514
330
1024
100
AcDbEntity
  8
0
 62
     7
100
AcDbFaceRecord
 10
0.0
 20
0.0
 30
0.0
 70
   128
 71
   380
 72
   363
 73
   373
  0
VERTEX
  5
1515
330
1024
100
AcDbEntity
  8
0
 62
     7
100
AcDbFaceRecord
 10
0.0
 20
0.0
 30
0.0
 70
   128
 71
   380
 72
   376
 73
   363
  0
VERTEX
  5
1516
330
1024
100
AcDbEntity
  8
0
 62
     7
100
AcDbFaceRecord
 10
0.0
 20
0.0
 30
0.0
 70
   128
 71
   387
 72
   382
 73
   388
  0
VERTEX
  5
1517
330
1024
100
AcDbEntity
  8
0
 62
     7
100
AcDbFaceRecord
 10
0.0
 20
0.0
 30
0.0
 70
   128
 71
   387
 72
   374
 73
   382
  0
VERTEX
  5
1518
330
1024
100
AcDbEntity
  8
0
 62
     7
100
AcDbFaceRecord
 10
0.0
 20
0.0
 30
0.0
 70
   128
 71
   387
 72
   380
 73
   374
  0
VERTEX
  5
1519
330
1024
100
AcDbEntity
  8
0
 62
     7
100
AcDbFaceRecord
 10
0.0
 20
0.0
 30
0.0
 70
   128
 71
   387
 72
   379
 73
   380
  0
VERTEX
  5
151A
330
1024
100
AcDbEntity
  8
0
 62
     7
100
AcDbFaceRecord
 10
0.0
 20
0.0
 30
0.0
 70
   128
 71
   389
 72
   375
 73
   376
  0
VERTEX
  5
151B
330
1024
100
AcDbEntity
  8
0
 62
     7
100
AcDbFaceRecord
 10
0.0
 20
0.0
 30
0.0
 70
   128
 71
   389
 72
   360
 73
   375
  0
VERTEX
  5
151C
330
1024
100
AcDbEntity
  8
0
 62
     7
100
AcDbFaceRecord
 10
0.0
 20
0.0
 30
0.0
 70
   128
 71
   389
 72
   358
 73
   360
  0
VERTEX
  5
151D
330
1024
100
AcDbEntity
  8
0
 62
     7
100
AcDbFaceRecord
 10
0.0
 20
0.0
 30
0.0
 70
   128
 71
   389
 72
   376
 73
   378
  0
VERTEX
  5
151E
330
1024
100
AcDbEntity
  8
0
 62
     7
100
AcDbFaceRecord
 10
0.0
 20
0.0
 30
0.0
 70
   128
 71
   390
 72
   391
 73
   392
  0
VERTEX
  5
151F
330
1024
100
AcDbEntity
  8
0
 62
     7
100
AcDbFaceRecord
 10
0.0
 20
0.0
 30
0.0
 70
   128
 71
   393
 72
   394
 73
   395
  0
VERTEX
  5
1520
330
1024
100
AcDbEntity
  8
0
 62
     7
100
AcDbFaceRecord
 10
0.0
 20
0.0
 30
0.0
 70
   128
 71
   394
 72
   386
 73
   384
  0
VERTEX
  5
1521
330
1024
100
AcDbEntity
  8
0
 62
     7
100
AcDbFaceRecord
 10
0.0
 20
0.0
 30
0.0
 70
   128
 71
   396
 72
   384
 73
   383
  0
VERTEX
  5
1522
330
1024
100
AcDbEntity
  8
0
 62
     7
100
AcDbFaceRecord
 10
0.0
 20
0.0
 30
0.0
 70
   128
 71
   396
 72
   394
 73
   384
  0
VERTEX
  5
1523
330
1024
100
AcDbEntity
  8
0
 62
     7
100
AcDbFaceRecord
 10
0.0
 20
0.0
 30
0.0
 70
   128
 71
   396
 72
   395
 73
   394
  0
VERTEX
  5
1524
330
1024
100
AcDbEntity
  8
0
 62
     7
100
AcDbFaceRecord
 10
0.0
 20
0.0
 30
0.0
 70
   128
 71
   397
 72
   385
 73
   386
  0
VERTEX
  5
1525
330
1024
100
AcDbEntity
  8
0
 62
     7
100
AcDbFaceRecord
 10
0.0
 20
0.0
 30
0.0
 70
   128
 71
   397
 72
   382
 73
   385
  0
VERTEX
  5
1526
330
1024
100
AcDbEntity
  8
0
 62
     7
100
AcDbFaceRecord
 10
0.0
 20
0.0
 30
0.0
 70
   128
 71
   397
 72
   388
 73
   382
  0
VERTEX
  5
1527
330
1024
100
AcDbEntity
  8
0
 62
     7
100
AcDbFaceRecord
 10
0.0
 20
0.0
 30
0.0
 70
   128
 71
   398
 72
   397
 73
   386
  0
VERTEX
  5
1528
330
1024
100
AcDbEntity
  8
0
 62
     7
100
AcDbFaceRecord
 10
0.0
 20
0.0
 30
0.0
 70
   128
 71
   399
 72
   387
 73
   388
  0
VERTEX
  5
1529
330
1024
100
AcDbEntity
  8
0
 62
     7
100
AcDbFaceRecord
 10
0.0
 20
0.0
 30
0.0
 70
   128
 71
   399
 72
   379
 73
   387
  0
VERTEX
  5
152A
330
1024
100
AcDbEntity
  8
0
 62
     7
100
AcDbFaceRecord
 10
0.0
 20
0.0
 30
0.0
 70
   128
 71
   399
 72
   377
 73
   379
  0
VERTEX
  5
152B
330
1024
100
AcDbEntity
  8
0
 62
     7
100
AcDbFaceRecord
 10
0.0
 20
0.0
 30
0.0
 70
   128
 71
   400
 72
   399
 73
   388
  0
VERTEX
  5
152C
330
1024
100
AcDbEntity
  8
0
 62
     7
100
AcDbFaceRecord
 10
0.0
 20
0.0
 30
0.0
 70
   128
 71
   401
 72
   377
 73
   402
  0
VERTEX
  5
152D
330
1024
100
AcDbEntity
  8
0
 62
     7
100
AcDbFaceRecord
 10
0.0
 20
0.0
 30
0.0
 70
   128
 71
   401
 72
   378
 73
   377
  0
VERTEX
  5
152E
330
1024
100
AcDbEntity
  8
0
 62
     7
100
AcDbFaceRecord
 10
0.0
 20
0.0
 30
0.0
 70
   128
 71
   243
 72
   401
 73
   402
  0
VERTEX
  5
152F
330
1024
100
AcDbEntity
  8
0
 62
     7
100
AcDbFaceRecord
 10
0.0
 20
0.0
 30
0.0
 70
   128
 71
   402
 72
   403
 73
   244
  0
VERTEX
  5
1530
330
1024
100
AcDbEntity
  8
0
 62
     7
100
AcDbFaceRecord
 10
0.0
 20
0.0
 30
0.0
 70
   128
 71
   402
 72
   404
 73
   403
  0
VERTEX
  5
1531
330
1024
100
AcDbEntity
  8
0
 62
     7
100
AcDbFaceRecord
 10
0.0
 20
0.0
 30
0.0
 70
   128
 71
   400
 72
   405
 73
   406
  0
VERTEX
  5
1532
330
1024
100
AcDbEntity
  8
0
 62
     7
100
AcDbFaceRecord
 10
0.0
 20
0.0
 30
0.0
 70
   128
 71
   390
 72
   407
 73
   408
  0
VERTEX
  5
1533
330
1024
100
AcDbEntity
  8
0
 62
     7
100
AcDbFaceRecord
 10
0.0
 20
0.0
 30
0.0
 70
   128
 71
   409
 72
   408
 73
   407
  0
VERTEX
  5
1534
330
1024
100
AcDbEntity
  8
0
 62
     7
100
AcDbFaceRecord
 10
0.0
 20
0.0
 30
0.0
 70
   128
 71
   409
 72
   395
 73
   408
  0
VERTEX
  5
1535
330
1024
100
AcDbEntity
  8
0
 62
     7
100
AcDbFaceRecord
 10
0.0
 20
0.0
 30
0.0
 70
   128
 71
   409
 72
   393
 73
   395
  0
VERTEX
  5
1536
330
1024
100
AcDbEntity
  8
0
 62
     7
100
AcDbFaceRecord
 10
0.0
 20
0.0
 30
0.0
 70
   128
 71
   410
 72
   393
 73
   409
  0
VERTEX
  5
1537
330
1024
100
AcDbEntity
  8
0
 62
     7
100
AcDbFaceRecord
 10
0.0
 20
0.0
 30
0.0
 70
   128
 71
   411
 72
   394
 73
   393
  0
VERTEX
  5
1538
330
1024
100
AcDbEntity
  8
0
 62
     7
100
AcDbFaceRecord
 10
0.0
 20
0.0
 30
0.0
 70
   128
 71
   411
 72
   386
 73
   394
  0
VERTEX
  5
1539
330
1024
100
AcDbEntity
  8
0
 62
     7
100
AcDbFaceRecord
 10
0.0
 20
0.0
 30
0.0
 70
   128
 71
   411
 72
   398
 73
   386
  0
VERTEX
  5
153A
330
1024
100
AcDbEntity
  8
0
 62
     7
100
AcDbFaceRecord
 10
0.0
 20
0.0
 30
0.0
 70
   128
 71
   412
 72
   398
 73
   411
  0
VERTEX
  5
153B
330
1024
100
AcDbEntity
  8
0
 62
     7
100
AcDbFaceRecord
 10
0.0
 20
0.0
 30
0.0
 70
   128
 71
   405
 72
   397
 73
   398
  0
VERTEX
  5
153C
330
1024
100
AcDbEntity
  8
0
 62
     7
100
AcDbFaceRecord
 10
0.0
 20
0.0
 30
0.0
 70
   128
 71
   405
 72
   388
 73
   397
  0
VERTEX
  5
153D
330
1024
100
AcDbEntity
  8
0
 62
     7
100
AcDbFaceRecord
 10
0.0
 20
0.0
 30
0.0
 70
   128
 71
   405
 72
   400
 73
   388
  0
VERTEX
  5
153E
330
1024
100
AcDbEntity
  8
0
 62
     7
100
AcDbFaceRecord
 10
0.0
 20
0.0
 30
0.0
 70
   128
 71
   413
 72
   398
 73
   412
  0
VERTEX
  5
153F
330
1024
100
AcDbEntity
  8
0
 62
     7
100
AcDbFaceRecord
 10
0.0
 20
0.0
 30
0.0
 70
   128
 71
   413
 72
   405
 73
   398
  0
VERTEX
  5
1540
330
1024
100
AcDbEntity
  8
0
 62
     7
100
AcDbFaceRecord
 10
0.0
 20
0.0
 30
0.0
 70
   128
 71
   413
 72
   406
 73
   405
  0
VERTEX
  5
1541
330
1024
100
AcDbEntity
  8
0
 62
     7
100
AcDbFaceRecord
 10
0.0
 20
0.0
 30
0.0
 70
   128
 71
   404
 72
   399
 73
   400
  0
VERTEX
  5
1542
330
1024
100
AcDbEntity
  8
0
 62
     7
100
AcDbFaceRecord
 10
0.0
 20
0.0
 30
0.0
 70
   128
 71
   404
 72
   377
 73
   399
  0
VERTEX
  5
1543
330
1024
100
AcDbEntity
  8
0
 62
     7
100
AcDbFaceRecord
 10
0.0
 20
0.0
 30
0.0
 70
   128
 71
   404
 72
   402
 73
   377
  0
VERTEX
  5
1544
330
1024
100
AcDbEntity
  8
0
 62
     7
100
AcDbFaceRecord
 10
0.0
 20
0.0
 30
0.0
 70
   128
 71
   414
 72
   406
 73
   415
  0
VERTEX
  5
1545
330
1024
100
AcDbEntity
  8
0
 62
     7
100
AcDbFaceRecord
 10
0.0
 20
0.0
 30
0.0
 70
   128
 71
   414
 72
   400
 73
   406
  0
VERTEX
  5
1546
330
1024
100
AcDbEntity
  8
0
 62
     7
100
AcDbFaceRecord
 10
0.0
 20
0.0
 30
0.0
 70
   128
 71
   414
 72
   404
 73
   400
  0
VERTEX
  5
1547
330
1024
100
AcDbEntity
  8
0
 62
     7
100
AcDbFaceRecord
 10
0.0
 20
0.0
 30
0.0
 70
   128
 71
   414
 72
   403
 73
   404
  0
VERTEX
  5
1548
330
1024
100
AcDbEntity
  8
0
 62
     7
100
AcDbFaceRecord
 10
0.0
 20
0.0
 30
0.0
 70
   128
 71
   247
 72
   246
 73
   416
  0
VERTEX
  5
1549
330
1024
100
AcDbEntity
  8
0
 62
     7
100
AcDbFaceRecord
 10
0.0
 20
0.0
 30
0.0
 70
   128
 71
   417
 72
   418
 73
   419
  0
VERTEX
  5
154A
330
1024
100
AcDbEntity
  8
0
 62
     7
100
AcDbFaceRecord
 10
0.0
 20
0.0
 30
0.0
 70
   128
 71
   407
 72
   417
 73
   419
  0
VERTEX
  5
154B
330
1024
100
AcDbEntity
  8
0
 62
     7
100
AcDbFaceRecord
 10
0.0
 20
0.0
 30
0.0
 70
   128
 71
   420
 72
   407
 73
   419
  0
VERTEX
  5
154C
330
1024
100
AcDbEntity
  8
0
 62
     7
100
AcDbFaceRecord
 10
0.0
 20
0.0
 30
0.0
 70
   128
 71
   420
 72
   409
 73
   407
  0
VERTEX
  5
154D
330
1024
100
AcDbEntity
  8
0
 62
     7
100
AcDbFaceRecord
 10
0.0
 20
0.0
 30
0.0
 70
   128
 71
   420
 72
   410
 73
   409
  0
VERTEX
  5
154E
330
1024
100
AcDbEntity
  8
0
 62
     7
100
AcDbFaceRecord
 10
0.0
 20
0.0
 30
0.0
 70
   128
 71
   420
 72
   421
 73
   410
  0
VERTEX
  5
154F
330
1024
100
AcDbEntity
  8
0
 62
     7
100
AcDbFaceRecord
 10
0.0
 20
0.0
 30
0.0
 70
   128
 71
   422
 72
   423
 73
   273
  0
VERTEX
  5
1550
330
1024
100
AcDbEntity
  8
0
 62
     7
100
AcDbFaceRecord
 10
0.0
 20
0.0
 30
0.0
 70
   128
 71
   422
 72
   421
 73
   423
  0
VERTEX
  5
1551
330
1024
100
AcDbEntity
  8
0
 62
     7
100
AcDbFaceRecord
 10
0.0
 20
0.0
 30
0.0
 70
   128
 71
   424
 72
   393
 73
   410
  0
VERTEX
  5
1552
330
1024
100
AcDbEntity
  8
0
 62
     7
100
AcDbFaceRecord
 10
0.0
 20
0.0
 30
0.0
 70
   128
 71
   424
 72
   411
 73
   393
  0
VERTEX
  5
1553
330
1024
100
AcDbEntity
  8
0
 62
     7
100
AcDbFaceRecord
 10
0.0
 20
0.0
 30
0.0
 70
   128
 71
   424
 72
   412
 73
   411
  0
VERTEX
  5
1554
330
1024
100
AcDbEntity
  8
0
 62
     7
100
AcDbFaceRecord
 10
0.0
 20
0.0
 30
0.0
 70
   128
 71
   424
 72
   425
 73
   412
  0
VERTEX
  5
1555
330
1024
100
AcDbEntity
  8
0
 62
     7
100
AcDbFaceRecord
 10
0.0
 20
0.0
 30
0.0
 70
   128
 71
   426
 72
   406
 73
   413
  0
VERTEX
  5
1556
330
1024
100
AcDbEntity
  8
0
 62
     7
100
AcDbFaceRecord
 10
0.0
 20
0.0
 30
0.0
 70
   128
 71
   426
 72
   415
 73
   406
  0
VERTEX
  5
1557
330
1024
100
AcDbEntity
  8
0
 62
     7
100
AcDbFaceRecord
 10
0.0
 20
0.0
 30
0.0
 70
   128
 71
   427
 72
   266
 73
   428
  0
VERTEX
  5
1558
330
1024
100
AcDbEntity
  8
0
 62
     7
100
AcDbFaceRecord
 10
0.0
 20
0.0
 30
0.0
 70
   128
 71
   429
 72
   419
 73
   418
  0
VERTEX
  5
1559
330
1024
100
AcDbEntity
  8
0
 62
     7
100
AcDbFaceRecord
 10
0.0
 20
0.0
 30
0.0
 70
   128
 71
   429
 72
   420
 73
   419
  0
VERTEX
  5
155A
330
1024
100
AcDbEntity
  8
0
 62
     7
100
AcDbFaceRecord
 10
0.0
 20
0.0
 30
0.0
 70
   128
 71
   429
 72
   421
 73
   420
  0
VERTEX
  5
155B
330
1024
100
AcDbEntity
  8
0
 62
     7
100
AcDbFaceRecord
 10
0.0
 20
0.0
 30
0.0
 70
   128
 71
   429
 72
   423
 73
   421
  0
VERTEX
  5
155C
330
1024
100
AcDbEntity
  8
0
 62
     7
100
AcDbFaceRecord
 10
0.0
 20
0.0
 30
0.0
 70
   128
 71
   430
 72
   421
 73
   422
  0
VERTEX
  5
155D
330
1024
100
AcDbEntity
  8
0
 62
     7
100
AcDbFaceRecord
 10
0.0
 20
0.0
 30
0.0
 70
   128
 71
   430
 72
   410
 73
   421
  0
VERTEX
  5
155E
330
1024
100
AcDbEntity
  8
0
 62
     7
100
AcDbFaceRecord
 10
0.0
 20
0.0
 30
0.0
 70
   128
 71
   430
 72
   424
 73
   410
  0
VERTEX
  5
155F
330
1024
100
AcDbEntity
  8
0
 62
     7
100
AcDbFaceRecord
 10
0.0
 20
0.0
 30
0.0
 70
   128
 71
   430
 72
   425
 73
   424
  0
VERTEX
  5
1560
330
1024
100
AcDbEntity
  8
0
 62
     7
100
AcDbFaceRecord
 10
0.0
 20
0.0
 30
0.0
 70
   128
 71
   430
 72
   431
 73
   425
  0
VERTEX
  5
1561
330
1024
100
AcDbEntity
  8
0
 62
     7
100
AcDbFaceRecord
 10
0.0
 20
0.0
 30
0.0
 70
   128
 71
   432
 72
   430
 73
   422
  0
VERTEX
  5
1562
330
1024
100
AcDbEntity
  8
0
 62
     7
100
AcDbFaceRecord
 10
0.0
 20
0.0
 30
0.0
 70
   128
 71
   432
 72
   431
 73
   430
  0
VERTEX
  5
1563
330
1024
100
AcDbEntity
  8
0
 62
     7
100
AcDbFaceRecord
 10
0.0
 20
0.0
 30
0.0
 70
   128
 71
   432
 72
   275
 73
   431
  0
VERTEX
  5
1564
330
1024
100
AcDbEntity
  8
0
 62
     7
100
AcDbFaceRecord
 10
0.0
 20
0.0
 30
0.0
 70
   128
 71
   433
 72
   412
 73
   425
  0
VERTEX
  5
1565
330
1024
100
AcDbEntity
  8
0
 62
     7
100
AcDbFaceRecord
 10
0.0
 20
0.0
 30
0.0
 70
   128
 71
   433
 72
   413
 73
   412
  0
VERTEX
  5
1566
330
1024
100
AcDbEntity
  8
0
 62
     7
100
AcDbFaceRecord
 10
0.0
 20
0.0
 30
0.0
 70
   128
 71
   433
 72
   426
 73
   413
  0
VERTEX
  5
1567
330
1024
100
AcDbEntity
  8
0
 62
     7
100
AcDbFaceRecord
 10
0.0
 20
0.0
 30
0.0
 70
   128
 71
   433
 72
   434
 73
   426
  0
VERTEX
  5
1568
330
1024
100
AcDbEntity
  8
0
 62
     7
100
AcDbFaceRecord
 10
0.0
 20
0.0
 30
0.0
 70
   128
 71
   276
 72
   279
 73
   434
  0
VERTEX
  5
1569
330
1024
100
AcDbEntity
  8
0
 62
     7
100
AcDbFaceRecord
 10
0.0
 20
0.0
 30
0.0
 70
   128
 71
   435
 72
   416
 73
   246
  0
VERTEX
  5
156A
330
1024
100
AcDbEntity
  8
0
 62
     7
100
AcDbFaceRecord
 10
0.0
 20
0.0
 30
0.0
 70
   128
 71
   435
 72
   415
 73
   416
  0
VERTEX
  5
156B
330
1024
100
AcDbEntity
  8
0
 62
     7
100
AcDbFaceRecord
 10
0.0
 20
0.0
 30
0.0
 70
   128
 71
   435
 72
   414
 73
   415
  0
VERTEX
  5
156C
330
1024
100
AcDbEntity
  8
0
 62
     7
100
AcDbFaceRecord
 10
0.0
 20
0.0
 30
0.0
 70
   128
 71
   435
 72
   403
 73
   414
  0
VERTEX
  5
156D
330
1024
100
AcDbEntity
  8
0
 62
     7
100
AcDbFaceRecord
 10
0.0
 20
0.0
 30
0.0
 70
   128
 71
   435
 72
   244
 73
   403
  0
VERTEX
  5
156E
330
1024
100
AcDbEntity
  8
0
 62
     7
100
AcDbFaceRecord
 10
0.0
 20
0.0
 30
0.0
 70
   128
 71
   391
 72
   395
 73
   396
  0
VERTEX
  5
156F
330
1024
100
AcDbEntity
  8
0
 62
     7
100
AcDbFaceRecord
 10
0.0
 20
0.0
 30
0.0
 70
   128
 71
   391
 72
   408
 73
   395
  0
VERTEX
  5
1570
330
1024
100
AcDbEntity
  8
0
 62
     7
100
AcDbFaceRecord
 10
0.0
 20
0.0
 30
0.0
 70
   128
 71
   391
 72
   390
 73
   408
  0
VERTEX
  5
1571
330
1024
100
AcDbEntity
  8
0
 62
     7
100
AcDbFaceRecord
 10
0.0
 20
0.0
 30
0.0
 70
   128
 71
   436
 72
   368
 73
   437
  0
VERTEX
  5
1572
330
1024
100
AcDbEntity
  8
0
 62
     7
100
AcDbFaceRecord
 10
0.0
 20
0.0
 30
0.0
 70
   128
 71
   436
 72
   369
 73
   368
  0
VERTEX
  5
1573
330
1024
100
AcDbEntity
  8
0
 62
     7
100
AcDbFaceRecord
 10
0.0
 20
0.0
 30
0.0
 70
   128
 71
   240
 72
   358
 73
   241
  0
VERTEX
  5
1574
330
1024
100
AcDbEntity
  8
0
 62
     7
100
AcDbFaceRecord
 10
0.0
 20
0.0
 30
0.0
 70
   128
 71
   240
 72
   359
 73
   358
  0
VERTEX
  5
1575
330
1024
100
AcDbEntity
  8
0
 62
     7
100
AcDbFaceRecord
 10
0.0
 20
0.0
 30
0.0
 70
   128
 71
   347
 72
   345
 73
   346
  0
VERTEX
  5
1576
330
1024
100
AcDbEntity
  8
0
 62
     7
100
AcDbFaceRecord
 10
0.0
 20
0.0
 30
0.0
 70
   128
 71
   347
 72
   331
 73
   345
  0
VERTEX
  5
1577
330
1024
100
AcDbEntity
  8
0
 62
     7
100
AcDbFaceRecord
 10
0.0
 20
0.0
 30
0.0
 70
   128
 71
   347
 72
   237
 73
   331
  0
VERTEX
  5
1578
330
1024
100
AcDbEntity
  8
0
 62
     7
100
AcDbFaceRecord
 10
0.0
 20
0.0
 30
0.0
 70
   128
 71
   438
 72
   325
 73
   309
  0
VERTEX
  5
1579
330
1024
100
AcDbEntity
  8
0
 62
     7
100
AcDbFaceRecord
 10
0.0
 20
0.0
 30
0.0
 70
   128
 71
   438
 72
   324
 73
   325
  0
VERTEX
  5
157A
330
1024
100
AcDbEntity
  8
0
 62
     7
100
AcDbFaceRecord
 10
0.0
 20
0.0
 30
0.0
 70
   128
 71
   438
 72
   323
 73
   324
  0
VERTEX
  5
157B
330
1024
100
AcDbEntity
  8
0
 62
     7
100
AcDbFaceRecord
 10
0.0
 20
0.0
 30
0.0
 70
   128
 71
   438
 72
   339
 73
   323
  0
VERTEX
  5
157C
330
1024
100
AcDbEntity
  8
0
 62
     7
100
AcDbFaceRecord
 10
0.0
 20
0.0
 30
0.0
 70
   128
 71
   438
 72
   349
 73
   339
  0
VERTEX
  5
157D
330
1024
100
AcDbEntity
  8
0
 62
     7
100
AcDbFaceRecord
 10
0.0
 20
0.0
 30
0.0
 70
   128
 71
   310
 72
   313
 73
   312
  0
VERTEX
  5
157E
330
1024
100
AcDbEntity
  8
0
 62
     7
100
AcDbFaceRecord
 10
0.0
 20
0.0
 30
0.0
 70
   128
 71
   310
 72
   325
 73
   313
  0
VERTEX
  5
157F
330
1024
100
AcDbEntity
  8
0
 62
     7
100
AcDbFaceRecord
 10
0.0
 20
0.0
 30
0.0
 70
   128
 71
   310
 72
   309
 73
   325
  0
VERTEX
  5
1580
330
1024
100
AcDbEntity
  8
0
 62
     7
100
AcDbFaceRecord
 10
0.0
 20
0.0
 30
0.0
 70
   128
 71
   249
 72
   284
 73
   250
  0
VERTEX
  5
1581
330
1024
100
AcDbEntity
  8
0
 62
     7
100
AcDbFaceRecord
 10
0.0
 20
0.0
 30
0.0
 70
   128
 71
   249
 72
   282
 73
   284
  0
VERTEX
  5
1582
330
1024
100
AcDbEntity
  8
0
 62
     7
100
AcDbFaceRecord
 10
0.0
 20
0.0
 30
0.0
 70
   128
 71
   417
 72
   407
 73
   390
  0
VERTEX
  5
1583
330
1024
100
AcDbEntity
  8
0
 62
     7
100
AcDbFaceRecord
 10
0.0
 20
0.0
 30
0.0
 70
   128
 71
   439
 72
   369
 73
   436
  0
VERTEX
  5
1584
330
1024
100
AcDbEntity
  8
0
 62
     7
100
AcDbFaceRecord
 10
0.0
 20
0.0
 30
0.0
 70
   128
 71
   439
 72
   383
 73
   369
  0
VERTEX
  5
1585
330
1024
100
AcDbEntity
  8
0
 62
     7
100
AcDbFaceRecord
 10
0.0
 20
0.0
 30
0.0
 70
   128
 71
   439
 72
   396
 73
   383
  0
VERTEX
  5
1586
330
1024
100
AcDbEntity
  8
0
 62
     7
100
AcDbFaceRecord
 10
0.0
 20
0.0
 30
0.0
 70
   128
 71
   439
 72
   391
 73
   396
  0
VERTEX
  5
1587
330
1024
100
AcDbEntity
  8
0
 62
     7
100
AcDbFaceRecord
 10
0.0
 20
0.0
 30
0.0
 70
   128
 71
   439
 72
   392
 73
   391
  0
VERTEX
  5
1588
330
1024
100
AcDbEntity
  8
0
 62
     7
100
AcDbFaceRecord
 10
0.0
 20
0.0
 30
0.0
 70
   128
 71
   392
 72
   439
 73
   436
  0
VERTEX
  5
1589
330
1024
100
AcDbEntity
  8
0
 62
     7
100
AcDbFaceRecord
 10
0.0
 20
0.0
 30
0.0
 70
   128
 71
   440
 72
   350
 73
   351
  0
VERTEX
  5
158A
330
1024
100
AcDbEntity
  8
0
 62
     7
100
AcDbFaceRecord
 10
0.0
 20
0.0
 30
0.0
 70
   128
 71
   440
 72
   370
 73
   350
  0
VERTEX
  5
158B
330
1024
100
AcDbEntity
  8
0
 62
     7
100
AcDbFaceRecord
 10
0.0
 20
0.0
 30
0.0
 70
   128
 71
   440
 72
   367
 73
   370
  0
VERTEX
  5
158C
330
1024
100
AcDbEntity
  8
0
 62
     7
100
AcDbFaceRecord
 10
0.0
 20
0.0
 30
0.0
 70
   128
 71
   440
 72
   368
 73
   367
  0
VERTEX
  5
158D
330
1024
100
AcDbEntity
  8
0
 62
     7
100
AcDbFaceRecord
 10
0.0
 20
0.0
 30
0.0
 70
   128
 71
   440
 72
   437
 73
   368
  0
VERTEX
  5
158E
330
1024
100
AcDbEntity
  8
0
 62
     7
100
AcDbFaceRecord
 10
0.0
 20
0.0
 30
0.0
 70
   128
 71
   437
 72
   440
 73
   351
  0
VERTEX
  5
158F
330
1024
100
AcDbEntity
  8
0
 62
     7
100
AcDbFaceRecord
 10
0.0
 20
0.0
 30
0.0
 70
   128
 71
   351
 72
   348
 73
   349
  0
VERTEX
  5
1590
330
1024
100
AcDbEntity
  8
0
 62
     7
100
AcDbFaceRecord
 10
0.0
 20
0.0
 30
0.0
 70
   128
 71
   349
 72
   438
 73
   309
  0
VERTEX
  5
1591
330
1024
100
AcDbEntity
  8
0
 62
     7
100
AcDbFaceRecord
 10
0.0
 20
0.0
 30
0.0
 70
   128
 71
   441
 72
   292
 73
   293
  0
VERTEX
  5
1592
330
1024
100
AcDbEntity
  8
0
 62
     7
100
AcDbFaceRecord
 10
0.0
 20
0.0
 30
0.0
 70
   128
 71
   441
 72
   294
 73
   292
  0
VERTEX
  5
1593
330
1024
100
AcDbEntity
  8
0
 62
     7
100
AcDbFaceRecord
 10
0.0
 20
0.0
 30
0.0
 70
   128
 71
   441
 72
   312
 73
   294
  0
VERTEX
  5
1594
330
1024
100
AcDbEntity
  8
0
 62
     7
100
AcDbFaceRecord
 10
0.0
 20
0.0
 30
0.0
 70
   128
 71
   441
 72
   310
 73
   312
  0
VERTEX
  5
1595
330
1024
100
AcDbEntity
  8
0
 62
     7
100
AcDbFaceRecord
 10
0.0
 20
0.0
 30
0.0
 70
   128
 71
   441
 72
   311
 73
   310
  0
VERTEX
  5
1596
330
1024
100
AcDbEntity
  8
0
 62
     7
100
AcDbFaceRecord
 10
0.0
 20
0.0
 30
0.0
 70
   128
 71
   311
 72
   441
 73
   293
  0
VERTEX
  5
1597
330
1024
100
AcDbEntity
  8
0
 62
     7
100
AcDbFaceRecord
 10
0.0
 20
0.0
 30
0.0
 70
   128
 71
   442
 72
   293
 73
   291
  0
VERTEX
  5
1598
330
1024
100
AcDbEntity
  8
0
 62
     7
100
AcDbFaceRecord
 10
0.0
 20
0.0
 30
0.0
 70
   128
 71
   443
 72
   442
 73
   291
  0
VERTEX
  5
1599
330
1024
100
AcDbEntity
  8
0
 62
     7
100
AcDbFaceRecord
 10
0.0
 20
0.0
 30
0.0
 70
   128
 71
   444
 72
   443
 73
   291
  0
VERTEX
  5
159A
330
1024
100
AcDbEntity
  8
0
 62
     7
100
AcDbFaceRecord
 10
0.0
 20
0.0
 30
0.0
 70
   128
 71
   445
 72
   444
 73
   291
  0
VERTEX
  5
159B
330
1024
100
AcDbEntity
  8
0
 62
     7
100
AcDbFaceRecord
 10
0.0
 20
0.0
 30
0.0
 70
   128
 71
   427
 72
   445
 73
   291
  0
VERTEX
  5
159C
330
1024
100
AcDbEntity
  8
0
 62
     7
100
AcDbFaceRecord
 10
0.0
 20
0.0
 30
0.0
 70
   128
 71
   427
 72
   291
 73
   266
  0
VERTEX
  5
159D
330
1024
100
AcDbEntity
  8
0
 62
     7
100
AcDbFaceRecord
 10
0.0
 20
0.0
 30
0.0
 70
   128
 71
   446
 72
   274
 73
   273
  0
VERTEX
  5
159E
330
1024
100
AcDbEntity
  8
0
 62
     7
100
AcDbFaceRecord
 10
0.0
 20
0.0
 30
0.0
 70
   128
 71
   446
 72
   269
 73
   274
  0
VERTEX
  5
159F
330
1024
100
AcDbEntity
  8
0
 62
     7
100
AcDbFaceRecord
 10
0.0
 20
0.0
 30
0.0
 70
   128
 71
   446
 72
   267
 73
   269
  0
VERTEX
  5
15A0
330
1024
100
AcDbEntity
  8
0
 62
     7
100
AcDbFaceRecord
 10
0.0
 20
0.0
 30
0.0
 70
   128
 71
   446
 72
   268
 73
   267
  0
VERTEX
  5
15A1
330
1024
100
AcDbEntity
  8
0
 62
     7
100
AcDbFaceRecord
 10
0.0
 20
0.0
 30
0.0
 70
   128
 71
   268
 72
   446
 73
   273
  0
VERTEX
  5
15A2
330
1024
100
AcDbEntity
  8
0
 62
     7
100
AcDbFaceRecord
 10
0.0
 20
0.0
 30
0.0
 70
   128
 71
   422
 72
   273
 73
   272
  0
VERTEX
  5
15A3
330
1024
100
AcDbEntity
  8
0
 62
     7
100
AcDbFaceRecord
 10
0.0
 20
0.0
 30
0.0
 70
   128
 71
   447
 72
   422
 73
   272
  0
VERTEX
  5
15A4
330
1024
100
AcDbEntity
  8
0
 62
     7
100
AcDbFaceRecord
 10
0.0
 20
0.0
 30
0.0
 70
   128
 71
   447
 72
   272
 73
   275
  0
VERTEX
  5
15A5
330
1024
100
AcDbEntity
  8
0
 62
     7
100
AcDbFaceRecord
 10
0.0
 20
0.0
 30
0.0
 70
   128
 71
   448
 72
   280
 73
   279
  0
VERTEX
  5
15A6
330
1024
100
AcDbEntity
  8
0
 62
     7
100
AcDbFaceRecord
 10
0.0
 20
0.0
 30
0.0
 70
   128
 71
   448
 72
   283
 73
   280
  0
VERTEX
  5
15A7
330
1024
100
AcDbEntity
  8
0
 62
     7
100
AcDbFaceRecord
 10
0.0
 20
0.0
 30
0.0
 70
   128
 71
   448
 72
   262
 73
   283
  0
VERTEX
  5
15A8
330
1024
100
AcDbEntity
  8
0
 62
     7
100
AcDbFaceRecord
 10
0.0
 20
0.0
 30
0.0
 70
   128
 71
   448
 72
   264
 73
   262
  0
VERTEX
  5
15A9
330
1024
100
AcDbEntity
  8
0
 62
     7
100
AcDbFaceRecord
 10
0.0
 20
0.0
 30
0.0
 70
   128
 71
   448
 72
   276
 73
   264
  0
VERTEX
  5
15AA
330
1024
100
AcDbEntity
  8
0
 62
     7
100
AcDbFaceRecord
 10
0.0
 20
0.0
 30
0.0
 70
   128
 71
   276
 72
   448
 73
   279
  0
VERTEX
  5
15AB
330
1024
100
AcDbEntity
  8
0
 62
     7
100
AcDbFaceRecord
 10
0.0
 20
0.0
 30
0.0
 70
   128
 71
   449
 72
   282
 73
   249
  0
VERTEX
  5
15AC
330
1024
100
AcDbEntity
  8
0
 62
     7
100
AcDbFaceRecord
 10
0.0
 20
0.0
 30
0.0
 70
   128
 71
   449
 72
   280
 73
   282
  0
VERTEX
  5
15AD
330
1024
100
AcDbEntity
  8
0
 62
     7
100
AcDbFaceRecord
 10
0.0
 20
0.0
 30
0.0
 70
   128
 71
   449
 72
   281
 73
   280
  0
VERTEX
  5
15AE
330
1024
100
AcDbEntity
  8
0
 62
     7
100
AcDbFaceRecord
 10
0.0
 20
0.0
 30
0.0
 70
   128
 71
   450
 72
   281
 73
   449
  0
VERTEX
  5
15AF
330
1024
100
AcDbEntity
  8
0
 62
     7
100
AcDbFaceRecord
 10
0.0
 20
0.0
 30
0.0
 70
   128
 71
   451
 72
   450
 73
   449
  0
VERTEX
  5
15B0
330
1024
100
AcDbEntity
  8
0
 62
     7
100
AcDbFaceRecord
 10
0.0
 20
0.0
 30
0.0
 70
   128
 71
   452
 72
   451
 73
   449
  0
VERTEX
  5
15B1
330
1024
100
AcDbEntity
  8
0
 62
     7
100
AcDbFaceRecord
 10
0.0
 20
0.0
 30
0.0
 70
   128
 71
   453
 72
   452
 73
   449
  0
VERTEX
  5
15B2
330
1024
100
AcDbEntity
  8
0
 62
     7
100
AcDbFaceRecord
 10
0.0
 20
0.0
 30
0.0
 70
   128
 71
   454
 72
   453
 73
   449
  0
VERTEX
  5
15B3
330
1024
100
AcDbEntity
  8
0
 62
     7
100
AcDbFaceRecord
 10
0.0
 20
0.0
 30
0.0
 70
   128
 71
   455
 72
   454
 73
   449
  0
VERTEX
  5
15B4
330
1024
100
AcDbEntity
  8
0
 62
     7
100
AcDbFaceRecord
 10
0.0
 20
0.0
 30
0.0
 70
   128
 71
   247
 72
   455
 73
   449
  0
VERTEX
  5
15B5
330
1024
100
AcDbEntity
  8
0
 62
     7
100
AcDbFaceRecord
 10
0.0
 20
0.0
 30
0.0
 70
   128
 71
   247
 72
   449
 73
   249
  0
VERTEX
  5
15B6
330
1024
100
AcDbEntity
  8
0
 62
     7
100
AcDbFaceRecord
 10
0.0
 20
0.0
 30
0.0
 70
   128
 71
   456
 72
   317
 73
   254
  0
VERTEX
  5
15B7
330
1024
100
AcDbEntity
  8
0
 62
     7
100
AcDbFaceRecord
 10
0.0
 20
0.0
 30
0.0
 70
   128
 71
   456
 72
   286
 73
   317
  0
VERTEX
  5
15B8
330
1024
100
AcDbEntity
  8
0
 62
     7
100
AcDbFaceRecord
 10
0.0
 20
0.0
 30
0.0
 70
   128
 71
   456
 72
   300
 73
   286
  0
VERTEX
  5
15B9
330
1024
100
AcDbEntity
  8
0
 62
     7
100
AcDbFaceRecord
 10
0.0
 20
0.0
 30
0.0
 70
   128
 71
   456
 72
   284
 73
   300
  0
VERTEX
  5
15BA
330
1024
100
AcDbEntity
  8
0
 62
     7
100
AcDbFaceRecord
 10
0.0
 20
0.0
 30
0.0
 70
   128
 71
   456
 72
   250
 73
   284
  0
VERTEX
  5
15BB
330
1024
100
AcDbEntity
  8
0
 62
     7
100
AcDbFaceRecord
 10
0.0
 20
0.0
 30
0.0
 70
   128
 71
   250
 72
   456
 73
   254
  0
VERTEX
  5
15BC
330
1024
100
AcDbEntity
  8
0
 62
     7
100
AcDbFaceRecord
 10
0.0
 20
0.0
 30
0.0
 70
   128
 71
   254
 72
   301
 73
   252
  0
VERTEX
  5
15BD
330
1024
100
AcDbEntity
  8
0
 62
     7
100
AcDbFaceRecord
 10
0.0
 20
0.0
 30
0.0
 70
   128
 71
   252
 72
   320
 73
   237
  0
VERTEX
  5
15BE
330
1024
100
AcDbEntity
  8
0
 62
     7
100
AcDbFaceRecord
 10
0.0
 20
0.0
 30
0.0
 70
   128
 71
   457
 72
   359
 73
   240
  0
VERTEX
  5
15BF
330
1024
100
AcDbEntity
  8
0
 62
     7
100
AcDbFaceRecord
 10
0.0
 20
0.0
 30
0.0
 70
   128
 71
   457
 72
   357
 73
   359
  0
VERTEX
  5
15C0
330
1024
100
AcDbEntity
  8
0
 62
     7
100
AcDbFaceRecord
 10
0.0
 20
0.0
 30
0.0
 70
   128
 71
   457
 72
   346
 73
   357
  0
VERTEX
  5
15C1
330
1024
100
AcDbEntity
  8
0
 62
     7
100
AcDbFaceRecord
 10
0.0
 20
0.0
 30
0.0
 70
   128
 71
   457
 72
   347
 73
   346
  0
VERTEX
  5
15C2
330
1024
100
AcDbEntity
  8
0
 62
     7
100
AcDbFaceRecord
 10
0.0
 20
0.0
 30
0.0
 70
   128
 71
   457
 72
   238
 73
   347
  0
VERTEX
  5
15C3
330
1024
100
AcDbEntity
  8
0
 62
     7
100
AcDbFaceRecord
 10
0.0
 20
0.0
 30
0.0
 70
   128
 71
   238
 72
   457
 73
   240
  0
VERTEX
  5
15C4
330
1024
100
AcDbEntity
  8
0
 62
     7
100
AcDbFaceRecord
 10
0.0
 20
0.0
 30
0.0
 70
   128
 71
   458
 72
   401
 73
   243
  0
VERTEX
  5
15C5
330
1024
100
AcDbEntity
  8
0
 62
     7
100
AcDbFaceRecord
 10
0.0
 20
0.0
 30
0.0
 70
   128
 71
   458
 72
   378
 73
   401
  0
VERTEX
  5
15C6
330
1024
100
AcDbEntity
  8
0
 62
     7
100
AcDbFaceRecord
 10
0.0
 20
0.0
 30
0.0
 70
   128
 71
   458
 72
   389
 73
   378
  0
VERTEX
  5
15C7
330
1024
100
AcDbEntity
  8
0
 62
     7
100
AcDbFaceRecord
 10
0.0
 20
0.0
 30
0.0
 70
   128
 71
   458
 72
   358
 73
   389
  0
VERTEX
  5
15C8
330
1024
100
AcDbEntity
  8
0
 62
     7
100
AcDbFaceRecord
 10
0.0
 20
0.0
 30
0.0
 70
   128
 71
   458
 72
   241
 73
   358
  0
VERTEX
  5
15C9
330
1024
100
AcDbEntity
  8
0
 62
     7
100
AcDbFaceRecord
 10
0.0
 20
0.0
 30
0.0
 70
   128
 71
   241
 72
   458
 73
   243
  0
VERTEX
  5
15CA
330
1024
100
AcDbEntity
  8
0
 62
     7
100
AcDbFaceRecord
 10
0.0
 20
0.0
 30
0.0
 70
   128
 71
   243
 72
   402
 73
   244
  0
VERTEX
  5
15CB
330
1024
100
AcDbEntity
  8
0
 62
     7
100
AcDbFaceRecord
 10
0.0
 20
0.0
 30
0.0
 70
   128
 71
   244
 72
   435
 73
   246
  0
VERTEX
  5
15CC
330
1024
100
AcDbEntity
  8
0
 62
     7
100
AcDbFaceRecord
 10
0.0
 20
0.0
 30
0.0
 70
   128
 71
   455
 72
   247
 73
   416
  0
VERTEX
  5
15CD
330
1024
100
AcDbEntity
  8
0
 62
     7
100
AcDbFaceRecord
 10
0.0
 20
0.0
 30
0.0
 70
   128
 71
   454
 72
   455
 73
   416
  0
VERTEX
  5
15CE
330
1024
100
AcDbEntity
  8
0
 62
     7
100
AcDbFaceRecord
 10
0.0
 20
0.0
 30
0.0
 70
   128
 71
   453
 72
   454
 73
   416
  0
VERTEX
  5
15CF
330
1024
100
AcDbEntity
  8
0
 62
     7
100
AcDbFaceRecord
 10
0.0
 20
0.0
 30
0.0
 70
   128
 71
   452
 72
   453
 73
   416
  0
VERTEX
  5
15D0
330
1024
100
AcDbEntity
  8
0
 62
     7
100
AcDbFaceRecord
 10
0.0
 20
0.0
 30
0.0
 70
   128
 71
   451
 72
   452
 73
   416
  0
VERTEX
  5
15D1
330
1024
100
AcDbEntity
  8
0
 62
     7
100
AcDbFaceRecord
 10
0.0
 20
0.0
 30
0.0
 70
   128
 71
   450
 72
   451
 73
   416
  0
VERTEX
  5
15D2
330
1024
100
AcDbEntity
  8
0
 62
     7
100
AcDbFaceRecord
 10
0.0
 20
0.0
 30
0.0
 70
   128
 71
   281
 72
   450
 73
   416
  0
VERTEX
  5
15D3
330
1024
100
AcDbEntity
  8
0
 62
     7
100
AcDbFaceRecord
 10
0.0
 20
0.0
 30
0.0
 70
   128
 71
   459
 72
   434
 73
   279
  0
VERTEX
  5
15D4
330
1024
100
AcDbEntity
  8
0
 62
     7
100
AcDbFaceRecord
 10
0.0
 20
0.0
 30
0.0
 70
   128
 71
   459
 72
   426
 73
   434
  0
VERTEX
  5
15D5
330
1024
100
AcDbEntity
  8
0
 62
     7
100
AcDbFaceRecord
 10
0.0
 20
0.0
 30
0.0
 70
   128
 71
   459
 72
   415
 73
   426
  0
VERTEX
  5
15D6
330
1024
100
AcDbEntity
  8
0
 62
     7
100
AcDbFaceRecord
 10
0.0
 20
0.0
 30
0.0
 70
   128
 71
   459
 72
   416
 73
   415
  0
VERTEX
  5
15D7
330
1024
100
AcDbEntity
  8
0
 62
     7
100
AcDbFaceRecord
 10
0.0
 20
0.0
 30
0.0
 70
   128
 71
   459
 72
   281
 73
   416
  0
VERTEX
  5
15D8
330
1024
100
AcDbEntity
  8
0
 62
     7
100
AcDbFaceRecord
 10
0.0
 20
0.0
 30
0.0
 70
   128
 71
   281
 72
   459
 73
   279
  0
VERTEX
  5
15D9
330
1024
100
AcDbEntity
  8
0
 62
     7
100
AcDbFaceRecord
 10
0.0
 20
0.0
 30
0.0
 70
   128
 71
   460
 72
   431
 73
   275
  0
VERTEX
  5
15DA
330
1024
100
AcDbEntity
  8
0
 62
     7
100
AcDbFaceRecord
 10
0.0
 20
0.0
 30
0.0
 70
   128
 71
   460
 72
   425
 73
   431
  0
VERTEX
  5
15DB
330
1024
100
AcDbEntity
  8
0
 62
     7
100
AcDbFaceRecord
 10
0.0
 20
0.0
 30
0.0
 70
   128
 71
   460
 72
   433
 73
   425
  0
VERTEX
  5
15DC
330
1024
100
AcDbEntity
  8
0
 62
     7
100
AcDbFaceRecord
 10
0.0
 20
0.0
 30
0.0
 70
   128
 71
   460
 72
   434
 73
   433
  0
VERTEX
  5
15DD
330
1024
100
AcDbEntity
  8
0
 62
     7
100
AcDbFaceRecord
 10
0.0
 20
0.0
 30
0.0
 70
   128
 71
   460
 72
   276
 73
   434
  0
VERTEX
  5
15DE
330
1024
100
AcDbEntity
  8
0
 62
     7
100
AcDbFaceRecord
 10
0.0
 20
0.0
 30
0.0
 70
   128
 71
   276
 72
   460
 73
   275
  0
VERTEX
  5
15DF
330
1024
100
AcDbEntity
  8
0
 62
     7
100
AcDbFaceRecord
 10
0.0
 20
0.0
 30
0.0
 70
   128
 71
   447
 72
   275
 73
   432
  0
VERTEX
  5
15E0
330
1024
100
AcDbEntity
  8
0
 62
     7
100
AcDbFaceRecord
 10
0.0
 20
0.0
 30
0.0
 70
   128
 71
   447
 72
   432
 73
   422
  0
VERTEX
  5
15E1
330
1024
100
AcDbEntity
  8
0
 62
     7
100
AcDbFaceRecord
 10
0.0
 20
0.0
 30
0.0
 70
   128
 71
   268
 72
   273
 73
   423
  0
VERTEX
  5
15E2
330
1024
100
AcDbEntity
  8
0
 62
     7
100
AcDbFaceRecord
 10
0.0
 20
0.0
 30
0.0
 70
   128
 71
   461
 72
   428
 73
   266
  0
VERTEX
  5
15E3
330
1024
100
AcDbEntity
  8
0
 62
     7
100
AcDbFaceRecord
 10
0.0
 20
0.0
 30
0.0
 70
   128
 71
   461
 72
   418
 73
   428
  0
VERTEX
  5
15E4
330
1024
100
AcDbEntity
  8
0
 62
     7
100
AcDbFaceRecord
 10
0.0
 20
0.0
 30
0.0
 70
   128
 71
   461
 72
   429
 73
   418
  0
VERTEX
  5
15E5
330
1024
100
AcDbEntity
  8
0
 62
     7
100
AcDbFaceRecord
 10
0.0
 20
0.0
 30
0.0
 70
   128
 71
   461
 72
   423
 73
   429
  0
VERTEX
  5
15E6
330
1024
100
AcDbEntity
  8
0
 62
     7
100
AcDbFaceRecord
 10
0.0
 20
0.0
 30
0.0
 70
   128
 71
   461
 72
   268
 73
   423
  0
VERTEX
  5
15E7
330
1024
100
AcDbEntity
  8
0
 62
     7
100
AcDbFaceRecord
 10
0.0
 20
0.0
 30
0.0
 70
   128
 71
   268
 72
   461
 73
   266
  0
VERTEX
  5
15E8
330
1024
100
AcDbEntity
  8
0
 62
     7
100
AcDbFaceRecord
 10
0.0
 20
0.0
 30
0.0
 70
   128
 71
   445
 72
   427
 73
   428
  0
VERTEX
  5
15E9
330
1024
100
AcDbEntity
  8
0
 62
     7
100
AcDbFaceRecord
 10
0.0
 20
0.0
 30
0.0
 70
   128
 71
   444
 72
   445
 73
   428
  0
VERTEX
  5
15EA
330
1024
100
AcDbEntity
  8
0
 62
     7
100
AcDbFaceRecord
 10
0.0
 20
0.0
 30
0.0
 70
   128
 71
   443
 72
   444
 73
   428
  0
VERTEX
  5
15EB
330
1024
100
AcDbEntity
  8
0
 62
     7
100
AcDbFaceRecord
 10
0.0
 20
0.0
 30
0.0
 70
   128
 71
   442
 72
   443
 73
   428
  0
VERTEX
  5
15EC
330
1024
100
AcDbEntity
  8
0
 62
     7
100
AcDbFaceRecord
 10
0.0
 20
0.0
 30
0.0
 70
   128
 71
   462
 72
   418
 73
   417
  0
VERTEX
  5
15ED
330
1024
100
AcDbEntity
  8
0
 62
     7
100
AcDbFaceRecord
 10
0.0
 20
0.0
 30
0.0
 70
   128
 71
   462
 72
   428
 73
   418
  0
VERTEX
  5
15EE
330
1024
100
AcDbEntity
  8
0
 62
     7
100
AcDbFaceRecord
 10
0.0
 20
0.0
 30
0.0
 70
   128
 71
   462
 72
   442
 73
   428
  0
VERTEX
  5
15EF
330
1024
100
AcDbEntity
  8
0
 62
     7
100
AcDbFaceRecord
 10
0.0
 20
0.0
 30
0.0
 70
   128
 71
   463
 72
   442
 73
   464
  0
VERTEX
  5
15F0
330
1024
100
AcDbEntity
  8
0
 62
     7
100
AcDbFaceRecord
 10
0.0
 20
0.0
 30
0.0
 70
   128
 71
   293
 72
   442
 73
   463
  0
VERTEX
  5
15F1
330
1024
100
AcDbEntity
  8
0
 62
     7
100
AcDbFaceRecord
 10
0.0
 20
0.0
 30
0.0
 70
   128
 71
   465
 72
   311
 73
   466
  0
VERTEX
  5
15F2
330
1024
100
AcDbEntity
  8
0
 62
     7
100
AcDbFaceRecord
 10
0.0
 20
0.0
 30
0.0
 70
   128
 71
   309
 72
   311
 73
   465
  0
VERTEX
  5
15F3
330
1024
100
AcDbEntity
  8
0
 62
     7
100
AcDbFaceRecord
 10
0.0
 20
0.0
 30
0.0
 70
   128
 71
   467
 72
   349
 73
   468
  0
VERTEX
  5
15F4
330
1024
100
AcDbEntity
  8
0
 62
     7
100
AcDbFaceRecord
 10
0.0
 20
0.0
 30
0.0
 70
   128
 71
   351
 72
   349
 73
   467
  0
VERTEX
  5
15F5
330
1024
100
AcDbEntity
  8
0
 62
     7
100
AcDbFaceRecord
 10
0.0
 20
0.0
 30
0.0
 70
   128
 71
   469
 72
   437
 73
   470
  0
VERTEX
  5
15F6
330
1024
100
AcDbEntity
  8
0
 62
     7
100
AcDbFaceRecord
 10
0.0
 20
0.0
 30
0.0
 70
   128
 71
   436
 72
   437
 73
   469
  0
VERTEX
  5
15F7
330
1024
100
AcDbEntity
  8
0
 62
     7
100
AcDbFaceRecord
 10
0.0
 20
0.0
 30
0.0
 70
   128
 71
   471
 72
   392
 73
   472
  0
VERTEX
  5
15F8
330
1024
100
AcDbEntity
  8
0
 62
     7
100
AcDbFaceRecord
 10
0.0
 20
0.0
 30
0.0
 70
   128
 71
   390
 72
   392
 73
   471
  0
VERTEX
  5
15F9
330
1024
100
AcDbEntity
  8
0
 62
     7
100
AcDbFaceRecord
 10
0.0
 20
0.0
 30
0.0
 70
   128
 71
   473
 72
   417
 73
   474
  0
VERTEX
  5
15FA
330
1024
100
AcDbEntity
  8
0
 62
     7
100
AcDbFaceRecord
 10
0.0
 20
0.0
 30
0.0
 70
   128
 71
   462
 72
   417
 73
   473
  0
VERTEX
  5
15FB
330
1024
100
AcDbEntity
  8
0
 62
     7
100
AcDbFaceRecord
 10
0.0
 20
0.0
 30
0.0
 70
   128
 71
   462
 72
   464
 73
   442
  0
VERTEX
  5
15FC
330
1024
100
AcDbEntity
  8
0
 62
     7
100
AcDbFaceRecord
 10
0.0
 20
0.0
 30
0.0
 70
   128
 71
   464
 72
   462
 73
   473
  0
VERTEX
  5
15FD
330
1024
100
AcDbEntity
  8
0
 62
     7
100
AcDbFaceRecord
 10
0.0
 20
0.0
 30
0.0
 70
   128
 71
   390
 72
   474
 73
   417
  0
VERTEX
  5
15FE
330
1024
100
AcDbEntity
  8
0
 62
     7
100
AcDbFaceRecord
 10
0.0
 20
0.0
 30
0.0
 70
   128
 71
   474
 72
   390
 73
   471
  0
VERTEX
  5
15FF
330
1024
100
AcDbEntity
  8
0
 62
     7
100
AcDbFaceRecord
 10
0.0
 20
0.0
 30
0.0
 70
   128
 71
   436
 72
   472
 73
   392
  0
VERTEX
  5
1600
330
1024
100
AcDbEntity
  8
0
 62
     7
100
AcDbFaceRecord
 10
0.0
 20
0.0
 30
0.0
 70
   128
 71
   472
 72
   436
 73
   469
  0
VERTEX
  5
1601
330
1024
100
AcDbEntity
  8
0
 62
     7
100
AcDbFaceRecord
 10
0.0
 20
0.0
 30
0.0
 70
   128
 71
   351
 72
   470
 73
   437
  0
VERTEX
  5
1602
330
1024
100
AcDbEntity
  8
0
 62
     7
100
AcDbFaceRecord
 10
0.0
 20
0.0
 30
0.0
 70
   128
 71
   470
 72
   351
 73
   467
  0
VERTEX
  5
1603
330
1024
100
AcDbEntity
  8
0
 62
     7
100
AcDbFaceRecord
 10
0.0
 20
0.0
 30
0.0
 70
   128
 71
   309
 72
   468
 73
   349
  0
VERTEX
  5
1604
330
1024
100
AcDbEntity
  8
0
 62
     7
100
AcDbFaceRecord
 10
0.0
 20
0.0
 30
0.0
 70
   128
 71
   468
 72
   309
 73
   465
  0
VERTEX
  5
1605
330
1024
100
AcDbEntity
  8
0
 62
     7
100
AcDbFaceRecord
 10
0.0
 20
0.0
 30
0.0
 70
   128
 71
   293
 72
   466
 73
   311
  0
VERTEX
  5
1606
330
1024
100
AcDbEntity
  8
0
 62
     7
100
AcDbFaceRecord
 10
0.0
 20
0.0
 30
0.0
 70
   128
 71
   466
 72
   293
 73
   463
  0
VERTEX
  5
1607
330
1024
100
AcDbEntity
  8
0
 62
     7
100
AcDbFaceRecord
 10
0.0
 20
0.0
 30
0.0
 70
   128
 71
   475
 72
   476
 73
   477
  0
VERTEX
  5
1608
330
1024
100
AcDbEntity
  8
0
 62
     7
100
AcDbFaceRecord
 10
0.0
 20
0.0
 30
0.0
 70
   128
 71
   475
 72
   478
 73
   476
  0
VERTEX
  5
1609
330
1024
100
AcDbEntity
  8
0
 62
     7
100
AcDbFaceRecord
 10
0.0
 20
0.0
 30
0.0
 70
   128
 71
   478
 72
   479
 73
   480
  0
VERTEX
  5
160A
330
1024
100
AcDbEntity
  8
0
 62
     7
100
AcDbFaceRecord
 10
0.0
 20
0.0
 30
0.0
 70
   128
 71
   481
 72
   475
 73
   482
  0
VERTEX
  5
160B
330
1024
100
AcDbEntity
  8
0
 62
     7
100
AcDbFaceRecord
 10
0.0
 20
0.0
 30
0.0
 70
   128
 71
   481
 72
   478
 73
   475
  0
VERTEX
  5
160C
330
1024
100
AcDbEntity
  8
0
 62
     7
100
AcDbFaceRecord
 10
0.0
 20
0.0
 30
0.0
 70
   128
 71
   481
 72
   479
 73
   478
  0
VERTEX
  5
160D
330
1024
100
AcDbEntity
  8
0
 62
     7
100
AcDbFaceRecord
 10
0.0
 20
0.0
 30
0.0
 70
   128
 71
   483
 72
   479
 73
   481
  0
VERTEX
  5
160E
330
1024
100
AcDbEntity
  8
0
 62
     7
100
AcDbFaceRecord
 10
0.0
 20
0.0
 30
0.0
 70
   128
 71
   483
 72
   484
 73
   479
  0
VERTEX
  5
160F
330
1024
100
AcDbEntity
  8
0
 62
     7
100
AcDbFaceRecord
 10
0.0
 20
0.0
 30
0.0
 70
   128
 71
   484
 72
   485
 73
   486
  0
VERTEX
  5
1610
330
1024
100
AcDbEntity
  8
0
 62
     7
100
AcDbFaceRecord
 10
0.0
 20
0.0
 30
0.0
 70
   128
 71
   487
 72
   483
 73
   488
  0
VERTEX
  5
1611
330
1024
100
AcDbEntity
  8
0
 62
     7
100
AcDbFaceRecord
 10
0.0
 20
0.0
 30
0.0
 70
   128
 71
   487
 72
   484
 73
   483
  0
VERTEX
  5
1612
330
1024
100
AcDbEntity
  8
0
 62
     7
100
AcDbFaceRecord
 10
0.0
 20
0.0
 30
0.0
 70
   128
 71
   487
 72
   485
 73
   484
  0
VERTEX
  5
1613
330
1024
100
AcDbEntity
  8
0
 62
     7
100
AcDbFaceRecord
 10
0.0
 20
0.0
 30
0.0
 70
   128
 71
   489
 72
   485
 73
   487
  0
VERTEX
  5
1614
330
1024
100
AcDbEntity
  8
0
 62
     7
100
AcDbFaceRecord
 10
0.0
 20
0.0
 30
0.0
 70
   128
 71
   489
 72
   490
 73
   485
  0
VERTEX
  5
1615
330
1024
100
AcDbEntity
  8
0
 62
     7
100
AcDbFaceRecord
 10
0.0
 20
0.0
 30
0.0
 70
   128
 71
   491
 72
   492
 73
   493
  0
VERTEX
  5
1616
330
1024
100
AcDbEntity
  8
0
 62
     7
100
AcDbFaceRecord
 10
0.0
 20
0.0
 30
0.0
 70
   128
 71
   492
 72
   494
 73
   490
  0
VERTEX
  5
1617
330
1024
100
AcDbEntity
  8
0
 62
     7
100
AcDbFaceRecord
 10
0.0
 20
0.0
 30
0.0
 70
   128
 71
   495
 72
   489
 73
   496
  0
VERTEX
  5
1618
330
1024
100
AcDbEntity
  8
0
 62
     7
100
AcDbFaceRecord
 10
0.0
 20
0.0
 30
0.0
 70
   128
 71
   495
 72
   490
 73
   489
  0
VERTEX
  5
1619
330
1024
100
AcDbEntity
  8
0
 62
     7
100
AcDbFaceRecord
 10
0.0
 20
0.0
 30
0.0
 70
   128
 71
   495
 72
   492
 73
   490
  0
VERTEX
  5
161A
330
1024
100
AcDbEntity
  8
0
 62
     7
100
AcDbFaceRecord
 10
0.0
 20
0.0
 30
0.0
 70
   128
 71
   495
 72
   493
 73
   492
  0
VERTEX
  5
161B
330
1024
100
AcDbEntity
  8
0
 62
     7
100
AcDbFaceRecord
 10
0.0
 20
0.0
 30
0.0
 70
   128
 71
   497
 72
   498
 73
   499
  0
VERTEX
  5
161C
330
1024
100
AcDbEntity
  8
0
 62
     7
100
AcDbFaceRecord
 10
0.0
 20
0.0
 30
0.0
 70
   128
 71
   477
 72
   500
 73
   501
  0
VERTEX
  5
161D
330
1024
100
AcDbEntity
  8
0
 62
     7
100
AcDbFaceRecord
 10
0.0
 20
0.0
 30
0.0
 70
   128
 71
   502
 72
   476
 73
   503
  0
VERTEX
  5
161E
330
1024
100
AcDbEntity
  8
0
 62
     7
100
AcDbFaceRecord
 10
0.0
 20
0.0
 30
0.0
 70
   128
 71
   502
 72
   477
 73
   476
  0
VERTEX
  5
161F
330
1024
100
AcDbEntity
  8
0
 62
     7
100
AcDbFaceRecord
 10
0.0
 20
0.0
 30
0.0
 70
   128
 71
   502
 72
   500
 73
   477
  0
VERTEX
  5
1620
330
1024
100
AcDbEntity
  8
0
 62
     7
100
AcDbFaceRecord
 10
0.0
 20
0.0
 30
0.0
 70
   128
 71
   504
 72
   498
 73
   497
  0
VERTEX
  5
1621
330
1024
100
AcDbEntity
  8
0
 62
     7
100
AcDbFaceRecord
 10
0.0
 20
0.0
 30
0.0
 70
   128
 71
   505
 72
   500
 73
   502
  0
VERTEX
  5
1622
330
1024
100
AcDbEntity
  8
0
 62
     7
100
AcDbFaceRecord
 10
0.0
 20
0.0
 30
0.0
 70
   128
 71
   505
 72
   498
 73
   500
  0
VERTEX
  5
1623
330
1024
100
AcDbEntity
  8
0
 62
     7
100
AcDbFaceRecord
 10
0.0
 20
0.0
 30
0.0
 70
   128
 71
   505
 72
   499
 73
   498
  0
VERTEX
  5
1624
330
1024
100
AcDbEntity
  8
0
 62
     7
100
AcDbFaceRecord
 10
0.0
 20
0.0
 30
0.0
 70
   128
 71
   505
 72
   506
 73
   499
  0
VERTEX
  5
1625
330
1024
100
AcDbEntity
  8
0
 62
     7
100
AcDbFaceRecord
 10
0.0
 20
0.0
 30
0.0
 70
   128
 71
   507
 72
   508
 73
   509
  0
VERTEX
  5
1626
330
1024
100
AcDbEntity
  8
0
 62
     7
100
AcDbFaceRecord
 10
0.0
 20
0.0
 30
0.0
 70
   128
 71
   510
 72
   506
 73
   511
  0
VERTEX
  5
1627
330
1024
100
AcDbEntity
  8
0
 62
     7
100
AcDbFaceRecord
 10
0.0
 20
0.0
 30
0.0
 70
   128
 71
   463
 72
   501
 73
   466
  0
VERTEX
  5
1628
330
1024
100
AcDbEntity
  8
0
 62
     7
100
AcDbFaceRecord
 10
0.0
 20
0.0
 30
0.0
 70
   128
 71
   512
 72
   503
 73
   513
  0
VERTEX
  5
1629
330
1024
100
AcDbEntity
  8
0
 62
     7
100
AcDbFaceRecord
 10
0.0
 20
0.0
 30
0.0
 70
   128
 71
   473
 72
   482
 73
   464
  0
VERTEX
  5
162A
330
1024
100
AcDbEntity
  8
0
 62
     7
100
AcDbFaceRecord
 10
0.0
 20
0.0
 30
0.0
 70
   128
 71
   514
 72
   480
 73
   515
  0
VERTEX
  5
162B
330
1024
100
AcDbEntity
  8
0
 62
     7
100
AcDbFaceRecord
 10
0.0
 20
0.0
 30
0.0
 70
   128
 71
   471
 72
   488
 73
   474
  0
VERTEX
  5
162C
330
1024
100
AcDbEntity
  8
0
 62
     7
100
AcDbFaceRecord
 10
0.0
 20
0.0
 30
0.0
 70
   128
 71
   516
 72
   486
 73
   517
  0
VERTEX
  5
162D
330
1024
100
AcDbEntity
  8
0
 62
     7
100
AcDbFaceRecord
 10
0.0
 20
0.0
 30
0.0
 70
   128
 71
   469
 72
   496
 73
   472
  0
VERTEX
  5
162E
330
1024
100
AcDbEntity
  8
0
 62
     7
100
AcDbFaceRecord
 10
0.0
 20
0.0
 30
0.0
 70
   128
 71
   467
 72
   518
 73
   470
  0
VERTEX
  5
162F
330
1024
100
AcDbEntity
  8
0
 62
     7
100
AcDbFaceRecord
 10
0.0
 20
0.0
 30
0.0
 70
   128
 71
   465
 72
   504
 73
   468
  0
VERTEX
  5
1630
330
1024
100
AcDbEntity
  8
0
 62
     7
100
AcDbFaceRecord
 10
0.0
 20
0.0
 30
0.0
 70
   128
 71
   519
 72
   493
 73
   518
  0
VERTEX
  5
1631
330
1024
100
AcDbEntity
  8
0
 62
     7
100
AcDbFaceRecord
 10
0.0
 20
0.0
 30
0.0
 70
   128
 71
   519
 72
   491
 73
   493
  0
VERTEX
  5
1632
330
1024
100
AcDbEntity
  8
0
 62
     7
100
AcDbFaceRecord
 10
0.0
 20
0.0
 30
0.0
 70
   128
 71
   520
 72
   494
 73
   521
  0
VERTEX
  5
1633
330
1024
100
AcDbEntity
  8
0
 62
     7
100
AcDbFaceRecord
 10
0.0
 20
0.0
 30
0.0
 70
   128
 71
   522
 72
   497
 73
   499
  0
VERTEX
  5
1634
330
1024
100
AcDbEntity
  8
0
 62
     7
100
AcDbFaceRecord
 10
0.0
 20
0.0
 30
0.0
 70
   128
 71
   522
 72
   519
 73
   497
  0
VERTEX
  5
1635
330
1024
100
AcDbEntity
  8
0
 62
     7
100
AcDbFaceRecord
 10
0.0
 20
0.0
 30
0.0
 70
   128
 71
   522
 72
   491
 73
   519
  0
VERTEX
  5
1636
330
1024
100
AcDbEntity
  8
0
 62
     7
100
AcDbFaceRecord
 10
0.0
 20
0.0
 30
0.0
 70
   128
 71
   522
 72
   508
 73
   491
  0
VERTEX
  5
1637
330
1024
100
AcDbEntity
  8
0
 62
     7
100
AcDbFaceRecord
 10
0.0
 20
0.0
 30
0.0
 70
   128
 71
   523
 72
   504
 73
   465
  0
VERTEX
  5
1638
330
1024
100
AcDbEntity
  8
0
 62
     7
100
AcDbFaceRecord
 10
0.0
 20
0.0
 30
0.0
 70
   128
 71
   523
 72
   498
 73
   504
  0
VERTEX
  5
1639
330
1024
100
AcDbEntity
  8
0
 62
     7
100
AcDbFaceRecord
 10
0.0
 20
0.0
 30
0.0
 70
   128
 71
   523
 72
   500
 73
   498
  0
VERTEX
  5
163A
330
1024
100
AcDbEntity
  8
0
 62
     7
100
AcDbFaceRecord
 10
0.0
 20
0.0
 30
0.0
 70
   128
 71
   523
 72
   501
 73
   500
  0
VERTEX
  5
163B
330
1024
100
AcDbEntity
  8
0
 62
     7
100
AcDbFaceRecord
 10
0.0
 20
0.0
 30
0.0
 70
   128
 71
   523
 72
   466
 73
   501
  0
VERTEX
  5
163C
330
1024
100
AcDbEntity
  8
0
 62
     7
100
AcDbFaceRecord
 10
0.0
 20
0.0
 30
0.0
 70
   128
 71
   466
 72
   523
 73
   465
  0
VERTEX
  5
163D
330
1024
100
AcDbEntity
  8
0
 62
     7
100
AcDbFaceRecord
 10
0.0
 20
0.0
 30
0.0
 70
   128
 71
   524
 72
   518
 73
   467
  0
VERTEX
  5
163E
330
1024
100
AcDbEntity
  8
0
 62
     7
100
AcDbFaceRecord
 10
0.0
 20
0.0
 30
0.0
 70
   128
 71
   524
 72
   519
 73
   518
  0
VERTEX
  5
163F
330
1024
100
AcDbEntity
  8
0
 62
     7
100
AcDbFaceRecord
 10
0.0
 20
0.0
 30
0.0
 70
   128
 71
   524
 72
   497
 73
   519
  0
VERTEX
  5
1640
330
1024
100
AcDbEntity
  8
0
 62
     7
100
AcDbFaceRecord
 10
0.0
 20
0.0
 30
0.0
 70
   128
 71
   524
 72
   504
 73
   497
  0
VERTEX
  5
1641
330
1024
100
AcDbEntity
  8
0
 62
     7
100
AcDbFaceRecord
 10
0.0
 20
0.0
 30
0.0
 70
   128
 71
   524
 72
   468
 73
   504
  0
VERTEX
  5
1642
330
1024
100
AcDbEntity
  8
0
 62
     7
100
AcDbFaceRecord
 10
0.0
 20
0.0
 30
0.0
 70
   128
 71
   468
 72
   524
 73
   467
  0
VERTEX
  5
1643
330
1024
100
AcDbEntity
  8
0
 62
     7
100
AcDbFaceRecord
 10
0.0
 20
0.0
 30
0.0
 70
   128
 71
   525
 72
   496
 73
   469
  0
VERTEX
  5
1644
330
1024
100
AcDbEntity
  8
0
 62
     7
100
AcDbFaceRecord
 10
0.0
 20
0.0
 30
0.0
 70
   128
 71
   525
 72
   495
 73
   496
  0
VERTEX
  5
1645
330
1024
100
AcDbEntity
  8
0
 62
     7
100
AcDbFaceRecord
 10
0.0
 20
0.0
 30
0.0
 70
   128
 71
   525
 72
   493
 73
   495
  0
VERTEX
  5
1646
330
1024
100
AcDbEntity
  8
0
 62
     7
100
AcDbFaceRecord
 10
0.0
 20
0.0
 30
0.0
 70
   128
 71
   525
 72
   518
 73
   493
  0
VERTEX
  5
1647
330
1024
100
AcDbEntity
  8
0
 62
     7
100
AcDbFaceRecord
 10
0.0
 20
0.0
 30
0.0
 70
   128
 71
   525
 72
   470
 73
   518
  0
VERTEX
  5
1648
330
1024
100
AcDbEntity
  8
0
 62
     7
100
AcDbFaceRecord
 10
0.0
 20
0.0
 30
0.0
 70
   128
 71
   470
 72
   525
 73
   469
  0
VERTEX
  5
1649
330
1024
100
AcDbEntity
  8
0
 62
     7
100
AcDbFaceRecord
 10
0.0
 20
0.0
 30
0.0
 70
   128
 71
   526
 72
   488
 73
   471
  0
VERTEX
  5
164A
330
1024
100
AcDbEntity
  8
0
 62
     7
100
AcDbFaceRecord
 10
0.0
 20
0.0
 30
0.0
 70
   128
 71
   526
 72
   487
 73
   488
  0
VERTEX
  5
164B
330
1024
100
AcDbEntity
  8
0
 62
     7
100
AcDbFaceRecord
 10
0.0
 20
0.0
 30
0.0
 70
   128
 71
   526
 72
   489
 73
   487
  0
VERTEX
  5
164C
330
1024
100
AcDbEntity
  8
0
 62
     7
100
AcDbFaceRecord
 10
0.0
 20
0.0
 30
0.0
 70
   128
 71
   526
 72
   496
 73
   489
  0
VERTEX
  5
164D
330
1024
100
AcDbEntity
  8
0
 62
     7
100
AcDbFaceRecord
 10
0.0
 20
0.0
 30
0.0
 70
   128
 71
   526
 72
   472
 73
   496
  0
VERTEX
  5
164E
330
1024
100
AcDbEntity
  8
0
 62
     7
100
AcDbFaceRecord
 10
0.0
 20
0.0
 30
0.0
 70
   128
 71
   472
 72
   526
 73
   471
  0
VERTEX
  5
164F
330
1024
100
AcDbEntity
  8
0
 62
     7
100
AcDbFaceRecord
 10
0.0
 20
0.0
 30
0.0
 70
   128
 71
   527
 72
   482
 73
   473
  0
VERTEX
  5
1650
330
1024
100
AcDbEntity
  8
0
 62
     7
100
AcDbFaceRecord
 10
0.0
 20
0.0
 30
0.0
 70
   128
 71
   527
 72
   481
 73
   482
  0
VERTEX
  5
1651
330
1024
100
AcDbEntity
  8
0
 62
     7
100
AcDbFaceRecord
 10
0.0
 20
0.0
 30
0.0
 70
   128
 71
   527
 72
   483
 73
   481
  0
VERTEX
  5
1652
330
1024
100
AcDbEntity
  8
0
 62
     7
100
AcDbFaceRecord
 10
0.0
 20
0.0
 30
0.0
 70
   128
 71
   527
 72
   488
 73
   483
  0
VERTEX
  5
1653
330
1024
100
AcDbEntity
  8
0
 62
     7
100
AcDbFaceRecord
 10
0.0
 20
0.0
 30
0.0
 70
   128
 71
   527
 72
   474
 73
   488
  0
VERTEX
  5
1654
330
1024
100
AcDbEntity
  8
0
 62
     7
100
AcDbFaceRecord
 10
0.0
 20
0.0
 30
0.0
 70
   128
 71
   474
 72
   527
 73
   473
  0
VERTEX
  5
1655
330
1024
100
AcDbEntity
  8
0
 62
     7
100
AcDbFaceRecord
 10
0.0
 20
0.0
 30
0.0
 70
   128
 71
   528
 72
   501
 73
   463
  0
VERTEX
  5
1656
330
1024
100
AcDbEntity
  8
0
 62
     7
100
AcDbFaceRecord
 10
0.0
 20
0.0
 30
0.0
 70
   128
 71
   528
 72
   477
 73
   501
  0
VERTEX
  5
1657
330
1024
100
AcDbEntity
  8
0
 62
     7
100
AcDbFaceRecord
 10
0.0
 20
0.0
 30
0.0
 70
   128
 71
   528
 72
   475
 73
   477
  0
VERTEX
  5
1658
330
1024
100
AcDbEntity
  8
0
 62
     7
100
AcDbFaceRecord
 10
0.0
 20
0.0
 30
0.0
 70
   128
 71
   528
 72
   482
 73
   475
  0
VERTEX
  5
1659
330
1024
100
AcDbEntity
  8
0
 62
     7
100
AcDbFaceRecord
 10
0.0
 20
0.0
 30
0.0
 70
   128
 71
   528
 72
   464
 73
   482
  0
VERTEX
  5
165A
330
1024
100
AcDbEntity
  8
0
 62
     7
100
AcDbFaceRecord
 10
0.0
 20
0.0
 30
0.0
 70
   128
 71
   464
 72
   528
 73
   463
  0
VERTEX
  5
165B
330
1024
100
AcDbEntity
  8
0
 62
     7
100
AcDbFaceRecord
 10
0.0
 20
0.0
 30
0.0
 70
   128
 71
   529
 72
   503
 73
   512
  0
VERTEX
  5
165C
330
1024
100
AcDbEntity
  8
0
 62
     7
100
AcDbFaceRecord
 10
0.0
 20
0.0
 30
0.0
 70
   128
 71
   529
 72
   502
 73
   503
  0
VERTEX
  5
165D
330
1024
100
AcDbEntity
  8
0
 62
     7
100
AcDbFaceRecord
 10
0.0
 20
0.0
 30
0.0
 70
   128
 71
   529
 72
   505
 73
   502
  0
VERTEX
  5
165E
330
1024
100
AcDbEntity
  8
0
 62
     7
100
AcDbFaceRecord
 10
0.0
 20
0.0
 30
0.0
 70
   128
 71
   529
 72
   506
 73
   505
  0
VERTEX
  5
165F
330
1024
100
AcDbEntity
  8
0
 62
     7
100
AcDbFaceRecord
 10
0.0
 20
0.0
 30
0.0
 70
   128
 71
   529
 72
   511
 73
   506
  0
VERTEX
  5
1660
330
1024
100
AcDbEntity
  8
0
 62
     7
100
AcDbFaceRecord
 10
0.0
 20
0.0
 30
0.0
 70
   128
 71
   511
 72
   529
 73
   512
  0
VERTEX
  5
1661
330
1024
100
AcDbEntity
  8
0
 62
     7
100
AcDbFaceRecord
 10
0.0
 20
0.0
 30
0.0
 70
   128
 71
   530
 72
   480
 73
   514
  0
VERTEX
  5
1662
330
1024
100
AcDbEntity
  8
0
 62
     7
100
AcDbFaceRecord
 10
0.0
 20
0.0
 30
0.0
 70
   128
 71
   530
 72
   478
 73
   480
  0
VERTEX
  5
1663
330
1024
100
AcDbEntity
  8
0
 62
     7
100
AcDbFaceRecord
 10
0.0
 20
0.0
 30
0.0
 70
   128
 71
   530
 72
   476
 73
   478
  0
VERTEX
  5
1664
330
1024
100
AcDbEntity
  8
0
 62
     7
100
AcDbFaceRecord
 10
0.0
 20
0.0
 30
0.0
 70
   128
 71
   530
 72
   503
 73
   476
  0
VERTEX
  5
1665
330
1024
100
AcDbEntity
  8
0
 62
     7
100
AcDbFaceRecord
 10
0.0
 20
0.0
 30
0.0
 70
   128
 71
   530
 72
   513
 73
   503
  0
VERTEX
  5
1666
330
1024
100
AcDbEntity
  8
0
 62
     7
100
AcDbFaceRecord
 10
0.0
 20
0.0
 30
0.0
 70
   128
 71
   513
 72
   530
 73
   514
  0
VERTEX
  5
1667
330
1024
100
AcDbEntity
  8
0
 62
     7
100
AcDbFaceRecord
 10
0.0
 20
0.0
 30
0.0
 70
   128
 71
   531
 72
   486
 73
   516
  0
VERTEX
  5
1668
330
1024
100
AcDbEntity
  8
0
 62
     7
100
AcDbFaceRecord
 10
0.0
 20
0.0
 30
0.0
 70
   128
 71
   531
 72
   484
 73
   486
  0
VERTEX
  5
1669
330
1024
100
AcDbEntity
  8
0
 62
     7
100
AcDbFaceRecord
 10
0.0
 20
0.0
 30
0.0
 70
   128
 71
   531
 72
   479
 73
   484
  0
VERTEX
  5
166A
330
1024
100
AcDbEntity
  8
0
 62
     7
100
AcDbFaceRecord
 10
0.0
 20
0.0
 30
0.0
 70
   128
 71
   531
 72
   480
 73
   479
  0
VERTEX
  5
166B
330
1024
100
AcDbEntity
  8
0
 62
     7
100
AcDbFaceRecord
 10
0.0
 20
0.0
 30
0.0
 70
   128
 71
   531
 72
   515
 73
   480
  0
VERTEX
  5
166C
330
1024
100
AcDbEntity
  8
0
 62
     7
100
AcDbFaceRecord
 10
0.0
 20
0.0
 30
0.0
 70
   128
 71
   515
 72
   531
 73
   516
  0
VERTEX
  5
166D
330
1024
100
AcDbEntity
  8
0
 62
     7
100
AcDbFaceRecord
 10
0.0
 20
0.0
 30
0.0
 70
   128
 71
   532
 72
   494
 73
   520
  0
VERTEX
  5
166E
330
1024
100
AcDbEntity
  8
0
 62
     7
100
AcDbFaceRecord
 10
0.0
 20
0.0
 30
0.0
 70
   128
 71
   532
 72
   490
 73
   494
  0
VERTEX
  5
166F
330
1024
100
AcDbEntity
  8
0
 62
     7
100
AcDbFaceRecord
 10
0.0
 20
0.0
 30
0.0
 70
   128
 71
   532
 72
   485
 73
   490
  0
VERTEX
  5
1670
330
1024
100
AcDbEntity
  8
0
 62
     7
100
AcDbFaceRecord
 10
0.0
 20
0.0
 30
0.0
 70
   128
 71
   532
 72
   486
 73
   485
  0
VERTEX
  5
1671
330
1024
100
AcDbEntity
  8
0
 62
     7
100
AcDbFaceRecord
 10
0.0
 20
0.0
 30
0.0
 70
   128
 71
   532
 72
   517
 73
   486
  0
VERTEX
  5
1672
330
1024
100
AcDbEntity
  8
0
 62
     7
100
AcDbFaceRecord
 10
0.0
 20
0.0
 30
0.0
 70
   128
 71
   517
 72
   532
 73
   520
  0
VERTEX
  5
1673
330
1024
100
AcDbEntity
  8
0
 62
     7
100
AcDbFaceRecord
 10
0.0
 20
0.0
 30
0.0
 70
   128
 71
   533
 72
   508
 73
   507
  0
VERTEX
  5
1674
330
1024
100
AcDbEntity
  8
0
 62
     7
100
AcDbFaceRecord
 10
0.0
 20
0.0
 30
0.0
 70
   128
 71
   533
 72
   491
 73
   508
  0
VERTEX
  5
1675
330
1024
100
AcDbEntity
  8
0
 62
     7
100
AcDbFaceRecord
 10
0.0
 20
0.0
 30
0.0
 70
   128
 71
   533
 72
   492
 73
   491
  0
VERTEX
  5
1676
330
1024
100
AcDbEntity
  8
0
 62
     7
100
AcDbFaceRecord
 10
0.0
 20
0.0
 30
0.0
 70
   128
 71
   533
 72
   494
 73
   492
  0
VERTEX
  5
1677
330
1024
100
AcDbEntity
  8
0
 62
     7
100
AcDbFaceRecord
 10
0.0
 20
0.0
 30
0.0
 70
   128
 71
   533
 72
   521
 73
   494
  0
VERTEX
  5
1678
330
1024
100
AcDbEntity
  8
0
 62
     7
100
AcDbFaceRecord
 10
0.0
 20
0.0
 30
0.0
 70
   128
 71
   521
 72
   533
 73
   507
  0
VERTEX
  5
1679
330
1024
100
AcDbEntity
  8
0
 62
     7
100
AcDbFaceRecord
 10
0.0
 20
0.0
 30
0.0
 70
   128
 71
   534
 72
   506
 73
   510
  0
VERTEX
  5
167A
330
1024
100
AcDbEntity
  8
0
 62
     7
100
AcDbFaceRecord
 10
0.0
 20
0.0
 30
0.0
 70
   128
 71
   534
 72
   499
 73
   506
  0
VERTEX
  5
167B
330
1024
100
AcDbEntity
  8
0
 62
     7
100
AcDbFaceRecord
 10
0.0
 20
0.0
 30
0.0
 70
   128
 71
   534
 72
   522
 73
   499
  0
VERTEX
  5
167C
330
1024
100
AcDbEntity
  8
0
 62
     7
100
AcDbFaceRecord
 10
0.0
 20
0.0
 30
0.0
 70
   128
 71
   534
 72
   508
 73
   522
  0
VERTEX
  5
167D
330
1024
100
AcDbEntity
  8
0
 62
     7
100
AcDbFaceRecord
 10
0.0
 20
0.0
 30
0.0
 70
   128
 71
   534
 72
   509
 73
   508
  0
VERTEX
  5
167E
330
1024
100
AcDbEntity
  8
0
 62
     7
100
AcDbFaceRecord
 10
0.0
 20
0.0
 30
0.0
 70
   128
 71
   509
 72
   534
 73
   510
  0
VERTEX
  5
167F
330
1024
100
AcDbEntity
  8
0
 62
     7
100
AcDbFaceRecord
 10
0.0
 20
0.0
 30
0.0
 70
   128
 71
   535
 72
   510
 73
   536
  0
VERTEX
  5
1680
330
1024
100
AcDbEntity
  8
0
 62
     7
100
AcDbFaceRecord
 10
0.0
 20
0.0
 30
0.0
 70
   128
 71
   516
 72
   537
 73
   538
  0
VERTEX
  5
1681
330
1024
100
AcDbEntity
  8
0
 62
     7
100
AcDbFaceRecord
 10
0.0
 20
0.0
 30
0.0
 70
   128
 71
   509
 72
   510
 73
   535
  0
VERTEX
  5
1682
330
1024
100
AcDbEntity
  8
0
 62
     7
100
AcDbFaceRecord
 10
0.0
 20
0.0
 30
0.0
 70
   128
 71
   539
 72
   507
 73
   540
  0
VERTEX
  5
1683
330
1024
100
AcDbEntity
  8
0
 62
     7
100
AcDbFaceRecord
 10
0.0
 20
0.0
 30
0.0
 70
   128
 71
   521
 72
   507
 73
   539
  0
VERTEX
  5
1684
330
1024
100
AcDbEntity
  8
0
 62
     7
100
AcDbFaceRecord
 10
0.0
 20
0.0
 30
0.0
 70
   128
 71
   541
 72
   520
 73
   542
  0
VERTEX
  5
1685
330
1024
100
AcDbEntity
  8
0
 62
     7
100
AcDbFaceRecord
 10
0.0
 20
0.0
 30
0.0
 70
   128
 71
   517
 72
   520
 73
   541
  0
VERTEX
  5
1686
330
1024
100
AcDbEntity
  8
0
 62
     7
100
AcDbFaceRecord
 10
0.0
 20
0.0
 30
0.0
 70
   128
 71
   515
 72
   516
 73
   538
  0
VERTEX
  5
1687
330
1024
100
AcDbEntity
  8
0
 62
     7
100
AcDbFaceRecord
 10
0.0
 20
0.0
 30
0.0
 70
   128
 71
   543
 72
   514
 73
   544
  0
VERTEX
  5
1688
330
1024
100
AcDbEntity
  8
0
 62
     7
100
AcDbFaceRecord
 10
0.0
 20
0.0
 30
0.0
 70
   128
 71
   513
 72
   514
 73
   543
  0
VERTEX
  5
1689
330
1024
100
AcDbEntity
  8
0
 62
     7
100
AcDbFaceRecord
 10
0.0
 20
0.0
 30
0.0
 70
   128
 71
   545
 72
   512
 73
   546
  0
VERTEX
  5
168A
330
1024
100
AcDbEntity
  8
0
 62
     7
100
AcDbFaceRecord
 10
0.0
 20
0.0
 30
0.0
 70
   128
 71
   511
 72
   512
 73
   545
  0
VERTEX
  5
168B
330
1024
100
AcDbEntity
  8
0
 62
     7
100
AcDbFaceRecord
 10
0.0
 20
0.0
 30
0.0
 70
   128
 71
   521
 72
   542
 73
   520
  0
VERTEX
  5
168C
330
1024
100
AcDbEntity
  8
0
 62
     7
100
AcDbFaceRecord
 10
0.0
 20
0.0
 30
0.0
 70
   128
 71
   547
 72
   542
 73
   521
  0
VERTEX
  5
168D
330
1024
100
AcDbEntity
  8
0
 62
     7
100
AcDbFaceRecord
 10
0.0
 20
0.0
 30
0.0
 70
   128
 71
   547
 72
   521
 73
   539
  0
VERTEX
  5
168E
330
1024
100
AcDbEntity
  8
0
 62
     7
100
AcDbFaceRecord
 10
0.0
 20
0.0
 30
0.0
 70
   128
 71
   509
 72
   540
 73
   507
  0
VERTEX
  5
168F
330
1024
100
AcDbEntity
  8
0
 62
     7
100
AcDbFaceRecord
 10
0.0
 20
0.0
 30
0.0
 70
   128
 71
   540
 72
   509
 73
   535
  0
VERTEX
  5
1690
330
1024
100
AcDbEntity
  8
0
 62
     7
100
AcDbFaceRecord
 10
0.0
 20
0.0
 30
0.0
 70
   128
 71
   548
 72
   536
 73
   510
  0
VERTEX
  5
1691
330
1024
100
AcDbEntity
  8
0
 62
     7
100
AcDbFaceRecord
 10
0.0
 20
0.0
 30
0.0
 70
   128
 71
   511
 72
   548
 73
   510
  0
VERTEX
  5
1692
330
1024
100
AcDbEntity
  8
0
 62
     7
100
AcDbFaceRecord
 10
0.0
 20
0.0
 30
0.0
 70
   128
 71
   548
 72
   511
 73
   545
  0
VERTEX
  5
1693
330
1024
100
AcDbEntity
  8
0
 62
     7
100
AcDbFaceRecord
 10
0.0
 20
0.0
 30
0.0
 70
   128
 71
   513
 72
   546
 73
   512
  0
VERTEX
  5
1694
330
1024
100
AcDbEntity
  8
0
 62
     7
100
AcDbFaceRecord
 10
0.0
 20
0.0
 30
0.0
 70
   128
 71
   549
 72
   546
 73
   513
  0
VERTEX
  5
1695
330
1024
100
AcDbEntity
  8
0
 62
     7
100
AcDbFaceRecord
 10
0.0
 20
0.0
 30
0.0
 70
   128
 71
   549
 72
   513
 73
   543
  0
VERTEX
  5
1696
330
1024
100
AcDbEntity
  8
0
 62
     7
100
AcDbFaceRecord
 10
0.0
 20
0.0
 30
0.0
 70
   128
 71
   515
 72
   544
 73
   514
  0
VERTEX
  5
1697
330
1024
100
AcDbEntity
  8
0
 62
     7
100
AcDbFaceRecord
 10
0.0
 20
0.0
 30
0.0
 70
   128
 71
   544
 72
   515
 73
   538
  0
VERTEX
  5
1698
330
1024
100
AcDbEntity
  8
0
 62
     7
100
AcDbFaceRecord
 10
0.0
 20
0.0
 30
0.0
 70
   128
 71
   550
 72
   537
 73
   516
  0
VERTEX
  5
1699
330
1024
100
AcDbEntity
  8
0
 62
     7
100
AcDbFaceRecord
 10
0.0
 20
0.0
 30
0.0
 70
   128
 71
   517
 72
   550
 73
   516
  0
VERTEX
  5
169A
330
1024
100
AcDbEntity
  8
0
 62
     7
100
AcDbFaceRecord
 10
0.0
 20
0.0
 30
0.0
 70
   128
 71
   550
 72
   517
 73
   541
  0
VERTEX
  5
169B
330
1024
100
AcDbEntity
  8
0
 62
     7
100
AcDbFaceRecord
 10
0.0
 20
0.0
 30
0.0
 70
   128
 71
    47
 72
   551
 73
    46
  0
VERTEX
  5
169C
330
1024
100
AcDbEntity
  8
0
 62
     7
100
AcDbFaceRecord
 10
0.0
 20
0.0
 30
0.0
 70
   128
 71
   552
 72
    51
 73
   553
  0
VERTEX
  5
169D
330
1024
100
AcDbEntity
  8
0
 62
     7
100
AcDbFaceRecord
 10
0.0
 20
0.0
 30
0.0
 70
   128
 71
    39
 72
    55
 73
   554
  0
VERTEX
  5
169E
330
1024
100
AcDbEntity
  8
0
 62
     7
100
AcDbFaceRecord
 10
0.0
 20
0.0
 30
0.0
 70
   128
 71
   555
 72
    38
 73
   556
  0
VERTEX
  5
169F
330
1024
100
AcDbEntity
  8
0
 62
     7
100
AcDbFaceRecord
 10
0.0
 20
0.0
 30
0.0
 70
   128
 71
    42
 72
    43
 73
   557
  0
VERTEX
  5
16A0
330
1024
100
AcDbEntity
  8
0
 62
     7
100
AcDbFaceRecord
 10
0.0
 20
0.0
 30
0.0
 70
   128
 71
   558
 72
   551
 73
    47
  0
VERTEX
  5
16A1
330
1024
100
AcDbEntity
  8
0
 62
     7
100
AcDbFaceRecord
 10
0.0
 20
0.0
 30
0.0
 70
   128
 71
    52
 72
    54
 73
   559
  0
VERTEX
  5
16A2
330
1024
100
AcDbEntity
  8
0
 62
     7
100
AcDbFaceRecord
 10
0.0
 20
0.0
 30
0.0
 70
   128
 71
    43
 72
    38
 73
   555
  0
VERTEX
  5
16A3
330
1024
100
AcDbEntity
  8
0
 62
     7
100
AcDbFaceRecord
 10
0.0
 20
0.0
 30
0.0
 70
   128
 71
   560
 72
   557
 73
   561
  0
VERTEX
  5
16A4
330
1024
100
AcDbEntity
  8
0
 62
     7
100
AcDbFaceRecord
 10
0.0
 20
0.0
 30
0.0
 70
   128
 71
   560
 72
    42
 73
   557
  0
VERTEX
  5
16A5
330
1024
100
AcDbEntity
  8
0
 62
     7
100
AcDbFaceRecord
 10
0.0
 20
0.0
 30
0.0
 70
   128
 71
   562
 72
    46
 73
   551
  0
VERTEX
  5
16A6
330
1024
100
AcDbEntity
  8
0
 62
     7
100
AcDbFaceRecord
 10
0.0
 20
0.0
 30
0.0
 70
   128
 71
    50
 72
    51
 73
   552
  0
VERTEX
  5
16A7
330
1024
100
AcDbEntity
  8
0
 62
     7
100
AcDbFaceRecord
 10
0.0
 20
0.0
 30
0.0
 70
   128
 71
    54
 72
    50
 73
   563
  0
VERTEX
  5
16A8
330
1024
100
AcDbEntity
  8
0
 62
     7
100
AcDbFaceRecord
 10
0.0
 20
0.0
 30
0.0
 70
   128
 71
   564
 72
   559
 73
   565
  0
VERTEX
  5
16A9
330
1024
100
AcDbEntity
  8
0
 62
     7
100
AcDbFaceRecord
 10
0.0
 20
0.0
 30
0.0
 70
   128
 71
   564
 72
    52
 73
   559
  0
VERTEX
  5
16AA
330
1024
100
AcDbEntity
  8
0
 62
     7
100
AcDbFaceRecord
 10
0.0
 20
0.0
 30
0.0
 70
   128
 71
   566
 72
    56
 73
   567
  0
VERTEX
  5
16AB
330
1024
100
AcDbEntity
  8
0
 62
     7
100
AcDbFaceRecord
 10
0.0
 20
0.0
 30
0.0
 70
   128
 71
    55
 72
    56
 73
   566
  0
VERTEX
  5
16AC
330
1024
100
AcDbEntity
  8
0
 62
     7
100
AcDbFaceRecord
 10
0.0
 20
0.0
 30
0.0
 70
   128
 71
   568
 72
   554
 73
   569
  0
VERTEX
  5
16AD
330
1024
100
AcDbEntity
  8
0
 62
     7
100
AcDbFaceRecord
 10
0.0
 20
0.0
 30
0.0
 70
   128
 71
   568
 72
    39
 73
   554
  0
VERTEX
  5
16AE
330
1024
100
AcDbEntity
  8
0
 62
     7
100
AcDbFaceRecord
 10
0.0
 20
0.0
 30
0.0
 70
   128
 71
   570
 72
   562
 73
   551
  0
VERTEX
  5
16AF
330
1024
100
AcDbEntity
  8
0
 62
     7
100
AcDbFaceRecord
 10
0.0
 20
0.0
 30
0.0
 70
   128
 71
    42
 72
   558
 73
    47
  0
VERTEX
  5
16B0
330
1024
100
AcDbEntity
  8
0
 62
     7
100
AcDbFaceRecord
 10
0.0
 20
0.0
 30
0.0
 70
   128
 71
   558
 72
    42
 73
   560
  0
VERTEX
  5
16B1
330
1024
100
AcDbEntity
  8
0
 62
     7
100
AcDbFaceRecord
 10
0.0
 20
0.0
 30
0.0
 70
   128
 71
   571
 72
    43
 73
   555
  0
VERTEX
  5
16B2
330
1024
100
AcDbEntity
  8
0
 62
     7
100
AcDbFaceRecord
 10
0.0
 20
0.0
 30
0.0
 70
   128
 71
   571
 72
   557
 73
    43
  0
VERTEX
  5
16B3
330
1024
100
AcDbEntity
  8
0
 62
     7
100
AcDbFaceRecord
 10
0.0
 20
0.0
 30
0.0
 70
   128
 71
   571
 72
   561
 73
   557
  0
VERTEX
  5
16B4
330
1024
100
AcDbEntity
  8
0
 62
     7
100
AcDbFaceRecord
 10
0.0
 20
0.0
 30
0.0
 70
   128
 71
   561
 72
   571
 73
   555
  0
VERTEX
  5
16B5
330
1024
100
AcDbEntity
  8
0
 62
     7
100
AcDbFaceRecord
 10
0.0
 20
0.0
 30
0.0
 70
   128
 71
    39
 72
   556
 73
    38
  0
VERTEX
  5
16B6
330
1024
100
AcDbEntity
  8
0
 62
     7
100
AcDbFaceRecord
 10
0.0
 20
0.0
 30
0.0
 70
   128
 71
   556
 72
    39
 73
   568
  0
VERTEX
  5
16B7
330
1024
100
AcDbEntity
  8
0
 62
     7
100
AcDbFaceRecord
 10
0.0
 20
0.0
 30
0.0
 70
   128
 71
   572
 72
    55
 73
   566
  0
VERTEX
  5
16B8
330
1024
100
AcDbEntity
  8
0
 62
     7
100
AcDbFaceRecord
 10
0.0
 20
0.0
 30
0.0
 70
   128
 71
   572
 72
   554
 73
    55
  0
VERTEX
  5
16B9
330
1024
100
AcDbEntity
  8
0
 62
     7
100
AcDbFaceRecord
 10
0.0
 20
0.0
 30
0.0
 70
   128
 71
   572
 72
   569
 73
   554
  0
VERTEX
  5
16BA
330
1024
100
AcDbEntity
  8
0
 62
     7
100
AcDbFaceRecord
 10
0.0
 20
0.0
 30
0.0
 70
   128
 71
   569
 72
   572
 73
   566
  0
VERTEX
  5
16BB
330
1024
100
AcDbEntity
  8
0
 62
     7
100
AcDbFaceRecord
 10
0.0
 20
0.0
 30
0.0
 70
   128
 71
    52
 72
   567
 73
    56
  0
VERTEX
  5
16BC
330
1024
100
AcDbEntity
  8
0
 62
     7
100
AcDbFaceRecord
 10
0.0
 20
0.0
 30
0.0
 70
   128
 71
   567
 72
    52
 73
   564
  0
VERTEX
  5
16BD
330
1024
100
AcDbEntity
  8
0
 62
     7
100
AcDbFaceRecord
 10
0.0
 20
0.0
 30
0.0
 70
   128
 71
   573
 72
    54
 73
   563
  0
VERTEX
  5
16BE
330
1024
100
AcDbEntity
  8
0
 62
     7
100
AcDbFaceRecord
 10
0.0
 20
0.0
 30
0.0
 70
   128
 71
   573
 72
   559
 73
    54
  0
VERTEX
  5
16BF
330
1024
100
AcDbEntity
  8
0
 62
     7
100
AcDbFaceRecord
 10
0.0
 20
0.0
 30
0.0
 70
   128
 71
   573
 72
   565
 73
   559
  0
VERTEX
  5
16C0
330
1024
100
AcDbEntity
  8
0
 62
     7
100
AcDbFaceRecord
 10
0.0
 20
0.0
 30
0.0
 70
   128
 71
   565
 72
   573
 73
   563
  0
VERTEX
  5
16C1
330
1024
100
AcDbEntity
  8
0
 62
     7
100
AcDbFaceRecord
 10
0.0
 20
0.0
 30
0.0
 70
   128
 71
   563
 72
    50
 73
   552
  0
VERTEX
  5
16C2
330
1024
100
AcDbEntity
  8
0
 62
     7
100
AcDbFaceRecord
 10
0.0
 20
0.0
 30
0.0
 70
   128
 71
   574
 72
   562
 73
   570
  0
VERTEX
  5
16C3
330
1024
100
AcDbEntity
  8
0
 62
     7
100
AcDbFaceRecord
 10
0.0
 20
0.0
 30
0.0
 70
   128
 71
   574
 72
    46
 73
   562
  0
VERTEX
  5
16C4
330
1024
100
AcDbEntity
  8
0
 62
     7
100
AcDbFaceRecord
 10
0.0
 20
0.0
 30
0.0
 70
   128
 71
   574
 72
    51
 73
    46
  0
VERTEX
  5
16C5
330
1024
100
AcDbEntity
  8
0
 62
     7
100
AcDbFaceRecord
 10
0.0
 20
0.0
 30
0.0
 70
   128
 71
   574
 72
   553
 73
    51
  0
VERTEX
  5
16C6
330
1024
100
AcDbEntity
  8
0
 62
     7
100
AcDbFaceRecord
 10
0.0
 20
0.0
 30
0.0
 70
   128
 71
   553
 72
   574
 73
   570
  0
VERTEX
  5
16C7
330
1024
100
AcDbEntity
  8
0
 62
     7
100
AcDbFaceRecord
 10
0.0
 20
0.0
 30
0.0
 70
   128
 71
   560
 72
   575
 73
   558
  0
VERTEX
  5
16C8
330
1024
100
AcDbEntity
  8
0
 62
     7
100
AcDbFaceRecord
 10
0.0
 20
0.0
 30
0.0
 70
   128
 71
   561
 72
   575
 73
   560
  0
VERTEX
  5
16C9
330
1024
100
AcDbEntity
  8
0
 62
     7
100
AcDbFaceRecord
 10
0.0
 20
0.0
 30
0.0
 70
   128
 71
   576
 72
   558
 73
   575
  0
VERTEX
  5
16CA
330
1024
100
AcDbEntity
  8
0
 62
     7
100
AcDbFaceRecord
 10
0.0
 20
0.0
 30
0.0
 70
   128
 71
   551
 72
   558
 73
   576
  0
VERTEX
  5
16CB
330
1024
100
AcDbEntity
  8
0
 62
     7
100
AcDbFaceRecord
 10
0.0
 20
0.0
 30
0.0
 70
   128
 71
   570
 72
   551
 73
   576
  0
VERTEX
  5
16CC
330
1024
100
AcDbEntity
  8
0
 62
     7
100
AcDbFaceRecord
 10
0.0
 20
0.0
 30
0.0
 70
   128
 71
   568
 72
   577
 73
   556
  0
VERTEX
  5
16CD
330
1024
100
AcDbEntity
  8
0
 62
     7
100
AcDbFaceRecord
 10
0.0
 20
0.0
 30
0.0
 70
   128
 71
   569
 72
   577
 73
   568
  0
VERTEX
  5
16CE
330
1024
100
AcDbEntity
  8
0
 62
     7
100
AcDbFaceRecord
 10
0.0
 20
0.0
 30
0.0
 70
   128
 71
   575
 72
   556
 73
   577
  0
VERTEX
  5
16CF
330
1024
100
AcDbEntity
  8
0
 62
     7
100
AcDbFaceRecord
 10
0.0
 20
0.0
 30
0.0
 70
   128
 71
   555
 72
   556
 73
   575
  0
VERTEX
  5
16D0
330
1024
100
AcDbEntity
  8
0
 62
     7
100
AcDbFaceRecord
 10
0.0
 20
0.0
 30
0.0
 70
   128
 71
   561
 72
   555
 73
   575
  0
VERTEX
  5
16D1
330
1024
100
AcDbEntity
  8
0
 62
     7
100
AcDbFaceRecord
 10
0.0
 20
0.0
 30
0.0
 70
   128
 71
   564
 72
   578
 73
   567
  0
VERTEX
  5
16D2
330
1024
100
AcDbEntity
  8
0
 62
     7
100
AcDbFaceRecord
 10
0.0
 20
0.0
 30
0.0
 70
   128
 71
   565
 72
   578
 73
   564
  0
VERTEX
  5
16D3
330
1024
100
AcDbEntity
  8
0
 62
     7
100
AcDbFaceRecord
 10
0.0
 20
0.0
 30
0.0
 70
   128
 71
   577
 72
   567
 73
   578
  0
VERTEX
  5
16D4
330
1024
100
AcDbEntity
  8
0
 62
     7
100
AcDbFaceRecord
 10
0.0
 20
0.0
 30
0.0
 70
   128
 71
   566
 72
   567
 73
   577
  0
VERTEX
  5
16D5
330
1024
100
AcDbEntity
  8
0
 62
     7
100
AcDbFaceRecord
 10
0.0
 20
0.0
 30
0.0
 70
   128
 71
   569
 72
   566
 73
   577
  0
VERTEX
  5
16D6
330
1024
100
AcDbEntity
  8
0
 62
     7
100
AcDbFaceRecord
 10
0.0
 20
0.0
 30
0.0
 70
   128
 71
   539
 72
   579
 73
   547
  0
VERTEX
  5
16D7
330
1024
100
AcDbEntity
  8
0
 62
     7
100
AcDbFaceRecord
 10
0.0
 20
0.0
 30
0.0
 70
   128
 71
   540
 72
   579
 73
   539
  0
VERTEX
  5
16D8
330
1024
100
AcDbEntity
  8
0
 62
     7
100
AcDbFaceRecord
 10
0.0
 20
0.0
 30
0.0
 70
   128
 71
   580
 72
   547
 73
   579
  0
VERTEX
  5
16D9
330
1024
100
AcDbEntity
  8
0
 62
     7
100
AcDbFaceRecord
 10
0.0
 20
0.0
 30
0.0
 70
   128
 71
   542
 72
   547
 73
   580
  0
VERTEX
  5
16DA
330
1024
100
AcDbEntity
  8
0
 62
     7
100
AcDbFaceRecord
 10
0.0
 20
0.0
 30
0.0
 70
   128
 71
   541
 72
   542
 73
   580
  0
VERTEX
  5
16DB
330
1024
100
AcDbEntity
  8
0
 62
     7
100
AcDbFaceRecord
 10
0.0
 20
0.0
 30
0.0
 70
   128
 71
   553
 72
   576
 73
   552
  0
VERTEX
  5
16DC
330
1024
100
AcDbEntity
  8
0
 62
     7
100
AcDbFaceRecord
 10
0.0
 20
0.0
 30
0.0
 70
   128
 71
   570
 72
   576
 73
   553
  0
VERTEX
  5
16DD
330
1024
100
AcDbEntity
  8
0
 62
     7
100
AcDbFaceRecord
 10
0.0
 20
0.0
 30
0.0
 70
   128
 71
   578
 72
   552
 73
   576
  0
VERTEX
  5
16DE
330
1024
100
AcDbEntity
  8
0
 62
     7
100
AcDbFaceRecord
 10
0.0
 20
0.0
 30
0.0
 70
   128
 71
   563
 72
   552
 73
   578
  0
VERTEX
  5
16DF
330
1024
100
AcDbEntity
  8
0
 62
     7
100
AcDbFaceRecord
 10
0.0
 20
0.0
 30
0.0
 70
   128
 71
   565
 72
   563
 73
   578
  0
VERTEX
  5
16E0
330
1024
100
AcDbEntity
  8
0
 62
     7
100
AcDbFaceRecord
 10
0.0
 20
0.0
 30
0.0
 70
   128
 71
   550
 72
   580
 73
   537
  0
VERTEX
  5
16E1
330
1024
100
AcDbEntity
  8
0
 62
     7
100
AcDbFaceRecord
 10
0.0
 20
0.0
 30
0.0
 70
   128
 71
   541
 72
   580
 73
   550
  0
VERTEX
  5
16E2
330
1024
100
AcDbEntity
  8
0
 62
     7
100
AcDbFaceRecord
 10
0.0
 20
0.0
 30
0.0
 70
   128
 71
   581
 72
   537
 73
   580
  0
VERTEX
  5
16E3
330
1024
100
AcDbEntity
  8
0
 62
     7
100
AcDbFaceRecord
 10
0.0
 20
0.0
 30
0.0
 70
   128
 71
   538
 72
   537
 73
   581
  0
VERTEX
  5
16E4
330
1024
100
AcDbEntity
  8
0
 62
     7
100
AcDbFaceRecord
 10
0.0
 20
0.0
 30
0.0
 70
   128
 71
   544
 72
   538
 73
   581
  0
VERTEX
  5
16E5
330
1024
100
AcDbEntity
  8
0
 62
     7
100
AcDbFaceRecord
 10
0.0
 20
0.0
 30
0.0
 70
   128
 71
   576
 72
   575
 73
   577
  0
VERTEX
  5
16E6
330
1024
100
AcDbEntity
  8
0
 62
     7
100
AcDbFaceRecord
 10
0.0
 20
0.0
 30
0.0
 70
   128
 71
   578
 72
   576
 73
   577
  0
VERTEX
  5
16E7
330
1024
100
AcDbEntity
  8
0
 62
     7
100
AcDbFaceRecord
 10
0.0
 20
0.0
 30
0.0
 70
   128
 71
   548
 72
   582
 73
   536
  0
VERTEX
  5
16E8
330
1024
100
AcDbEntity
  8
0
 62
     7
100
AcDbFaceRecord
 10
0.0
 20
0.0
 30
0.0
 70
   128
 71
   545
 72
   582
 73
   548
  0
VERTEX
  5
16E9
330
1024
100
AcDbEntity
  8
0
 62
     7
100
AcDbFaceRecord
 10
0.0
 20
0.0
 30
0.0
 70
   128
 71
   579
 72
   536
 73
   582
  0
VERTEX
  5
16EA
330
1024
100
AcDbEntity
  8
0
 62
     7
100
AcDbFaceRecord
 10
0.0
 20
0.0
 30
0.0
 70
   128
 71
   535
 72
   536
 73
   579
  0
VERTEX
  5
16EB
330
1024
100
AcDbEntity
  8
0
 62
     7
100
AcDbFaceRecord
 10
0.0
 20
0.0
 30
0.0
 70
   128
 71
   540
 72
   535
 73
   579
  0
VERTEX
  5
16EC
330
1024
100
AcDbEntity
  8
0
 62
     7
100
AcDbFaceRecord
 10
0.0
 20
0.0
 30
0.0
 70
   128
 71
   582
 72
   581
 73
   580
  0
VERTEX
  5
16ED
330
1024
100
AcDbEntity
  8
0
 62
     7
100
AcDbFaceRecord
 10
0.0
 20
0.0
 30
0.0
 70
   128
 71
   579
 72
   582
 73
   580
  0
VERTEX
  5
16EE
330
1024
100
AcDbEntity
  8
0
 62
     7
100
AcDbFaceRecord
 10
0.0
 20
0.0
 30
0.0
 70
   128
 71
   543
 72
   581
 73
   549
  0
VERTEX
  5
16EF
330
1024
100
AcDbEntity
  8
0
 62
     7
100
AcDbFaceRecord
 10
0.0
 20
0.0
 30
0.0
 70
   128
 71
   544
 72
   581
 73
   543
  0
VERTEX
  5
16F0
330
1024
100
AcDbEntity
  8
0
 62
     7
100
AcDbFaceRecord
 10
0.0
 20
0.0
 30
0.0
 70
   128
 71
   582
 72
   549
 73
   581
  0
VERTEX
  5
16F1
330
1024
100
AcDbEntity
  8
0
 62
     7
100
AcDbFaceRecord
 10
0.0
 20
0.0
 30
0.0
 70
   128
 71
   546
 72
   549
 73
   582
  0
VERTEX
  5
16F2
330
1024
100
AcDbEntity
  8
0
 62
     7
100
AcDbFaceRecord
 10
0.0
 20
0.0
 30
0.0
 70
   128
 71
   545
 72
   546
 73
   582
  0
SEQEND
  5
16F3
330
1024
100
AcDbEntity
  8
0
 62
     7
  0
INSERT
  5
16F4
330
1F
100
AcDbEntity
  8
0
100
AcDbBlockReference
 66
     1
  2
RM_SDB
 10
-30.88715557716379
 20
0.0
 30
-4.000000035356809
1001
AVE_MATERIAL
1002
{
1000
*GLOBAL*01
1000
2
1000

1002
{
1002
}
1002
{
1070
    39
1002
{
1002
{
1010
1.428571462631224
1020
1.428571462631224
1030
1.428571462631224
1002
}
1040
0.6999999880790711
1000

1040
0.0
1002
{
1002
}
1040
0.0
1002
{
1002
}
1040
0.0
1002
}
1002
{
1002
{
1010
1.0
1020
1.0
1030
1.0
1002
}
1040
1.0
1000

1040
0.0
1002
{
1002
}
1040
0.0
1002
{
1002
}
1040
0.0
1002
}
1002
{
1002
{
1010
5.0
1020
5.0
1030
5.0
1002
}
1040
0.2000000029802322
1000

1040
0.0
1002
{
1002
}
1040
0.0
1002
{
1002
}
1040
0.0
1002
}
1002
{
1070
     0
1002
{
1070
     1
1002
{
1040
1.0
1040
1.0
1000

1040
0.0
1002
{
1002
}
1040
0.0
1002
{
1002
}
1040
0.0
1002
}
1002
}
1040
0.0
1040
0.0
1040
0.0
1002
}
1002
{
1040
0.0
1040
0.0
1000

1040
0.0
1002
{
1002
}
1040
0.0
1002
{
1002
}
1040
0.0
1002
}
1002
{
1040
0.5
1040
1.0
1000

1040
0.0
1002
{
1002
}
1040
0.0
1002
{
1002
}
1040
0.0
1002
}
1002
{
1070
     0
1040
0.0
1002
{
1002
}
1040
0.0
1002
{
1002
}
1040
0.0
1002
}
1002
{
1040
0.0
1002
{
1002
{
1010
0.0
1020
0.0
1030
0.0
1002
}
1040
0.0
1000

1040
0.0
1002
{
1002
}
1040
0.0
1002
{
1002
}
1040
0.0
1002
}
1002
}
1002
{
1002
{
1070
     1
1002
{
1040
0.0
1040
1.0
1000

1040
0.0
1002
{
1002
}
1040
0.0
1002
{
1002
}
1040
0.0
1002
}
1002
}
1040
0.0
1002
{
1002
}
1010
0.0
1020
0.0
1030
0.0
1010
0.0
1020
0.0
1030
0.0
1010
0.0
1020
0.0
1030
0.0
1070
     0
1002
}
1002
{
1002
{
1040
0.0
1040
0.0
1002
{
1070
     0
1002
}
1002
}
1070
     0
1040
0.0
1002
{
1002
}
1002
}
1002
{
1002
}
1002
}
1002
{
1071
        3
1070
     3
1070
     0
1002
{
1070
     2
1070
     1
1070
     0
1040
0.0
1002
}
1070
     0
1070
     2
1002
{
1002
}
1002
}
1002
{
1040
8030.0
1040
190.3000030517578
1040
0.3050000071525574
1040
228.0
1040
545.0
1040
14.0
1040
17.39999961853027
1040
0.4560000002384186
1002
}
1000
912
1002
}
  0
ATTRIB
  5
16F5
330
16F4
100
AcDbEntity
  8
0
100
AcDbText
 10
-30.88715557716379
 20
0.0
 30
-4.000000035356809
 40
0.2
  1
*GLOBAL*01
100
AcDbAttribute
  2
NAME
 70
     1
  0
ATTRIB
  5
16F6
330
16F4
100
AcDbEntity
  8
0
100
AcDbText
 10
-30.88715557716379
 20
0.0
 30
-4.000000035356809
 40
0.2
  1

100
AcDbAttribute
  2
ACADCOLOR
 70
     1
  0
ATTRIB
  5
16F7
330
16F4
100
AcDbEntity
  8
0
100
AcDbText
 10
-30.88715557716379
 20
0.0
 30
-4.000000035356809
 40
0.2
  1
1.0000,1.0000,1.0000
100
AcDbAttribute
  2
COLOR
 70
     1
  0
ATTRIB
  5
16F8
330
16F4
100
AcDbEntity
  8
0
100
AcDbText
 10
-30.88715557716379
 20
0.0
 30
-4.000000035356809
 40
0.2
  1
1.0,1.0,1.0
100
AcDbAttribute
  2
OPACITY
 70
     1
  0
ATTRIB
  5
16F9
330
16F4
100
AcDbEntity
  8
0
100
AcDbText
 10
-30.88715557716379
 20
0.0
 30
-4.000000035356809
 40
0.2
  1
("nullsurf" "")
100
AcDbAttribute
  2
SURFACE
 70
     1
  0
ATTRIB
  5
16FA
330
16F4
100
AcDbEntity
  8
0
100
AcDbText
 10
-30.88715557716379
 20
0.0
 30
-4.000000035356809
 40
0.2
  1
(11 "Ka" "0.7")(11 "Kd" "1")(11 "Ks" "0.2")(11 "roughness" "0.5")
100
AcDbAttribute
  2
SURF1
 70
     1
  0
ATTRIB
  5
16FB
330
16F4
100
AcDbEntity
  8
0
100
AcDbText
 10
-30.88715557716379
 20
0.0
 30
-4.000000035356809
 40
0.2
  1

100
AcDbAttribute
  2
SURF2
 70
     1
  0
ATTRIB
  5
16FC
330
16F4
100
AcDbEntity
  8
0
100
AcDbText
 10
-30.88715557716379
 20
0.0
 30
-4.000000035356809
 40
0.2
  1

100
AcDbAttribute
  2
SURF3
 70
     1
  0
ATTRIB
  5
16FD
330
16F4
100
AcDbEntity
  8
0
100
AcDbText
 10
-30.88715557716379
 20
0.0
 30
-4.000000035356809
 40
0.2
  1

100
AcDbAttribute
  2
SURF4
 70
     1
  0
ATTRIB
  5
16FE
330
16F4
100
AcDbEntity
  8
0
100
AcDbText
 10
-30.88715557716379
 20
0.0
 30
-4.000000035356809
 40
0.2
  1
-1.0
100
AcDbAttribute
  2
SHADINGRATE
 70
     1
  0
ATTRIB
  5
16FF
330
16F4
100
AcDbEntity
  8
0
100
AcDbText
 10
-30.88715557716379
 20
0.0
 30
-4.000000035356809
 40
0.2
  1
("nulldisp" "")
100
AcDbAttribute
  2
DISPLACEMENT
 70
     1
  0
ATTRIB
  5
1700
330
16F4
100
AcDbEntity
  8
0
100
AcDbText
 10
-30.88715557716379
 20
0.0
 30
-4.000000035356809
 40
0.2
  1

100
AcDbAttribute
  2
DISP1
 70
     1
  0
ATTRIB
  5
1701
330
16F4
100
AcDbEntity
  8
0
100
AcDbText
 10
-30.88715557716379
 20
0.0
 30
-4.000000035356809
 40
0.2
  1

100
AcDbAttribute
  2
DISP2
 70
     1
  0
ATTRIB
  5
1702
330
16F4
100
AcDbEntity
  8
0
100
AcDbText
 10
-30.88715557716379
 20
0.0
 30
-4.000000035356809
 40
0.2
  1

100
AcDbAttribute
  2
DISP3
 70
     1
  0
ATTRIB
  5
1703
330
16F4
100
AcDbEntity
  8
0
100
AcDbText
 10
-30.88715557716379
 20
0.0
 30
-4.000000035356809
 40
0.2
  1

100
AcDbAttribute
  2
DISP4
 70
     1
  0
ATTRIB
  5
1704
330
16F4
100
AcDbEntity
  8
0
100
AcDbText
 10
-30.88715557716379
 20
0.0
 30
-4.000000035356809
 40
0.2
  1
0.0
100
AcDbAttribute
  2
DBOUND
 70
     1
  0
ATTRIB
  5
1705
330
16F4
100
AcDbEntity
  8
0
100
AcDbText
 10
-30.88715557716379
 20
0.0
 30
-4.000000035356809
 40
0.2
  1
0
100
AcDbAttribute
  2
SMOOTH
 70
     1
  0
ATTRIB
  5
1706
330
16F4
100
AcDbEntity
  8
0
100
AcDbText
 10
-30.88715557716379
 20
0.0
 30
-4.000000035356809
 40
0.2
  1
("" "")
100
AcDbAttribute
  2
ATMOSHPERE
 70
     1
  0
ATTRIB
  5
1707
330
16F4
100
AcDbEntity
  8
0
100
AcDbText
 10
-30.88715557716379
 20
0.0
 30
-4.000000035356809
 40
0.2
  1

100
AcDbAttribute
  2
ATMO1
 70
     1
  0
ATTRIB
  5
1708
330
16F4
100
AcDbEntity
  8
0
100
AcDbText
 10
-30.88715557716379
 20
0.0
 30
-4.000000035356809
 40
0.2
  1

100
AcDbAttribute
  2
ATMO2
 70
     1
  0
ATTRIB
  5
1709
330
16F4
100
AcDbEntity
  8
0
100
AcDbText
 10
-30.88715557716379
 20
0.0
 30
-4.000000035356809
 40
0.2
  1

100
AcDbAttribute
  2
ATMO3
 70
     1
  0
ATTRIB
  5
170A
330
16F4
100
AcDbEntity
  8
0
100
AcDbText
 10
-30.88715557716379
 20
0.0
 30
-4.000000035356809
 40
0.2
  1

100
AcDbAttribute
  2
ATMO4
 70
     1
  0
ATTRIB
  5
170B
330
16F4
100
AcDbEntity
  8
0
100
AcDbText
 10
-30.88715557716379
 20
0.0
 30
-4.000000035356809
 40
0.2
  1
0.0 0.0 1.0 0.0 0.0 1.0 1.0 1.0
100
AcDbAttribute
  2
TCCORD
 70
     1
  0
SEQEND
  5
170C
330
16F4
100
AcDbEntity
  8
0
  0
ENDSEC
  0
SECTION
  2
OBJECTS
  0
DICTIONARY
  5
C
330
0
100
AcDbDictionary
281
     1
  3
ACAD_COLOR
350
B5
  3
ACAD_GROUP
350
D
  3
ACAD_LAYOUT
350
1A
  3
ACAD_MATERIAL
350
B4
  3
ACAD_MLEADERSTYLE
350
1EA
  3
ACAD_MLINESTYLE
350
17
  3
ACAD_PLOTSETTINGS
350
19
  3
ACAD_PLOTSTYLENAME
350
E
  3
ACAD_SCALELIST
350
1C8
  3
ACAD_TABLESTYLE
350
17B
  3
ACAD_VISUALSTYLE
350
1B7
  3
ACDB_RECOMPOSE_DATA
350
926
  3
AcDbVariableDictionary
350
177
  3
ASE_INDEX_DICTIONARY
350
187
  3
AVE_ACITABLE
350
1FA
  3
DWGPROPS
350
170E
  0
DICTIONARY
  5
91A
330
10
100
AcDbDictionary
280
     1
281
     1
  3
ADSK_XREC_LAYER_RECONCILED
360
91B
  0
DICTIONARY
  5
91C
330
AB
100
AcDbDictionary
280
     1
281
     1
  3
ADSK_XREC_LAYER_RECONCILED
360
91D
  0
DICTIONARY
  5
91E
330
1F5
100
AcDbDictionary
280
     1
281
     1
  3
ADSK_XREC_LAYER_RECONCILED
360
91F
  0
DICTIONARY
  5
B5
102
{ACAD_REACTORS
330
C
102
}
330
C
100
AcDbDictionary
281
     1
  0
DICTIONARY
  5
D
102
{ACAD_REACTORS
330
C
102
}
330
C
100
AcDbDictionary
281
     1
  0
DICTIONARY
  5
1A
102
{ACAD_REACTORS
330
C
102
}
330
C
100
AcDbDictionary
281
     1
  3
Layout1
350
1E
  3
Layout2
350
26
  3
Model
350
22
  0
DICTIONARY
  5
B4
102
{ACAD_REACTORS
330
C
102
}
330
C
100
AcDbDictionary
281
     1
  3
_GLOBAL_01
350
912
  3
ByBlock
350
1A7
  3
ByLayer
350
19F
  3
Global
350
1AF
  0
DICTIONARY
  5
1EA
102
{ACAD_REACTORS
330
C
102
}
330
C
100
AcDbDictionary
281
     1
  3
Standard
350
1EB
  0
DICTIONARY
  5
17
102
{ACAD_REACTORS
330
C
102
}
330
C
100
AcDbDictionary
281
     1
  3
Standard
350
18
  0
DICTIONARY
  5
19
102
{ACAD_REACTORS
330
C
102
}
330
C
100
AcDbDictionary
281
     1
  0
ACDBDICTIONARYWDFLT
  5
E
102
{ACAD_REACTORS
330
C
102
}
330
C
100
AcDbDictionary
281
     1
  3
Normal
350
F
100
AcDbDictionaryWithDefault
340
F
  0
DICTIONARY
  5
1C8
102
{ACAD_REACTORS
330
C
102
}
330
C
100
AcDbDictionary
281
     1
  3
A0
350
1C9
  3
A1
350
1CA
  3
A2
350
1CB
  3
A3
350
1CC
  3
A4
350
1CD
  3
A5
350
1CE
  3
A6
350
1CF
  3
A7
350
1D0
  3
A8
350
1D1
  3
A9
350
1D2
  3
B0
350
1D3
  3
B1
350
1D4
  3
B2
350
1D5
  3
B3
350
1D6
  3
B4
350
1D7
  3
B5
350
1D8
  3
B6
350
1D9
  3
B7
350
1DA
  3
B8
350
1DB
  3
B9
350
1DC
  3
C0
350
1DD
  3
C1
350
1DE
  3
C2
350
1DF
  3
C3
350
1E0
  3
C4
350
1E1
  3
C5
350
1E2
  3
C6
350
1E3
  3
C7
350
1E4
  3
C8
350
1E5
  3
C9
350
1E6
  3
D0
350
1E7
  3
D1
350
1E8
  3
D2
350
1E9
  0
DICTIONARY
  5
17B
102
{ACAD_REACTORS
330
C
102
}
330
C
100
AcDbDictionary
281
     1
  3
Standard
350
17C
  0
DICTIONARY
  5
1B7
102
{ACAD_REACTORS
330
C
102
}
330
C
100
AcDbDictionary
281
     1
  3
2dWireframe
350
1BD
  3
3D Hidden
350
1BF
  3
3dWireframe
350
1BE
  3
Basic
350
1BC
  3
Brighten
350
1C3
  3
ColorChange
350
1C7
  3
Conceptual
350
1C0
  3
Dim
350
1C2
  3
Facepattern
350
1C6
  3
Flat
350
1B8
  3
FlatWithEdges
350
1B9
  3
Gouraud
350
1BA
  3
GouraudWithEdges
350
1BB
  3
Linepattern
350
1C5
  3
Realistic
350
1C1
  3
Thicken
350
1C4
  0
XRECORD
  5
926
102
{ACAD_REACTORS
330
C
102
}
330
C
100
AcDbXrecord
280
     1
 90
        1
330
17C
  0
DICTIONARY
  5
177
102
{ACAD_REACTORS
330
C
102
}
330
C
100
AcDbDictionary
281
     1
  3
CANNOSCALE
350
921
  3
CMLEADERSTYLE
350
920
  3
CTABLESTYLE
350
181
  3
DIMASSOC
350
178
  3
HIDETEXT
350
18D
  3
INDEXCTL
350
923
  3
SORTENTS
350
922
  0
DICTIONARY
  5
187
102
{ACAD_REACTORS
330
C
102
}
330
C
100
AcDbDictionary
281
     1
  3
ASEBlockHierarchyIndexRecord
350
189
1001
DCO15
1040
1570556634.419
  0
DICTIONARY
  5
1FA
102
{ACAD_REACTORS
330
C
102
}
330
C
100
AcDbDictionary
281
     1
  0
XRECORD
  5
170E
102
{ACAD_REACTORS
330
C
102
}
330
C
100
AcDbXrecord
280
     1
  1
DWGPROPS COOKIE
  2

  3

  4

  6

  7

  8
Christian
  9

300
=
301
=
302
=
303
=
304
=
305
=
306
=
307
=
308
=
309
=
 40
0.0284859027777778
 41
2453063.729277882
 42
2454459.412465649
  1

 90
        0
  0
XRECORD
  5
91B
102
{ACAD_REACTORS
330
91A
102
}
330
91A
100
AcDbXrecord
280
     1
290
     1
  0
XRECORD
  5
91D
102
{ACAD_REACTORS
330
91C
102
}
330
91C
100
AcDbXrecord
280
     1
290
     1
  0
XRECORD
  5
91F
102
{ACAD_REACTORS
330
91E
102
}
330
91E
100
AcDbXrecord
280
     1
290
     1
  0
LAYOUT
  5
1E
102
{ACAD_XDICTIONARY
360
170F
102
}
102
{ACAD_REACTORS
330
1A
102
}
330
1A
100
AcDbPlotSettings
  1

  2

  4

  6

 40
0.0
 41
0.0
 42
0.0
 43
0.0
 44
0.0
 45
0.0
 46
0.0
 47
0.0
 48
0.0
 49
0.0
140
0.0
141
0.0
142
1.0
143
1.0
 70
   688
 72
     0
 73
     0
 74
     5
  7

 75
    16
147
1.0
148
0.0
149
0.0
100
AcDbLayout
  1
Layout1
 70
     1
 71
     1
 10
0.0
 20
0.0
 11
12.0
 21
9.0
 12
0.0
 22
0.0
 32
0.0
 14
1.000000000000000E+20
 24
1.000000000000000E+20
 34
1.000000000000000E+20
 15
-1.000000000000000E+20
 25
-1.000000000000000E+20
 35
-1.000000000000000E+20
146
0.0
 13
0.0
 23
0.0
 33
0.0
 16
1.0
 26
0.0
 36
0.0
 17
0.0
 27
1.0
 37
0.0
 76
     0
330
1B
  0
LAYOUT
  5
26
102
{ACAD_XDICTIONARY
360
1713
102
}
102
{ACAD_REACTORS
330
1A
102
}
330
1A
100
AcDbPlotSettings
  1

  2

  4

  6

 40
0.0
 41
0.0
 42
0.0
 43
0.0
 44
0.0
 45
0.0
 46
0.0
 47
0.0
 48
0.0
 49
0.0
140
0.0
141
0.0
142
1.0
143
1.0
 70
   688
 72
     0
 73
     0
 74
     5
  7

 75
    16
147
1.0
148
0.0
149
0.0
100
AcDbLayout
  1
Layout2
 70
     1
 71
     2
 10
0.0
 20
0.0
 11
12.0
 21
9.0
 12
0.0
 22
0.0
 32
0.0
 14
0.0
 24
0.0
 34
0.0
 15
0.0
 25
0.0
 35
0.0
146
0.0
 13
0.0
 23
0.0
 33
0.0
 16
1.0
 26
0.0
 36
0.0
 17
0.0
 27
1.0
 37
0.0
 76
     0
330
23
  0
LAYOUT
  5
22
102
{ACAD_XDICTIONARY
360
1711
102
}
102
{ACAD_REACTORS
330
1A
102
}
330
1A
100
AcDbPlotSettings
  1

  2
EPSON Stylus C80 Series
  4
User768
  6

 40
3.757083177566528
 41
14.76379108428955
 42
3.757080078125
 43
3.757080078125
 44
215.8999938964844
 45
1117.599975585938
 46
50.8
 47
111.252
 48
0.0
 49
0.0
140
0.0
141
0.0
142
1.0
143
1.0
 70
 11956
 72
     0
 73
     1
 74
     1
  7

 75
    16
147
1.0
148
533.2560969508291
149
-110.8166974354597
100
AcDbLayout
  1
Model
 70
     1
 71
     0
 10
0.0
 20
0.0
 11
12.0
 21
9.0
 12
0.0
 22
0.0
 32
0.0
 14
0.0
 24
0.0
 34
0.0
 15
0.0
 25
0.0
 35
0.0
146
0.0
 13
0.0
 23
0.0
 33
0.0
 16
1.0
 26
0.0
 36
0.0
 17
0.0
 27
1.0
 37
0.0
 76
     0
330
1F
331
18A
  0
MATERIAL
  5
912
102
{ACAD_XDICTIONARY
360
913
102
}
102
{ACAD_REACTORS
330
B4
102
}
330
B4
100
AcDbMaterial
  1
_GLOBAL_01
 70
     1
 40
0.6999999880790711
 90
-1033081748
 71
     1
 91
-1023410177
 72
     0
 76
     1
 45
0.2000000029802322
 92
-1023673349
 77
     0
171
     0
175
     0
179
     0
  0
MATERIAL
  5
1A7
102
{ACAD_XDICTIONARY
360
1A8
102
}
102
{ACAD_REACTORS
330
B4
102
}
330
B4
100
AcDbMaterial
  1
ByBlock
 72
     0
 43
0.0208333333333333
 43
0.0
 43
0.0
 43
0.0
 43
0.0
 43
0.0208333333333333
 43
0.0
 43
0.0
 43
0.0
 43
0.0
 43
1.0
 43
0.0
 43
0.0
 43
0.0
 43
0.0
 43
1.0
 77
     0
 47
0.0208333333333333
 47
0.0
 47
0.0
 47
0.0
 47
0.0
 47
0.0208333333333333
 47
0.0
 47
0.0
 47
0.0
 47
0.0
 47
1.0
 47
0.0
 47
0.0
 47
0.0
 47
0.0
 47
1.0
171
     0
 49
0.0208333333333333
 49
0.0
 49
0.0
 49
0.0
 49
0.0
 49
0.0208333333333333
 49
0.0
 49
0.0
 49
0.0
 49
0.0
 49
1.0
 49
0.0
 49
0.0
 49
0.0
 49
0.0
 49
1.0
175
     0
142
0.0208333333333333
142
0.0
142
0.0
142
0.0
142
0.0
142
0.0208333333333333
142
0.0
142
0.0
142
0.0
142
0.0
142
1.0
142
0.0
142
0.0
142
0.0
142
0.0
142
1.0
179
     0
144
0.0208333333333333
144
0.0
144
0.0
144
0.0
144
0.0
144
0.0208333333333333
144
0.0
144
0.0
144
0.0
144
0.0
144
1.0
144
0.0
144
0.0
144
0.0
144
0.0
144
1.0
147
0.0208333333333333
147
0.0
147
0.0
147
0.0
147
0.0
147
0.0208333333333333
147
0.0
147
0.0
147
0.0
147
0.0
147
1.0
147
0.0
147
0.0
147
0.0
147
0.0
147
1.0
  0
MATERIAL
  5
19F
102
{ACAD_XDICTIONARY
360
1A0
102
}
102
{ACAD_REACTORS
330
B4
102
}
330
B4
100
AcDbMaterial
  1
ByLayer
 72
     0
 43
0.0208333333333333
 43
0.0
 43
0.0
 43
0.0
 43
0.0
 43
0.0208333333333333
 43
0.0
 43
0.0
 43
0.0
 43
0.0
 43
1.0
 43
0.0
 43
0.0
 43
0.0
 43
0.0
 43
1.0
 77
     0
 47
0.0208333333333333
 47
0.0
 47
0.0
 47
0.0
 47
0.0
 47
0.0208333333333333
 47
0.0
 47
0.0
 47
0.0
 47
0.0
 47
1.0
 47
0.0
 47
0.0
 47
0.0
 47
0.0
 47
1.0
171
     0
 49
0.0208333333333333
 49
0.0
 49
0.0
 49
0.0
 49
0.0
 49
0.0208333333333333
 49
0.0
 49
0.0
 49
0.0
 49
0.0
 49
1.0
 49
0.0
 49
0.0
 49
0.0
 49
0.0
 49
1.0
175
     0
142
0.0208333333333333
142
0.0
142
0.0
142
0.0
142
0.0
142
0.0208333333333333
142
0.0
142
0.0
142
0.0
142
0.0
142
1.0
142
0.0
142
0.0
142
0.0
142
0.0
142
1.0
179
     0
144
0.0208333333333333
144
0.0
144
0.0
144
0.0
144
0.0
144
0.0208333333333333
144
0.0
144
0.0
144
0.0
144
0.0
144
1.0
144
0.0
144
0.0
144
0.0
144
0.0
144
1.0
147
0.0208333333333333
147
0.0
147
0.0
147
0.0
147
0.0
147
0.0208333333333333
147
0.0
147
0.0
147
0.0
147
0.0
147
1.0
147
0.0
147
0.0
147
0.0
147
0.0
147
1.0
  0
MATERIAL
  5
1AF
102
{ACAD_XDICTIONARY
360
1B0
102
}
102
{ACAD_REACTORS
330
B4
102
}
330
B4
100
AcDbMaterial
  1
Global
 72
     0
 43
0.0208333333333333
 43
0.0
 43
0.0
 43
0.0
 43
0.0
 43
0.0208333333333333
 43
0.0
 43
0.0
 43
0.0
 43
0.0
 43
1.0
 43
0.0
 43
0.0
 43
0.0
 43
0.0
 43
1.0
 77
     0
 47
0.0208333333333333
 47
0.0
 47
0.0
 47
0.0
 47
0.0
 47
0.0208333333333333
 47
0.0
 47
0.0
 47
0.0
 47
0.0
 47
1.0
 47
0.0
 47
0.0
 47
0.0
 47
0.0
 47
1.0
171
     0
 49
0.0208333333333333
 49
0.0
 49
0.0
 49
0.0
 49
0.0
 49
0.0208333333333333
 49
0.0
 49
0.0
 49
0.0
 49
0.0
 49
1.0
 49
0.0
 49
0.0
 49
0.0
 49
0.0
 49
1.0
175
     0
142
0.0208333333333333
142
0.0
142
0.0
142
0.0
142
0.0
142
0.0208333333333333
142
0.0
142
0.0
142
0.0
142
0.0
142
1.0
142
0.0
142
0.0
142
0.0
142
0.0
142
1.0
179
     0
144
0.0208333333333333
144
0.0
144
0.0
144
0.0
144
0.0
144
0.0208333333333333
144
0.0
144
0.0
144
0.0
144
0.0
144
1.0
144
0.0
144
0.0
144
0.0
144
0.0
144
1.0
147
0.0208333333333333
147
0.0
147
0.0
147
0.0
147
0.0
147
0.0208333333333333
147
0.0
147
0.0
147
0.0
147
0.0
147
1.0
147
0.0
147
0.0
147
0.0
147
0.0
147
1.0
  0
MLEADERSTYLE
  5
1EB
102
{ACAD_REACTORS
330
1EA
102
}
330
1EA
100
AcDbMLeaderStyle
170
     2
171
     1
172
     0
 90
        2
 40
0.0
 41
0.0
173
     1
 91
-1056964608
340
14
 92
       -2
290
     1
 42
0.09
291
     1
 43
0.36
  3
Standard
 44
0.18
300

342
11
174
     1
178
     6
175
     1
176
     0
 93
-1056964608
 45
0.18
292
     0
297
     0
 46
0.18
 94
-1056964608
 47
1.0
 49
1.0
140
1.0
293
     1
141
0.0
294
     1
177
     0
142
1.0
295
     0
296
     0
143
0.125
1001
ACAD_MLEADERVER
1070
     2
  0
MLINESTYLE
  5
18
102
{ACAD_REACTORS
330
17
102
}
330
17
100
AcDbMlineStyle
  2
STANDARD
 70
     0
  3

 62
   256
 51
90.0
 52
90.0
 71
     2
 49
0.5
 62
   256
  6
BYLAYER
 49
-0.5
 62
   256
  6
BYLAYER
  0
ACDBPLACEHOLDER
  5
F
102
{ACAD_REACTORS
330
E
102
}
330
E
  0
SCALE
  5
1C9
102
{ACAD_REACTORS
330
1C8
102
}
330
1C8
100
AcDbScale
 70
     0
300
1:1
140
1.0
141
1.0
290
     1
  0
SCALE
  5
1CA
102
{ACAD_REACTORS
330
1C8
102
}
330
1C8
100
AcDbScale
 70
     0
300
1:2
140
1.0
141
2.0
290
     0
  0
SCALE
  5
1CB
102
{ACAD_REACTORS
330
1C8
102
}
330
1C8
100
AcDbScale
 70
     0
300
1:4
140
1.0
141
4.0
290
     0
  0
SCALE
  5
1CC
102
{ACAD_REACTORS
330
1C8
102
}
330
1C8
100
AcDbScale
 70
     0
300
1:5
140
1.0
141
5.0
290
     0
  0
SCALE
  5
1CD
102
{ACAD_REACTORS
330
1C8
102
}
330
1C8
100
AcDbScale
 70
     0
300
1:8
140
1.0
141
8.0
290
     0
  0
SCALE
  5
1CE
102
{ACAD_REACTORS
330
1C8
102
}
330
1C8
100
AcDbScale
 70
     0
300
1:10
140
1.0
141
10.0
290
     0
  0
SCALE
  5
1CF
102
{ACAD_REACTORS
330
1C8
102
}
330
1C8
100
AcDbScale
 70
     0
300
1:16
140
1.0
141
16.0
290
     0
  0
SCALE
  5
1D0
102
{ACAD_REACTORS
330
1C8
102
}
330
1C8
100
AcDbScale
 70
     0
300
1:20
140
1.0
141
20.0
290
     0
  0
SCALE
  5
1D1
102
{ACAD_REACTORS
330
1C8
102
}
330
1C8
100
AcDbScale
 70
     0
300
1:30
140
1.0
141
30.0
290
     0
  0
SCALE
  5
1D2
102
{ACAD_REACTORS
330
1C8
102
}
330
1C8
100
AcDbScale
 70
     0
300
1:40
140
1.0
141
40.0
290
     0
  0
SCALE
  5
1D3
102
{ACAD_REACTORS
330
1C8
102
}
330
1C8
100
AcDbScale
 70
     0
300
1:50
140
1.0
141
50.0
290
     0
  0
SCALE
  5
1D4
102
{ACAD_REACTORS
330
1C8
102
}
330
1C8
100
AcDbScale
 70
     0
300
1:100
140
1.0
141
100.0
290
     0
  0
SCALE
  5
1D5
102
{ACAD_REACTORS
330
1C8
102
}
330
1C8
100
AcDbScale
 70
     0
300
2:1
140
2.0
141
1.0
290
     0
  0
SCALE
  5
1D6
102
{ACAD_REACTORS
330
1C8
102
}
330
1C8
100
AcDbScale
 70
     0
300
4:1
140
4.0
141
1.0
290
     0
  0
SCALE
  5
1D7
102
{ACAD_REACTORS
330
1C8
102
}
330
1C8
100
AcDbScale
 70
     0
300
8:1
140
8.0
141
1.0
290
     0
  0
SCALE
  5
1D8
102
{ACAD_REACTORS
330
1C8
102
}
330
1C8
100
AcDbScale
 70
     0
300
10:1
140
10.0
141
1.0
290
     0
  0
SCALE
  5
1D9
102
{ACAD_REACTORS
330
1C8
102
}
330
1C8
100
AcDbScale
 70
     0
300
100:1
140
100.0
141
1.0
290
     0
  0
SCALE
  5
1DA
102
{ACAD_REACTORS
330
1C8
102
}
330
1C8
100
AcDbScale
 70
     0
300
1/128" = 1'-0"
140
0.0078125
141
12.0
290
     0
  0
SCALE
  5
1DB
102
{ACAD_REACTORS
330
1C8
102
}
330
1C8
100
AcDbScale
 70
     0
300
1/64" = 1'-0"
140
0.015625
141
12.0
290
     0
  0
SCALE
  5
1DC
102
{ACAD_REACTORS
330
1C8
102
}
330
1C8
100
AcDbScale
 70
     0
300
1/32" = 1'-0"
140
0.03125
141
12.0
290
     0
  0
SCALE
  5
1DD
102
{ACAD_REACTORS
330
1C8
102
}
330
1C8
100
AcDbScale
 70
     0
300
1/16" = 1'-0"
140
0.0625
141
12.0
290
     0
  0
SCALE
  5
1DE
102
{ACAD_REACTORS
330
1C8
102
}
330
1C8
100
AcDbScale
 70
     0
300
3/32" = 1'-0"
140
0.09375
141
12.0
290
     0
  0
SCALE
  5
1DF
102
{ACAD_REACTORS
330
1C8
102
}
330
1C8
100
AcDbScale
 70
     0
300
1/8" = 1'-0"
140
0.125
141
12.0
290
     0
  0
SCALE
  5
1E0
102
{ACAD_REACTORS
330
1C8
102
}
330
1C8
100
AcDbScale
 70
     0
300
3/16" = 1'-0"
140
0.1875
141
12.0
290
     0
  0
SCALE
  5
1E1
102
{ACAD_REACTORS
330
1C8
102
}
330
1C8
100
AcDbScale
 70
     0
300
1/4" = 1'-0"
140
0.25
141
12.0
290
     0
  0
SCALE
  5
1E2
102
{ACAD_REACTORS
330
1C8
102
}
330
1C8
100
AcDbScale
 70
     0
300
3/8" = 1'-0"
140
0.375
141
12.0
290
     0
  0
SCALE
  5
1E3
102
{ACAD_REACTORS
330
1C8
102
}
330
1C8
100
AcDbScale
 70
     0
300
1/2" = 1'-0"
140
0.5
141
12.0
290
     0
  0
SCALE
  5
1E4
102
{ACAD_REACTORS
330
1C8
102
}
330
1C8
100
AcDbScale
 70
     0
300
3/4" = 1'-0"
140
0.75
141
12.0
290
     0
  0
SCALE
  5
1E5
102
{ACAD_REACTORS
330
1C8
102
}
330
1C8
100
AcDbScale
 70
     0
300
1" = 1'-0"
140
1.0
141
12.0
290
     0
  0
SCALE
  5
1E6
102
{ACAD_REACTORS
330
1C8
102
}
330
1C8
100
AcDbScale
 70
     0
300
1-1/2" = 1'-0"
140
1.5
141
12.0
290
     0
  0
SCALE
  5
1E7
102
{ACAD_REACTORS
330
1C8
102
}
330
1C8
100
AcDbScale
 70
     0
300
3" = 1'-0"
140
3.0
141
12.0
290
     0
  0
SCALE
  5
1E8
102
{ACAD_REACTORS
330
1C8
102
}
330
1C8
100
AcDbScale
 70
     0
300
6" = 1'-0"
140
6.0
141
12.0
290
     0
  0
SCALE
  5
1E9
102
{ACAD_REACTORS
330
1C8
102
}
330
1C8
100
AcDbScale
 70
     0
300
1'-0" = 1'-0"
140
12.0
141
12.0
290
     0
  0
TABLESTYLE
  5
17C
102
{ACAD_XDICTIONARY
360
924
102
}
102
{ACAD_REACTORS
330
17B
102
}
330
17B
100
AcDbTableStyle
  3
Standard
 70
     0
 71
     0
 40
0.06
 41
0.06
280
     0
281
     0
  7
Standard
140
0.18
170
     2
 62
     0
 63
     7
283
     0
274
    -2
284
     1
 64
     0
275
    -2
285
     1
 65
     0
276
    -2
286
     1
 66
     0
277
    -2
287
     1
 67
     0
278
    -2
288
     1
 68
     0
279
    -2
289
     1
 69
     0
  7
Standard
140
0.25
170
     5
 62
     0
 63
     7
283
     0
274
    -2
284
     1
 64
     0
275
    -2
285
     1
 65
     0
276
    -2
286
     1
 66
     0
277
    -2
287
     1
 67
     0
278
    -2
288
     1
 68
     0
279
    -2
289
     1
 69
     0
  7
Standard
140
0.18
170
     5
 62
     0
 63
     7
283
     0
274
    -2
284
     1
 64
     0
275
    -2
285
     1
 65
     0
276
    -2
286
     1
 66
     0
277
    -2
287
     1
 67
     0
278
    -2
288
     1
 68
     0
279
    -2
289
     1
 69
     0
  0
VISUALSTYLE
  5
1BD
102
{ACAD_REACTORS
330
1B7
102
}
330
1B7
100
AcDbVisualStyle
  2
2dWireframe
 70
     4
 71
     0
 72
     2
 73
     0
 90
        0
 40
-0.6
 41
-30.0
 62
     5
 63
     7
 74
     1
 91
        4
 64
     7
 65
   257
 75
     1
175
     1
 42
1.0
 92
        0
 66
   257
 43
1.0
 76
     1
 77
     6
 78
     2
 67
     7
 79
     5
170
     0
171
     0
290
     0
174
     0
 93
        1
 44
0.0
173
     0
291
     0
 45
0.0
1001
ACAD
1000
AcDbSavedByObjectVersion
1070
     0
1000
AcDbSavedByObjectVersion
1070
     0
  0
VISUALSTYLE
  5
1BF
102
{ACAD_REACTORS
330
1B7
102
}
330
1B7
100
AcDbVisualStyle
  2
3D Hidden
 70
     6
 71
     1
 72
     2
 73
     2
 90
        0
 40
-0.6
 41
-30.0
 62
     5
 63
     7
 74
     2
 91
        2
 64
     7
 65
   257
 75
     2
175
     1
 42
40.0
 92
        0
 66
   257
 43
1.0
 76
     1
 77
     6
 78
     2
 67
     7
 79
     3
170
     0
171
     0
290
     0
174
     0
 93
        1
 44
0.0
173
     0
291
     0
 45
0.0
1001
ACAD
1000
AcDbSavedByObjectVersion
1070
     0
1000
AcDbSavedByObjectVersion
1070
     0
  0
VISUALSTYLE
  5
1BE
102
{ACAD_REACTORS
330
1B7
102
}
330
1B7
100
AcDbVisualStyle
  2
3dWireframe
 70
     5
 71
     0
 72
     2
 73
     0
 90
        0
 40
-0.6
 41
-30.0
 62
     5
 63
     7
 74
     1
 91
        4
 64
     7
 65
   257
 75
     1
175
     1
 42
1.0
 92
        0
 66
   257
 43
1.0
 76
     1
 77
     6
 78
     2
 67
     7
 79
     5
170
     0
171
     0
290
     0
174
     0
 93
        1
 44
0.0
173
     0
291
     0
 45
0.0
1001
ACAD
1000
AcDbSavedByObjectVersion
1070
     0
1000
AcDbSavedByObjectVersion
1070
     0
  0
VISUALSTYLE
  5
1BC
102
{ACAD_REACTORS
330
1B7
102
}
330
1B7
100
AcDbVisualStyle
  2
Basic
 70
     7
 71
     1
 72
     0
 73
     1
 90
        0
 40
-0.6
 41
-30.0
 62
     5
 63
     7
 74
     0
 91
        4
 64
     7
 65
   257
 75
     1
175
     1
 42
1.0
 92
        8
 66
     7
 43
1.0
 76
     1
 77
     6
 78
     2
 67
     7
 79
     5
170
     0
171
     0
290
     0
174
     0
 93
        1
 44
0.0
173
     0
291
     1
 45
0.0
1001
ACAD
1000
AcDbSavedByObjectVersion
1070
     0
1000
AcDbSavedByObjectVersion
1070
     0
  0
VISUALSTYLE
  5
1C3
102
{ACAD_REACTORS
330
1B7
102
}
330
1B7
100
AcDbVisualStyle
  2
Brighten
 70
    12
 71
     2
 72
     2
 73
     0
 90
        0
 40
-0.6
 41
-30.0
 62
     5
 63
     7
 74
     1
 91
        4
 64
     7
 65
   257
 75
     1
175
     1
 42
1.0
 92
        8
 66
     7
 43
1.0
 76
     1
 77
     6
 78
     2
 67
     7
 79
     5
170
     0
171
     0
290
     0
174
     0
 93
        1
 44
50.0
173
     0
291
     1
 45
0.0
1001
ACAD
1000
AcDbSavedByObjectVersion
1070
     0
1000
AcDbSavedByObjectVersion
1070
     0
  0
VISUALSTYLE
  5
1C7
102
{ACAD_REACTORS
330
1B7
102
}
330
1B7
100
AcDbVisualStyle
  2
ColorChange
 70
    16
 71
     2
 72
     2
 73
     3
 90
        0
 40
-0.6
 41
-30.0
 62
     5
 63
     8
 74
     1
 91
        4
 64
     7
 65
   257
 75
     1
175
     1
 42
1.0
 92
        8
 66
     8
 43
1.0
 76
     1
 77
     6
 78
     2
 67
     7
 79
     5
170
     0
171
     0
290
     0
174
     0
 93
        1
 44
0.0
173
     0
291
     1
 45
0.0
1001
ACAD
1000
AcDbSavedByObjectVersion
1070
     0
1000
AcDbSavedByObjectVersion
1070
     0
  0
VISUALSTYLE
  5
1C0
102
{ACAD_REACTORS
330
1B7
102
}
330
1B7
100
AcDbVisualStyle
  2
Conceptual
 70
     9
 71
     3
 72
     2
 73
     0
 90
        0
 40
-0.6
 41
-30.0
 62
     5
 63
     7
 74
     2
 91
        2
 64
     7
 65
   257
 75
     1
175
     1
 42
40.0
 92
        8
 66
     7
 43
1.0
 76
     1
 77
     6
 78
     2
 67
     7
 79
     3
170
     0
171
     0
290
     0
174
     0
 93
        1
 44
0.0
173
     0
291
     0
 45
0.0
1001
ACAD
1000
AcDbSavedByObjectVersion
1070
     0
1000
AcDbSavedByObjectVersion
1070
     0
  0
VISUALSTYLE
  5
1C2
102
{ACAD_REACTORS
330
1B7
102
}
330
1B7
100
AcDbVisualStyle
  2
Dim
 70
    11
 71
     2
 72
     2
 73
     0
 90
        0
 40
-0.6
 41
-30.0
 62
     5
 63
     7
 74
     1
 91
        4
 64
     7
 65
   257
 75
     1
175
     1
 42
1.0
 92
        8
 66
     7
 43
1.0
 76
     1
 77
     6
 78
     2
 67
     7
 79
     5
170
     0
171
     0
290
     0
174
     0
 93
        1
 44
-50.0
173
     0
291
     1
 45
0.0
1001
ACAD
1000
AcDbSavedByObjectVersion
1070
     0
1000
AcDbSavedByObjectVersion
1070
     0
  0
VISUALSTYLE
  5
1C6
102
{ACAD_REACTORS
330
1B7
102
}
330
1B7
100
AcDbVisualStyle
  2
Facepattern
 70
    15
 71
     2
 72
     2
 73
     0
 90
        0
 40
-0.6
 41
-30.0
 62
     5
 63
     7
 74
     1
 91
        4
 64
     7
 65
   257
 75
     1
175
     1
 42
1.0
 92
        8
 66
     7
 43
1.0
 76
     1
 77
     6
 78
     2
 67
     7
 79
     5
170
     0
171
     0
290
     0
174
     0
 93
        1
 44
0.0
173
     0
291
     1
 45
0.0
1001
ACAD
1000
AcDbSavedByObjectVersion
1070
     0
1000
AcDbSavedByObjectVersion
1070
     0
  0
VISUALSTYLE
  5
1B8
102
{ACAD_REACTORS
330
1B7
102
}
330
1B7
100
AcDbVisualStyle
  2
Flat
 70
     0
 71
     2
 72
     1
 73
     1
 90
        2
 40
-0.6
 41
30.0
 62
     5
 63
     7
 74
     0
 91
        4
 64
     7
 65
   257
 75
     1
175
     1
 42
1.0
 92
        8
 66
     7
 43
1.0
 76
     1
 77
     6
 78
     2
 67
     7
 79
     5
170
     0
171
     0
290
     0
174
     0
 93
       13
 44
0.0
173
     0
291
     1
 45
0.0
1001
ACAD
1000
AcDbSavedByObjectVersion
1070
     0
1000
AcDbSavedByObjectVersion
1070
     0
  0
VISUALSTYLE
  5
1B9
102
{ACAD_REACTORS
330
1B7
102
}
330
1B7
100
AcDbVisualStyle
  2
FlatWithEdges
 70
     1
 71
     2
 72
     1
 73
     1
 90
        2
 40
-0.6
 41
30.0
 62
     5
 63
     7
 74
     1
 91
        4
 64
     7
 65
   257
 75
     1
175
     1
 42
1.0
 92
        0
 66
   257
 43
1.0
 76
     1
 77
     6
 78
     2
 67
     7
 79
     5
170
     0
171
     0
290
     0
174
     0
 93
       13
 44
0.0
173
     0
291
     1
 45
0.0
1001
ACAD
1000
AcDbSavedByObjectVersion
1070
     0
1000
AcDbSavedByObjectVersion
1070
     0
  0
VISUALSTYLE
  5
1BA
102
{ACAD_REACTORS
330
1B7
102
}
330
1B7
100
AcDbVisualStyle
  2
Gouraud
 70
     2
 71
     2
 72
     2
 73
     1
 90
        2
 40
-0.6
 41
30.0
 62
     5
 63
     7
 74
     0
 91
        4
 64
     7
 65
   257
 75
     1
175
     1
 42
1.0
 92
        0
 66
     7
 43
1.0
 76
     1
 77
     6
 78
     2
 67
     7
 79
     5
170
     0
171
     0
290
     0
174
     0
 93
       13
 44
0.0
173
     0
291
     1
 45
0.0
1001
ACAD
1000
AcDbSavedByObjectVersion
1070
     0
1000
AcDbSavedByObjectVersion
1070
     0
  0
VISUALSTYLE
  5
1BB
102
{ACAD_REACTORS
330
1B7
102
}
330
1B7
100
AcDbVisualStyle
  2
GouraudWithEdges
 70
     3
 71
     2
 72
     2
 73
     1
 90
        2
 40
-0.6
 41
30.0
 62
     5
 63
     7
 74
     1
 91
        4
 64
     7
 65
   257
 75
     1
175
     1
 42
1.0
 92
        0
 66
   257
 43
1.0
 76
     1
 77
     6
 78
     2
 67
     7
 79
     5
170
     0
171
     0
290
     0
174
     0
 93
       13
 44
0.0
173
     0
291
     1
 45
0.0
1001
ACAD
1000
AcDbSavedByObjectVersion
1070
     0
1000
AcDbSavedByObjectVersion
1070
     0
  0
VISUALSTYLE
  5
1C5
102
{ACAD_REACTORS
330
1B7
102
}
330
1B7
100
AcDbVisualStyle
  2
Linepattern
 70
    14
 71
     2
 72
     2
 73
     0
 90
        0
 40
-0.6
 41
-30.0
 62
     5
 63
     7
 74
     1
 91
        4
 64
     7
 65
   257
 75
     7
175
     7
 42
1.0
 92
        8
 66
     7
 43
1.0
 76
     1
 77
     6
 78
     2
 67
     7
 79
     5
170
     0
171
     0
290
     0
174
     0
 93
        1
 44
0.0
173
     0
291
     1
 45
0.0
1001
ACAD
1000
AcDbSavedByObjectVersion
1070
     0
1000
AcDbSavedByObjectVersion
1070
     0
  0
VISUALSTYLE
  5
1C1
102
{ACAD_REACTORS
330
1B7
102
}
330
1B7
100
AcDbVisualStyle
  2
Realistic
 70
     8
 71
     2
 72
     2
 73
     0
 90
        0
 40
-0.6
 41
-30.0
 62
     5
 63
     7
 74
     1
 91
        0
 64
     7
 65
   257
 75
     1
175
     1
 42
1.0
 92
        8
 66
     8
 43
1.0
 76
     1
 77
     6
 78
     2
 67
     7
 79
     5
170
     0
171
     0
290
     0
174
     0
 93
       13
 44
0.0
173
     0
291
     0
 45
0.0
1001
ACAD
1000
AcDbSavedByObjectVersion
1070
     0
1000
AcDbSavedByObjectVersion
1070
     0
  0
VISUALSTYLE
  5
1C4
102
{ACAD_REACTORS
330
1B7
102
}
330
1B7
100
AcDbVisualStyle
  2
Thicken
 70
    13
 71
     2
 72
     2
 73
     0
 90
        0
 40
-0.6
 41
-30.0
 62
     5
 63
     7
 74
     1
 91
        4
 64
     7
 65
   257
 75
     1
175
     1
 42
1.0
 92
       12
 66
     7
 43
1.0
 76
     1
 77
     6
 78
     2
 67
     7
 79
     5
170
     0
171
     0
290
     0
174
     0
 93
        1
 44
0.0
173
     0
291
     1
 45
0.0
1001
ACAD
1000
AcDbSavedByObjectVersion
1070
     0
1000
AcDbSavedByObjectVersion
1070
     0
  0
DICTIONARYVAR
  5
921
102
{ACAD_REACTORS
330
177
102
}
330
177
100
DictionaryVariables
280
     0
  1
1:1
  0
DICTIONARYVAR
  5
920
102
{ACAD_REACTORS
330
177
102
}
330
177
100
DictionaryVariables
280
     0
  1
STANDARD
  0
DICTIONARYVAR
  5
181
102
{ACAD_REACTORS
330
177
102
}
330
177
100
DictionaryVariables
280
     0
  1
STANDARD
  0
DICTIONARYVAR
  5
178
102
{ACAD_REACTORS
330
177
102
}
330
177
100
DictionaryVariables
280
     0
  1
1
  0
DICTIONARYVAR
  5
18D
102
{ACAD_REACTORS
330
177
102
}
330
177
100
DictionaryVariables
280
     0
  1
0
  0
DICTIONARYVAR
  5
923
102
{ACAD_REACTORS
330
177
102
}
330
177
100
DictionaryVariables
280
     0
  1
0
  0
DICTIONARYVAR
  5
922
102
{ACAD_REACTORS
330
177
102
}
330
177
100
DictionaryVariables
280
     0
  1
127
  0
XRECORD
  5
189
102
{ACAD_REACTORS
330
187
102
}
330
187
100
AcDbXrecord
280
     1
  0
DICTIONARY
  5
170F
330
1E
100
AcDbDictionary
280
     1
281
     1
  3
ACAD_XREC_ROUNDTRIP
360
1710
  0
DICTIONARY
  5
1713
330
26
100
AcDbDictionary
280
     1
281
     1
  3
ACAD_XREC_ROUNDTRIP
360
1714
  0
DICTIONARY
  5
1711
330
22
100
AcDbDictionary
280
     1
281
     1
  3
ACAD_XREC_ROUNDTRIP
360
1712
  0
DICTIONARY
  5
913
330
912
100
AcDbDictionary
280
     1
281
     1
  3
ACAD_XREC_ROUNDTRIP
360
932
  3
BUMPTILE
360
918
  3
DIFFUSETILE
360
914
  3
OPACITYTILE
360
917
  3
REFLECTIONTILE
360
916
  3
REFRACTIONTILE
360
919
  3
SPECULARTILE
360
915
  0
DICTIONARY
  5
1A8
330
1A7
100
AcDbDictionary
280
     1
281
     1
  3
ACAD_XREC_ROUNDTRIP
360
930
  3
BUMPTILE
360
1AA
  3
DIFFUSETILE
360
1A9
  3
OPACITYTILE
360
1AD
  3
REFLECTIONTILE
360
1AC
  3
REFRACTIONTILE
360
1AE
  3
SPECULARTILE
360
1AB
  0
DICTIONARY
  5
1A0
330
19F
100
AcDbDictionary
280
     1
281
     1
  3
ACAD_XREC_ROUNDTRIP
360
92F
  3
BUMPTILE
360
1A2
  3
DIFFUSETILE
360
1A1
  3
OPACITYTILE
360
1A5
  3
REFLECTIONTILE
360
1A4
  3
REFRACTIONTILE
360
1A6
  3
SPECULARTILE
360
1A3
  0
DICTIONARY
  5
1B0
330
1AF
100
AcDbDictionary
280
     1
281
     1
  3
ACAD_XREC_ROUNDTRIP
360
931
  3
BUMPTILE
360
1B2
  3
DIFFUSETILE
360
1B1
  3
OPACITYTILE
360
1B5
  3
REFLECTIONTILE
360
1B4
  3
REFRACTIONTILE
360
1B6
  3
SPECULARTILE
360
1B3
  0
DICTIONARY
  5
924
330
17C
100
AcDbDictionary
280
     1
281
     1
  3
ACAD_ROUNDTRIP_2008_TABLESTYLE_CELLSTYLEMAP
360
170D
  3
ACAD_XREC_ROUNDTRIP
360
1715
  0
XRECORD
  5
1710
102
{ACAD_REACTORS
330
170F
102
}
330
170F
100
AcDbXrecord
280
     1
102
SHADEPLOT
 70
     0
102
SHADEPLOTRESLEVEL
 70
     2
102
SHADEPLOTCUSTOMDPI
 70
   300
  0
XRECORD
  5
1714
102
{ACAD_REACTORS
330
1713
102
}
330
1713
100
AcDbXrecord
280
     1
102
SHADEPLOT
 70
     0
102
SHADEPLOTRESLEVEL
 70
     2
102
SHADEPLOTCUSTOMDPI
 70
   300
  0
XRECORD
  5
1712
102
{ACAD_REACTORS
330
1711
102
}
330
1711
100
AcDbXrecord
280
     1
102
SHADEPLOT
 70
     0
102
SHADEPLOTRESLEVEL
 70
     2
102
SHADEPLOTCUSTOMDPI
 70
   180
  0
XRECORD
  5
932
102
{ACAD_REACTORS
330
913
102
}
330
913
100
AcDbXrecord
280
     1
102
MATERIAL
148
0.0
149
0.0
149
0.0
 93
        0
 94
      127
282
     0
 72
     0
 77
     0
171
     0
175
     0
179
     0
273
     0
  0
XRECORD
  5
918
102
{ACAD_REACTORS
330
913
102
}
330
913
100
AcDbXrecord
280
     1
270
     1
271
     1
  0
XRECORD
  5
914
102
{ACAD_REACTORS
330
913
102
}
330
913
100
AcDbXrecord
280
     1
270
     1
271
     1
  0
XRECORD
  5
917
102
{ACAD_REACTORS
330
913
102
}
330
913
100
AcDbXrecord
280
     1
270
     1
271
     1
  0
XRECORD
  5
916
102
{ACAD_REACTORS
330
913
102
}
330
913
100
AcDbXrecord
280
     1
270
     1
271
     1
  0
XRECORD
  5
919
102
{ACAD_REACTORS
330
913
102
}
330
913
100
AcDbXrecord
280
     1
270
     1
271
     1
  0
XRECORD
  5
915
102
{ACAD_REACTORS
330
913
102
}
330
913
100
AcDbXrecord
280
     1
270
     1
271
     1
  0
XRECORD
  5
930
102
{ACAD_REACTORS
330
1A8
102
}
330
1A8
100
AcDbXrecord
280
     1
102
MATERIAL
148
0.0
149
0.0
149
0.0
 93
        0
 94
      127
282
     0
 72
     0
 77
     0
171
     0
175
     0
179
     0
273
     0
  0
XRECORD
  5
1AA
102
{ACAD_REACTORS
330
1A8
102
}
330
1A8
100
AcDbXrecord
280
     1
270
     1
271
     1
  0
XRECORD
  5
1A9
102
{ACAD_REACTORS
330
1A8
102
}
330
1A8
100
AcDbXrecord
280
     1
270
     1
271
     1
  0
XRECORD
  5
1AD
102
{ACAD_REACTORS
330
1A8
102
}
330
1A8
100
AcDbXrecord
280
     1
270
     1
271
     1
  0
XRECORD
  5
1AC
102
{ACAD_REACTORS
330
1A8
102
}
330
1A8
100
AcDbXrecord
280
     1
270
     1
271
     1
  0
XRECORD
  5
1AE
102
{ACAD_REACTORS
330
1A8
102
}
330
1A8
100
AcDbXrecord
280
     1
270
     1
271
     1
  0
XRECORD
  5
1AB
102
{ACAD_REACTORS
330
1A8
102
}
330
1A8
100
AcDbXrecord
280
     1
270
     1
271
     1
  0
XRECORD
  5
92F
102
{ACAD_REACTORS
330
1A0
102
}
330
1A0
100
AcDbXrecord
280
     1
102
MATERIAL
148
0.0
149
0.0
149
0.0
 93
        0
 94
      127
282
     0
 72
     0
 77
     0
171
     0
175
     0
179
     0
273
     0
  0
XRECORD
  5
1A2
102
{ACAD_REACTORS
330
1A0
102
}
330
1A0
100
AcDbXrecord
280
     1
270
     1
271
     1
  0
XRECORD
  5
1A1
102
{ACAD_REACTORS
330
1A0
102
}
330
1A0
100
AcDbXrecord
280
     1
270
     1
271
     1
  0
XRECORD
  5
1A5
102
{ACAD_REACTORS
330
1A0
102
}
330
1A0
100
AcDbXrecord
280
     1
270
     1
271
     1
  0
XRECORD
  5
1A4
102
{ACAD_REACTORS
330
1A0
102
}
330
1A0
100
AcDbXrecord
280
     1
270
     1
271
     1
  0
XRECORD
  5
1A6
102
{ACAD_REACTORS
330
1A0
102
}
330
1A0
100
AcDbXrecord
280
     1
270
     1
271
     1
  0
XRECORD
  5
1A3
102
{ACAD_REACTORS
330
1A0
102
}
330
1A0
100
AcDbXrecord
280
     1
270
     1
271
     1
  0
XRECORD
  5
931
102
{ACAD_REACTORS
330
1B0
102
}
330
1B0
100
AcDbXrecord
280
     1
102
MATERIAL
148
0.0
149
0.0
149
0.0
 93
        0
 94
      127
282
     0
 72
     0
 77
     0
171
     0
175
     0
179
     0
273
     0
  0
XRECORD
  5
1B2
102
{ACAD_REACTORS
330
1B0
102
}
330
1B0
100
AcDbXrecord
280
     1
270
     1
271
     1
  0
XRECORD
  5
1B1
102
{ACAD_REACTORS
330
1B0
102
}
330
1B0
100
AcDbXrecord
280
     1
270
     1
271
     1
  0
XRECORD
  5
1B5
102
{ACAD_REACTORS
330
1B0
102
}
330
1B0
100
AcDbXrecord
280
     1
270
     1
271
     1
  0
XRECORD
  5
1B4
102
{ACAD_REACTORS
330
1B0
102
}
330
1B0
100
AcDbXrecord
280
     1
270
     1
271
     1
  0
XRECORD
  5
1B6
102
{ACAD_REACTORS
330
1B0
102
}
330
1B0
100
AcDbXrecord
280
     1
270
     1
271
     1
  0
XRECORD
  5
1B3
102
{ACAD_REACTORS
330
1B0
102
}
330
1B0
100
AcDbXrecord
280
     1
270
     1
271
     1
  0
CELLSTYLEMAP
  5
170D
102
{ACAD_REACTORS
330
924
102
}
330
924
100
AcDbCellStyleMap
 90
        3
300
CELLSTYLE
  1
TABLEFORMAT_BEGIN
 90
        5
170
     1
 91
        0
 92
    32768
 62
   257
 93
        1
300
CONTENTFORMAT
  1
CONTENTFORMAT_BEGIN
 90
        0
 91
        0
 92
        4
 93
        0
300

 40
0.0
140
1.0
 94
        5
 62
     0
340
11
144
0.25
309
CONTENTFORMAT_END
171
     1
301
MARGIN
  1
CELLMARGIN_BEGIN
 40
0.06
 40
0.06
 40
0.06
 40
0.06
 40
0.18
 40
0.18
309
CELLMARGIN_END
 94
        6
 95
        1
302
GRIDFORMAT
  1
GRIDFORMAT_BEGIN
 90
        0
 91
        1
 62
     0
 92
       -2
340
0
 93
        0
 40
0.045
309
GRIDFORMAT_END
 95
        2
302
GRIDFORMAT
  1
GRIDFORMAT_BEGIN
 90
        0
 91
        1
 62
     0
 92
       -2
340
0
 93
        0
 40
0.045
309
GRIDFORMAT_END
 95
        4
302
GRIDFORMAT
  1
GRIDFORMAT_BEGIN
 90
        0
 91
        1
 62
     0
 92
       -2
340
0
 93
        0
 40
0.045
309
GRIDFORMAT_END
 95
        8
302
GRIDFORMAT
  1
GRIDFORMAT_BEGIN
 90
        0
 91
        1
 62
     0
 92
       -2
340
0
 93
        0
 40
0.045
309
GRIDFORMAT_END
 95
       16
302
GRIDFORMAT
  1
GRIDFORMAT_BEGIN
 90
        0
 91
        1
 62
     0
 92
       -2
340
0
 93
        0
 40
0.045
309
GRIDFORMAT_END
 95
       32
302
GRIDFORMAT
  1
GRIDFORMAT_BEGIN
 90
        0
 91
        1
 62
     0
 92
       -2
340
0
 93
        0
 40
0.045
309
GRIDFORMAT_END
309
TABLEFORMAT_END
  1
CELLSTYLE_BEGIN
 90
        1
 91
        1
300
_TITLE
309
CELLSTYLE_END
300
CELLSTYLE
  1
TABLEFORMAT_BEGIN
 90
        5
170
     1
 91
        0
 92
        0
 62
   257
 93
        1
300
CONTENTFORMAT
  1
CONTENTFORMAT_BEGIN
 90
        0
 91
        0
 92
        4
 93
        0
300

 40
0.0
140
1.0
 94
        5
 62
     0
340
11
144
0.18
309
CONTENTFORMAT_END
171
     1
301
MARGIN
  1
CELLMARGIN_BEGIN
 40
0.06
 40
0.06
 40
0.06
 40
0.06
 40
0.18
 40
0.18
309
CELLMARGIN_END
 94
        6
 95
        1
302
GRIDFORMAT
  1
GRIDFORMAT_BEGIN
 90
        0
 91
        1
 62
     0
 92
       -2
340
0
 93
        0
 40
0.045
309
GRIDFORMAT_END
 95
        2
302
GRIDFORMAT
  1
GRIDFORMAT_BEGIN
 90
        0
 91
        1
 62
     0
 92
       -2
340
0
 93
        0
 40
0.045
309
GRIDFORMAT_END
 95
        4
302
GRIDFORMAT
  1
GRIDFORMAT_BEGIN
 90
        0
 91
        1
 62
     0
 92
       -2
340
0
 93
        0
 40
0.045
309
GRIDFORMAT_END
 95
        8
302
GRIDFORMAT
  1
GRIDFORMAT_BEGIN
 90
        0
 91
        1
 62
     0
 92
       -2
340
0
 93
        0
 40
0.045
309
GRIDFORMAT_END
 95
       16
302
GRIDFORMAT
  1
GRIDFORMAT_BEGIN
 90
        0
 91
        1
 62
     0
 92
       -2
340
0
 93
        0
 40
0.045
309
GRIDFORMAT_END
 95
       32
302
GRIDFORMAT
  1
GRIDFORMAT_BEGIN
 90
        0
 91
        1
 62
     0
 92
       -2
340
0
 93
        0
 40
0.045
309
GRIDFORMAT_END
309
TABLEFORMAT_END
  1
CELLSTYLE_BEGIN
 90
        2
 91
        1
300
_HEADER
309
CELLSTYLE_END
300
CELLSTYLE
  1
TABLEFORMAT_BEGIN
 90
        5
170
     1
 91
        0
 92
        0
 62
   257
 93
        1
300
CONTENTFORMAT
  1
CONTENTFORMAT_BEGIN
 90
        0
 91
        0
 92
        4
 93
        0
300

 40
0.0
140
1.0
 94
        2
 62
     0
340
11
144
0.18
309
CONTENTFORMAT_END
171
     1
301
MARGIN
  1
CELLMARGIN_BEGIN
 40
0.06
 40
0.06
 40
0.06
 40
0.06
 40
0.18
 40
0.18
309
CELLMARGIN_END
 94
        6
 95
        1
302
GRIDFORMAT
  1
GRIDFORMAT_BEGIN
 90
        0
 91
        1
 62
     0
 92
       -2
340
0
 93
        0
 40
0.045
309
GRIDFORMAT_END
 95
        2
302
GRIDFORMAT
  1
GRIDFORMAT_BEGIN
 90
        0
 91
        1
 62
     0
 92
       -2
340
0
 93
        0
 40
0.045
309
GRIDFORMAT_END
 95
        4
302
GRIDFORMAT
  1
GRIDFORMAT_BEGIN
 90
        0
 91
        1
 62
     0
 92
       -2
340
0
 93
        0
 40
0.045
309
GRIDFORMAT_END
 95
        8
302
GRIDFORMAT
  1
GRIDFORMAT_BEGIN
 90
        0
 91
        1
 62
     0
 92
       -2
340
0
 93
        0
 40
0.045
309
GRIDFORMAT_END
 95
       16
302
GRIDFORMAT
  1
GRIDFORMAT_BEGIN
 90
        0
 91
        1
 62
     0
 92
       -2
340
0
 93
        0
 40
0.045
309
GRIDFORMAT_END
 95
       32
302
GRIDFORMAT
  1
GRIDFORMAT_BEGIN
 90
        0
 91
        1
 62
     0
 92
       -2
340
0
 93
        0
 40
0.045
309
GRIDFORMAT_END
309
TABLEFORMAT_END
  1
CELLSTYLE_BEGIN
 90
        3
 91
        2
300
_DATA
309
CELLSTYLE_END
  0
XRECORD
  5
1715
102
{ACAD_REACTORS
330
924
102
}
330
924
100
AcDbXrecord
280
     1
102
ACAD_ROUNDTRIP_PRE2007_TABLESTYLE
 90
        4
 91
        0
  1

 92
        4
 93
        0
  2

 94
        4
 95
        0
  3

  0
ENDSEC
  0
EOF
