  0
SECTION
  2
HEADER
  9
$ACADVER
  1
AC1015
  9
$ACADMAINTVER
 70
    20
  9
$DWGCODEPAGE
  3
ANSI_1252
  9
$INSBASE
 10
0.0
 20
0.0
 30
0.0
  9
$EXTMIN
 10
0.0000000086675689
 20
-4.0
 30
-33.17985153198242
  9
$EXTMAX
 10
11.01569175720215
 20
-0.0000000000000012
 30
34.49999855979704
  9
$LIMMIN
 10
0.0
 20
0.0
  9
$LIMMAX
 10
12.0
 20
9.0
  9
$ORTHOMODE
 70
     0
  9
$REGENMODE
 70
     1
  9
$FILLMODE
 70
     1
  9
$QTEXTMODE
 70
     0
  9
$MIRRTEXT
 70
     1
  9
$LTSCALE
 40
1.0
  9
$ATTMODE
 70
     1
  9
$TEXTSIZE
 40
0.2
  9
$TRACEWID
 40
0.05
  9
$TEXTSTYLE
  7
Standard
  9
$CLAYER
  8
0
  9
$CELTYPE
  6
ByLayer
  9
$CECOLOR
 62
   256
  9
$CELTSCALE
 40
1.0
  9
$DISPSILH
 70
     0
  9
$DIMSCALE
 40
3.0
  9
$DIMASZ
 40
0.18
  9
$DIMEXO
 40
0.0625
  9
$DIMDLI
 40
0.38
  9
$DIMRND
 40
0.0
  9
$DIMDLE
 40
0.0
  9
$DIMEXE
 40
0.18
  9
$DIMTP
 40
0.0
  9
$DIMTM
 40
0.0
  9
$DIMTXT
 40
0.18
  9
$DIMCEN
 40
0.09
  9
$DIMTSZ
 40
0.0
  9
$DIMTOL
 70
     0
  9
$DIMLIM
 70
     0
  9
$DIMTIH
 70
     1
  9
$DIMTOH
 70
     1
  9
$DIMSE1
 70
     0
  9
$DIMSE2
 70
     0
  9
$DIMTAD
 70
     0
  9
$DIMZIN
 70
     0
  9
$DIMBLK
  1
ArchTick
  9
$DIMASO
 70
     1
  9
$DIMSHO
 70
     1
  9
$DIMPOST
  1
"
  9
$DIMAPOST
  1

  9
$DIMALT
 70
     0
  9
$DIMALTD
 70
     2
  9
$DIMALTF
 40
25.4
  9
$DIMLFAC
 40
1.0
  9
$DIMTOFL
 70
     0
  9
$DIMTVP
 40
0.0
  9
$DIMTIX
 70
     0
  9
$DIMSOXD
 70
     0
  9
$DIMSAH
 70
     0
  9
$DIMBLK1
  1

  9
$DIMBLK2
  1

  9
$DIMSTYLE
  2
Standard
  9
$DIMCLRD
 70
     0
  9
$DIMCLRE
 70
     0
  9
$DIMCLRT
 70
     0
  9
$DIMTFAC
 40
1.0
  9
$DIMGAP
 40
0.09
  9
$DIMJUST
 70
     0
  9
$DIMSD1
 70
     0
  9
$DIMSD2
 70
     0
  9
$DIMTOLJ
 70
     1
  9
$DIMTZIN
 70
     0
  9
$DIMALTZ
 70
     0
  9
$DIMALTTZ
 70
     0
  9
$DIMUPT
 70
     0
  9
$DIMDEC
 70
     4
  9
$DIMTDEC
 70
     4
  9
$DIMALTU
 70
     2
  9
$DIMALTTD
 70
     2
  9
$DIMTXSTY
  7
Standard
  9
$DIMAUNIT
 70
     0
  9
$DIMADEC
 70
     0
  9
$DIMALTRND
 40
0.0
  9
$DIMAZIN
 70
     0
  9
$DIMDSEP
 70
    46
  9
$DIMATFIT
 70
     3
  9
$DIMFRAC
 70
     0
  9
$DIMLDRBLK
  1

  9
$DIMLUNIT
 70
     5
  9
$DIMLWD
 70
    -2
  9
$DIMLWE
 70
    -2
  9
$DIMTMOVE
 70
     0
  9
$LUNITS
 70
     2
  9
$LUPREC
 70
     4
  9
$SKETCHINC
 40
0.1
  9
$FILLETRAD
 40
0.5
  9
$AUNITS
 70
     0
  9
$AUPREC
 70
     0
  9
$MENU
  1
.
  9
$ELEVATION
 40
0.0
  9
$PELEVATION
 40
0.0
  9
$THICKNESS
 40
0.0
  9
$LIMCHECK
 70
     0
  9
$CHAMFERA
 40
0.5
  9
$CHAMFERB
 40
0.5
  9
$CHAMFERC
 40
1.0
  9
$CHAMFERD
 40
0.0
  9
$SKPOLY
 70
     0
  9
$TDCREATE
 40
2452804.615602754
  9
$TDUCREATE
 40
2452804.823936088
  9
$TDUPDATE
 40
2454459.397487604
  9
$TDUUPDATE
 40
2454459.605820938
  9
$TDINDWG
 40
0.0007011458
  9
$TDUSRTIMER
 40
0.0007006134
  9
$USRTIMER
 70
     1
  9
$ANGBASE
 50
0.0
  9
$ANGDIR
 70
     0
  9
$PDMODE
 70
     0
  9
$PDSIZE
 40
0.0
  9
$PLINEWID
 40
0.0
  9
$SPLFRAME
 70
     0
  9
$SPLINETYPE
 70
     6
  9
$SPLINESEGS
 70
     8
  9
$HANDSEED
  5
144D
  9
$SURFTAB1
 70
     6
  9
$SURFTAB2
 70
     6
  9
$SURFTYPE
 70
     6
  9
$SURFU
 70
     6
  9
$SURFV
 70
     6
  9
$UCSBASE
  2

  9
$UCSNAME
  2

  9
$UCSORG
 10
0.0
 20
0.0
 30
0.0
  9
$UCSXDIR
 10
1.0
 20
0.0
 30
0.0
  9
$UCSYDIR
 10
0.0
 20
0.0
 30
1.0
  9
$UCSORTHOREF
  2

  9
$UCSORTHOVIEW
 70
     0
  9
$UCSORGTOP
 10
0.0
 20
0.0
 30
0.0
  9
$UCSORGBOTTOM
 10
0.0
 20
0.0
 30
0.0
  9
$UCSORGLEFT
 10
0.0
 20
0.0
 30
0.0
  9
$UCSORGRIGHT
 10
0.0
 20
0.0
 30
0.0
  9
$UCSORGFRONT
 10
0.0
 20
0.0
 30
0.0
  9
$UCSORGBACK
 10
0.0
 20
0.0
 30
0.0
  9
$PUCSBASE
  2

  9
$PUCSNAME
  2

  9
$PUCSORG
 10
0.0
 20
0.0
 30
0.0
  9
$PUCSXDIR
 10
1.0
 20
0.0
 30
0.0
  9
$PUCSYDIR
 10
0.0
 20
1.0
 30
0.0
  9
$PUCSORTHOREF
  2

  9
$PUCSORTHOVIEW
 70
     0
  9
$PUCSORGTOP
 10
0.0
 20
0.0
 30
0.0
  9
$PUCSORGBOTTOM
 10
0.0
 20
0.0
 30
0.0
  9
$PUCSORGLEFT
 10
0.0
 20
0.0
 30
0.0
  9
$PUCSORGRIGHT
 10
0.0
 20
0.0
 30
0.0
  9
$PUCSORGFRONT
 10
0.0
 20
0.0
 30
0.0
  9
$PUCSORGBACK
 10
0.0
 20
0.0
 30
0.0
  9
$USERI1
 70
     0
  9
$USERI2
 70
     0
  9
$USERI3
 70
     0
  9
$USERI4
 70
     0
  9
$USERI5
 70
     0
  9
$USERR1
 40
0.0
  9
$USERR2
 40
0.0
  9
$USERR3
 40
0.0
  9
$USERR4
 40
0.0
  9
$USERR5
 40
0.0
  9
$WORLDVIEW
 70
     1
  9
$SHADEDGE
 70
     3
  9
$SHADEDIF
 70
    70
  9
$TILEMODE
 70
     1
  9
$MAXACTVP
 70
    64
  9
$PINSBASE
 10
0.0
 20
0.0
 30
0.0
  9
$PLIMCHECK
 70
     0
  9
$PEXTMIN
 10
1.000000000000000E+20
 20
1.000000000000000E+20
 30
1.000000000000000E+20
  9
$PEXTMAX
 10
-1.000000000000000E+20
 20
-1.000000000000000E+20
 30
-1.000000000000000E+20
  9
$PLIMMIN
 10
0.0
 20
0.0
  9
$PLIMMAX
 10
12.0
 20
9.0
  9
$UNITMODE
 70
     0
  9
$VISRETAIN
 70
     1
  9
$PLINEGEN
 70
     0
  9
$PSLTSCALE
 70
     1
  9
$TREEDEPTH
 70
  3020
  9
$CMLSTYLE
  2
Standard
  9
$CMLJUST
 70
     0
  9
$CMLSCALE
 40
1.0
  9
$PROXYGRAPHICS
 70
     1
  9
$MEASUREMENT
 70
     0
  9
$CELWEIGHT
370
    -1
  9
$ENDCAPS
280
     0
  9
$JOINSTYLE
280
     0
  9
$LWDISPLAY
290
     0
  9
$INSUNITS
 70
     1
  9
$HYPERLINKBASE
  1

  9
$STYLESHEET
  1

  9
$XEDIT
290
     1
  9
$CEPSNTYPE
380
     0
  9
$PSTYLEMODE
290
     1
  9
$FINGERPRINTGUID
  2
{FDEAD576-A652-11D2-9A35-0060089B3A3F}
  9
$VERSIONGUID
  2
{E86D63A6-E2F7-433A-AE65-D192E824BAFC}
  9
$EXTNAMES
290
     1
  9
$PSVPSCALE
 40
0.0
  9
$OLESTARTUP
290
     0
  0
ENDSEC
  0
SECTION
  2
CLASSES
  0
CLASS
  1
ACDBDICTIONARYWDFLT
  2
AcDbDictionaryWithDefault
  3
ObjectDBX Classes
 90
        0
280
     0
281
     0
  0
CLASS
  1
ACDBPLACEHOLDER
  2
AcDbPlaceHolder
  3
ObjectDBX Classes
 90
        0
280
     0
281
     0
  0
CLASS
  1
LAYOUT
  2
AcDbLayout
  3
ObjectDBX Classes
 90
        0
280
     0
281
     0
  0
CLASS
  1
DICTIONARYVAR
  2
AcDbDictionaryVar
  3
ObjectDBX Classes
 90
        0
280
     0
281
     0
  0
CLASS
  1
TABLESTYLE
  2
AcDbTableStyle
  3
ObjectDBX Classes
 90
     4095
280
     0
281
     0
  0
CLASS
  1
MATERIAL
  2
AcDbMaterial
  3
ObjectDBX Classes
 90
     1153
280
     0
281
     0
  0
CLASS
  1
VISUALSTYLE
  2
AcDbVisualStyle
  3
ObjectDBX Classes
 90
     4095
280
     0
281
     0
  0
CLASS
  1
SCALE
  2
AcDbScale
  3
ObjectDBX Classes
 90
     1153
280
     0
281
     0
  0
CLASS
  1
MLEADERSTYLE
  2
AcDbMLeaderStyle
  3
ACDB_MLEADERSTYLE_CLASS
 90
     4095
280
     0
281
     0
  0
CLASS
  1
CELLSTYLEMAP
  2
AcDbCellStyleMap
  3
ObjectDBX Classes
 90
     1152
280
     0
281
     0
  0
ENDSEC
  0
SECTION
  2
TABLES
  0
TABLE
  2
VPORT
  5
8
330
0
100
AcDbSymbolTable
 70
     1
  0
VPORT
  5
F4
330
8
100
AcDbSymbolTableRecord
100
AcDbViewportTableRecord
  2
*Active
 70
     0
 10
0.0
 20
0.0
 11
1.0
 21
1.0
 12
15.51047107276355
 22
-15.92985301537749
 13
0.0
 23
0.0
 14
0.5
 24
0.5
 15
0.5
 25
0.5
 16
0.0
 26
-1.0
 36
0.0
 17
0.0
 27
0.0
 37
0.0
 40
34.7827868852459
 41
1.952107279693486
 42
50.0
 43
0.0
 44
0.0
 50
0.0
 51
0.0
 71
     0
 72
   100
 73
     1
 74
     3
 75
     0
 76
     0
 77
     0
 78
     0
281
     0
 65
     1
110
0.0
120
0.0
130
0.0
111
1.0
121
0.0
131
0.0
112
0.0
122
0.0
132
1.0
 79
     0
146
0.0
  0
ENDTAB
  0
TABLE
  2
LTYPE
  5
5
330
0
100
AcDbSymbolTable
 70
     1
  0
LTYPE
  5
14
330
5
100
AcDbSymbolTableRecord
100
AcDbLinetypeTableRecord
  2
ByBlock
 70
     0
  3

 72
    65
 73
     0
 40
0.0
  0
LTYPE
  5
15
330
5
100
AcDbSymbolTableRecord
100
AcDbLinetypeTableRecord
  2
ByLayer
 70
     0
  3

 72
    65
 73
     0
 40
0.0
  0
LTYPE
  5
16
330
5
100
AcDbSymbolTableRecord
100
AcDbLinetypeTableRecord
  2
Continuous
 70
     0
  3
Solid line
 72
    65
 73
     0
 40
0.0
  0
ENDTAB
  0
TABLE
  2
LAYER
  5
2
330
0
100
AcDbSymbolTable
 70
     3
  0
LAYER
  5
10
102
{ACAD_XDICTIONARY
360
7C5
102
}
330
2
100
AcDbSymbolTableRecord
100
AcDbLayerTableRecord
  2
0
 70
     0
 62
     7
  6
Continuous
370
    -3
390
F
  0
LAYER
  5
AB
102
{ACAD_XDICTIONARY
360
7C7
102
}
330
2
100
AcDbSymbolTableRecord
100
AcDbLayerTableRecord
  2
Layer1
 70
     0
 62
     1
  6
Continuous
290
     0
370
    -3
390
F
  0
LAYER
  5
15A
102
{ACAD_XDICTIONARY
360
7C9
102
}
330
2
100
AcDbSymbolTableRecord
100
AcDbLayerTableRecord
  2
ASHADE
 70
     4
 62
     7
  6
Continuous
370
    -3
390
F
  0
ENDTAB
  0
TABLE
  2
STYLE
  5
3
330
0
100
AcDbSymbolTable
 70
     2
  0
STYLE
  5
11
330
3
100
AcDbSymbolTableRecord
100
AcDbTextStyleTableRecord
  2
Standard
 70
     0
 40
0.0
 41
1.0
 50
0.0
 71
     0
 42
0.2
  3
txt
  4

  0
STYLE
  5
154
330
3
100
AcDbSymbolTableRecord
100
AcDbTextStyleTableRecord
  2
ASHADE
 70
     0
 40
0.2
 41
1.0
 50
0.0
 71
     0
 42
0.2
  3
simplex
  4

  0
ENDTAB
  0
TABLE
  2
VIEW
  5
6
330
0
100
AcDbSymbolTable
 70
     0
  0
ENDTAB
  0
TABLE
  2
UCS
  5
7
330
0
100
AcDbSymbolTable
 70
     0
  0
ENDTAB
  0
TABLE
  2
APPID
  5
9
330
0
100
AcDbSymbolTable
 70
     8
  0
APPID
  5
12
330
9
100
AcDbSymbolTableRecord
100
AcDbRegAppTableRecord
  2
ACAD
 70
     0
  0
APPID
  5
F2
330
9
100
AcDbSymbolTableRecord
100
AcDbRegAppTableRecord
  2
DCO15
 70
     0
  0
APPID
  5
151
330
9
100
AcDbSymbolTableRecord
100
AcDbRegAppTableRecord
  2
ACAD_MLEADERVER
 70
     0
  0
APPID
  5
155
330
9
100
AcDbSymbolTableRecord
100
AcDbRegAppTableRecord
  2
AVE_RENDER
 70
     0
  0
APPID
  5
156
330
9
100
AcDbSymbolTableRecord
100
AcDbRegAppTableRecord
  2
AVE_ENTITY_MATERIAL
 70
     0
  0
APPID
  5
157
330
9
100
AcDbSymbolTableRecord
100
AcDbRegAppTableRecord
  2
AVE_FINISH
 70
     0
  0
APPID
  5
158
330
9
100
AcDbSymbolTableRecord
100
AcDbRegAppTableRecord
  2
AVE_MATERIAL
 70
     0
  0
APPID
  5
159
330
9
100
AcDbSymbolTableRecord
100
AcDbRegAppTableRecord
  2
AVE_GLOBAL
 70
     0
  0
ENDTAB
  0
TABLE
  2
DIMSTYLE
  5
A
330
0
100
AcDbSymbolTable
 70
     1
100
AcDbDimStyleTable
 71
     0
  0
DIMSTYLE
105
27
330
A
100
AcDbSymbolTableRecord
100
AcDbDimStyleTableRecord
  2
Standard
 70
     0
  3
"
 40
3.0
277
     5
340
11
342
4F
  0
ENDTAB
  0
TABLE
  2
BLOCK_RECORD
  5
1
330
0
100
AcDbSymbolTable
 70
     6
  0
BLOCK_RECORD
  5
1F
330
1
100
AcDbSymbolTableRecord
100
AcDbBlockTableRecord
  2
*Model_Space
340
22
  0
BLOCK_RECORD
  5
1B
330
1
100
AcDbSymbolTableRecord
100
AcDbBlockTableRecord
  2
*Paper_Space
340
1E
  0
BLOCK_RECORD
  5
23
330
1
100
AcDbSymbolTableRecord
100
AcDbBlockTableRecord
  2
*Paper_Space0
340
26
  0
BLOCK_RECORD
  5
4F
330
1
100
AcDbSymbolTableRecord
100
AcDbBlockTableRecord
  2
_ArchTick
340
0
  0
BLOCK_RECORD
  5
15B
330
1
100
AcDbSymbolTableRecord
100
AcDbBlockTableRecord
  2
AVE_GLOBAL
340
0
102
{BLKREFS
331
15E
102
}
  0
BLOCK_RECORD
  5
164
330
1
100
AcDbSymbolTableRecord
100
AcDbBlockTableRecord
  2
AVE_RENDER
340
0
102
{BLKREFS
331
167
331
168
331
169
331
16A
331
16B
331
16C
331
16D
331
16E
102
}
  0
BLOCK_RECORD
  5
78A
330
1
100
AcDbSymbolTableRecord
100
AcDbBlockTableRecord
  2
RM_SDB
340
0
102
{BLKREFS
331
DF9
331
142B
102
}
  0
ENDTAB
  0
ENDSEC
  0
SECTION
  2
BLOCKS
  0
BLOCK
  5
20
330
1F
100
AcDbEntity
  8
0
100
AcDbBlockBegin
  2
*Model_Space
 70
     0
 10
0.0
 20
0.0
 30
0.0
  3
*Model_Space
  1

  0
ENDBLK
  5
21
330
1F
100
AcDbEntity
  8
0
100
AcDbBlockEnd
  0
BLOCK
  5
1C
330
1B
100
AcDbEntity
 67
     1
  8
0
100
AcDbBlockBegin
  2
*Paper_Space
 70
     0
 10
0.0
 20
0.0
 30
0.0
  3
*Paper_Space
  1

  0
ENDBLK
  5
1D
330
1B
100
AcDbEntity
 67
     1
  8
0
100
AcDbBlockEnd
  0
BLOCK
  5
24
330
23
100
AcDbEntity
 67
     1
  8
0
100
AcDbBlockBegin
  2
*Paper_Space0
 70
     0
 10
0.0
 20
0.0
 30
0.0
  3
*Paper_Space0
  1

  0
ENDBLK
  5
25
330
23
100
AcDbEntity
 67
     1
  8
0
100
AcDbBlockEnd
  0
BLOCK
  5
51
330
4F
100
AcDbEntity
  8
0
100
AcDbBlockBegin
  2
_ArchTick
 70
     0
 10
0.0
 20
0.0
 30
0.0
  3
_ArchTick
  1

  0
LWPOLYLINE
  5
50
330
4F
100
AcDbEntity
  8
0
 62
     0
100
AcDbPolyline
 90
        2
 70
     0
 43
0.15
 10
-0.5
 20
-0.5
 10
0.5
 20
0.5
  0
ENDBLK
  5
52
330
4F
100
AcDbEntity
  8
0
100
AcDbBlockEnd
  0
BLOCK
  5
15C
330
15B
100
AcDbEntity
  8
ASHADE
100
AcDbBlockBegin
  2
AVE_GLOBAL
 70
     0
 10
0.0
 20
0.0
 30
0.0
  3
AVE_GLOBAL
  1
AVE_GLOBAL
  0
ENDBLK
  5
15D
330
15B
100
AcDbEntity
  8
0
100
AcDbBlockEnd
  0
BLOCK
  5
165
330
164
100
AcDbEntity
  8
ASHADE
100
AcDbBlockBegin
  2
AVE_RENDER
 70
     0
 10
0.0
 20
0.0
 30
0.0
  3
AVE_RENDER
  1
AVE_RENDER
  0
ENDBLK
  5
166
330
164
100
AcDbEntity
  8
0
100
AcDbBlockEnd
  0
BLOCK
  5
78B
330
78A
100
AcDbEntity
  8
ASHADE
100
AcDbBlockBegin
  2
RM_SDB
 70
     2
 10
0.0
 20
0.0
 30
0.0
  3
RM_SDB
  1
RM_SDB
  0
ATTDEF
  5
78C
330
78A
100
AcDbEntity
  8
0
100
AcDbText
 10
0.0
 20
0.0
 30
0.0
 40
0.2
  1

100
AcDbAttributeDefinition
  3

  2
NAME
 70
     1
  0
ATTDEF
  5
78D
330
78A
100
AcDbEntity
  8
0
100
AcDbText
 10
0.0
 20
0.0
 30
0.0
 40
0.2
  1

100
AcDbAttributeDefinition
  3

  2
ACADCOLOR
 70
     1
  0
ATTDEF
  5
78E
330
78A
100
AcDbEntity
  8
0
100
AcDbText
 10
0.0
 20
0.0
 30
0.0
 40
0.2
  1

100
AcDbAttributeDefinition
  3

  2
COLOR
 70
     1
  0
ATTDEF
  5
78F
330
78A
100
AcDbEntity
  8
0
100
AcDbText
 10
0.0
 20
0.0
 30
0.0
 40
0.2
  1

100
AcDbAttributeDefinition
  3

  2
OPACITY
 70
     1
  0
ATTDEF
  5
790
330
78A
100
AcDbEntity
  8
0
100
AcDbText
 10
0.0
 20
0.0
 30
0.0
 40
0.2
  1

100
AcDbAttributeDefinition
  3

  2
SURFACE
 70
     1
  0
ATTDEF
  5
791
330
78A
100
AcDbEntity
  8
0
100
AcDbText
 10
0.0
 20
0.0
 30
0.0
 40
0.2
  1

100
AcDbAttributeDefinition
  3

  2
SURF1
 70
     1
  0
ATTDEF
  5
792
330
78A
100
AcDbEntity
  8
0
100
AcDbText
 10
0.0
 20
0.0
 30
0.0
 40
0.2
  1

100
AcDbAttributeDefinition
  3

  2
SURF2
 70
     1
  0
ATTDEF
  5
793
330
78A
100
AcDbEntity
  8
0
100
AcDbText
 10
0.0
 20
0.0
 30
0.0
 40
0.2
  1

100
AcDbAttributeDefinition
  3

  2
SURF3
 70
     1
  0
ATTDEF
  5
794
330
78A
100
AcDbEntity
  8
0
100
AcDbText
 10
0.0
 20
0.0
 30
0.0
 40
0.2
  1

100
AcDbAttributeDefinition
  3

  2
SURF4
 70
     1
  0
ATTDEF
  5
795
330
78A
100
AcDbEntity
  8
0
100
AcDbText
 10
0.0
 20
0.0
 30
0.0
 40
0.2
  1

100
AcDbAttributeDefinition
  3

  2
SHADINGRATE
 70
     1
  0
ATTDEF
  5
796
330
78A
100
AcDbEntity
  8
0
100
AcDbText
 10
0.0
 20
0.0
 30
0.0
 40
0.2
  1

100
AcDbAttributeDefinition
  3

  2
DISPLACEMENT
 70
     1
  0
ATTDEF
  5
797
330
78A
100
AcDbEntity
  8
0
100
AcDbText
 10
0.0
 20
0.0
 30
0.0
 40
0.2
  1

100
AcDbAttributeDefinition
  3

  2
DISP1
 70
     1
  0
ATTDEF
  5
798
330
78A
100
AcDbEntity
  8
0
100
AcDbText
 10
0.0
 20
0.0
 30
0.0
 40
0.2
  1

100
AcDbAttributeDefinition
  3

  2
DISP2
 70
     1
  0
ATTDEF
  5
799
330
78A
100
AcDbEntity
  8
0
100
AcDbText
 10
0.0
 20
0.0
 30
0.0
 40
0.2
  1

100
AcDbAttributeDefinition
  3

  2
DISP3
 70
     1
  0
ATTDEF
  5
79A
330
78A
100
AcDbEntity
  8
0
100
AcDbText
 10
0.0
 20
0.0
 30
0.0
 40
0.2
  1

100
AcDbAttributeDefinition
  3

  2
DISP4
 70
     1
  0
ATTDEF
  5
79B
330
78A
100
AcDbEntity
  8
0
100
AcDbText
 10
0.0
 20
0.0
 30
0.0
 40
0.2
  1

100
AcDbAttributeDefinition
  3

  2
DBOUND
 70
     1
  0
ATTDEF
  5
79C
330
78A
100
AcDbEntity
  8
0
100
AcDbText
 10
0.0
 20
0.0
 30
0.0
 40
0.2
  1

100
AcDbAttributeDefinition
  3

  2
SMOOTH
 70
     1
  0
ATTDEF
  5
79D
330
78A
100
AcDbEntity
  8
0
100
AcDbText
 10
0.0
 20
0.0
 30
0.0
 40
0.2
  1

100
AcDbAttributeDefinition
  3

  2
ATMOSHPERE
 70
     1
  0
ATTDEF
  5
79E
330
78A
100
AcDbEntity
  8
0
100
AcDbText
 10
0.0
 20
0.0
 30
0.0
 40
0.2
  1

100
AcDbAttributeDefinition
  3

  2
ATMO1
 70
     1
  0
ATTDEF
  5
79F
330
78A
100
AcDbEntity
  8
0
100
AcDbText
 10
0.0
 20
0.0
 30
0.0
 40
0.2
  1

100
AcDbAttributeDefinition
  3

  2
ATMO2
 70
     1
  0
ATTDEF
  5
7A0
330
78A
100
AcDbEntity
  8
0
100
AcDbText
 10
0.0
 20
0.0
 30
0.0
 40
0.2
  1

100
AcDbAttributeDefinition
  3

  2
ATMO3
 70
     1
  0
ATTDEF
  5
7A1
330
78A
100
AcDbEntity
  8
0
100
AcDbText
 10
0.0
 20
0.0
 30
0.0
 40
0.2
  1

100
AcDbAttributeDefinition
  3

  2
ATMO4
 70
     1
  0
ATTDEF
  5
7A2
330
78A
100
AcDbEntity
  8
0
100
AcDbText
 10
0.0
 20
0.0
 30
0.0
 40
0.2
  1

100
AcDbAttributeDefinition
  3

  2
TCCORD
 70
     1
  0
ENDBLK
  5
7A3
330
78A
100
AcDbEntity
  8
0
100
AcDbBlockEnd
  0
ENDSEC
  0
SECTION
  2
ENTITIES
  0
INSERT
  5
15E
330
1F
100
AcDbEntity
  8
ASHADE
 62
     1
100
AcDbBlockReference
  2
AVE_GLOBAL
 10
0.0
 20
0.0
 30
0.0
1001
AVE_MATERIAL
1002
{
1000
*GLOBAL*
1000
2
1000
Global finish.
1002
{
1002
}
1002
{
1070
    63
1002
{
1002
{
1010
-1.0
1020
-1.0
1030
-1.0
1002
}
1040
0.6999999880790711
1000

1040
0.0
1002
{
1002
}
1040
0.0
1002
{
1002
}
1040
0.0
1002
}
1002
{
1002
{
1010
-1.0
1020
-1.0
1030
-1.0
1002
}
1040
1.0
1000

1040
0.0
1002
{
1002
}
1040
0.0
1002
{
1002
}
1040
0.0
1002
}
1002
{
1002
{
1010
-1.0
1020
-1.0
1030
-1.0
1002
}
1040
0.2000000029802322
1000

1040
0.0
1002
{
1002
}
1040
0.0
1002
{
1002
}
1040
0.0
1002
}
1002
{
1070
     0
1002
{
1070
     1
1002
{
1040
1.0
1040
1.0
1000

1040
0.0
1002
{
1002
}
1040
0.0
1002
{
1002
}
1040
0.0
1002
}
1002
}
1040
1.0
1040
0.0
1040
0.0
1002
}
1002
{
1040
1.0
1040
1.0
1000

1040
0.0
1002
{
1002
}
1040
0.0
1002
{
1002
}
1040
0.0
1002
}
1002
{
1040
0.5
1040
1.0
1000

1040
0.0
1002
{
1002
}
1040
0.0
1002
{
1002
}
1040
0.0
1002
}
1002
{
1070
     0
1040
0.0
1002
{
1002
}
1040
1.0
1002
{
1002
}
1040
0.0
1002
}
1002
{
1040
0.0
1002
{
1002
{
1010
0.0
1020
0.0
1030
0.0
1002
}
1040
1.0
1000

1040
0.0
1002
{
1002
}
1040
0.0
1002
{
1002
}
1040
0.0
1002
}
1002
}
1002
{
1002
{
1070
     1
1002
{
1040
0.0
1040
1.0
1000

1040
0.0
1002
{
1002
}
1040
0.0
1002
{
1002
}
1040
0.0
1002
}
1002
}
1040
0.0
1002
{
1002
}
1010
1.0
1020
0.0
1030
0.0
1010
0.0
1020
1.0
1030
0.0
1010
0.0
1020
0.0
1030
1.0
1070
     0
1002
}
1002
{
1002
{
1040
1.0
1040
1.0
1002
{
1070
     1
1002
{
1040
1.0
1040
1.0
1000

1040
0.0
1002
{
1002
}
1040
0.0
1002
{
1002
}
1040
0.0
1002
}
1002
}
1002
}
1070
     0
1040
0.0
1002
{
1002
}
1002
}
1002
{
1002
}
1002
}
1002
{
1071
        3
1070
     3
1070
     0
1002
{
1070
     2
1070
     0
1070
     0
1040
0.0
1002
}
1070
     0
1070
     2
1002
{
1002
}
1002
}
1002
{
1040
8030.0
1040
190.3000030517578
1040
0.3050000071525574
1040
228.0
1040
545.0
1040
14.0
1040
17.39999961853027
1040
0.4560000002384186
1002
}
1000

1002
}
  0
INSERT
  5
167
330
1F
100
AcDbEntity
  8
ASHADE
 62
     1
100
AcDbBlockReference
  2
AVE_RENDER
 10
0.0
 20
0.0
 30
0.0
1001
AVE_RENDER
1002
{
1070
     7
1000
Pref
1070
    50
1070
    20
1070
     1
1070
     0
1000

1070
    10
1070
     1
1070
    10
1040
1.0
1070
     1
1040
0.6999999880790711
1040
1.0
1040
0.2000000029802322
1040
2.0
1010
-1.0
1020
-1.0
1030
-1.0
1040
0.3000000119209289
1070
    49
1070
     0
1070
     0
1010
1.0
1020
1.0
1030
1.0
1040
45.0
1070
     1
1070
     0
1000
WCS
1040
0.0
1070
     0
1040
10.0
1002
}
  0
INSERT
  5
168
330
1F
100
AcDbEntity
  8
ASHADE
 62
     3
100
AcDbBlockReference
  2
AVE_RENDER
 10
0.0
 20
0.0
 30
0.0
1001
AVE_RENDER
1002
{
1070
     0
1000
Full Opt
1070
     0
1070
     1
1070
     1
1070
     1
1070
     0
1070
     0
1070
     0
1070
     1
1070
     1
1040
0.0001
1040
0.0001
1002
}
  0
INSERT
  5
169
330
1F
100
AcDbEntity
  8
ASHADE
 62
     4
100
AcDbBlockReference
  2
AVE_RENDER
 10
0.0
 20
0.0
 30
0.0
1001
AVE_RENDER
1002
{
1070
     0
1000
Quick Opt
1070
     0
1070
     1
1070
     1
1070
     1
1070
     0
1070
     0
1070
     1
1002
}
  0
INSERT
  5
16A
330
1F
100
AcDbEntity
  8
ASHADE
 62
     5
100
AcDbBlockReference
  2
AVE_RENDER
 10
0.0
 20
0.0
 30
0.0
1001
AVE_RENDER
1002
{
1070
     1
1000
Scanl Opt
1070
     2
1070
     0
1070
     2
1040
2.0
1040
4.0
1070
     0
1070
     1
1070
     0
1040
0.03
1002
}
  0
INSERT
  5
16B
330
1F
100
AcDbEntity
  8
ASHADE
 62
     6
100
AcDbBlockReference
  2
AVE_RENDER
 10
0.0
 20
0.0
 30
0.0
1001
AVE_RENDER
1002
{
1070
     2
1000
Raytr Opt
1070
     2
1070
     0
1070
     2
1040
2.0
1040
4.0
1070
     0
1070
     1
1070
     1
1040
0.03
1070
     3
1040
0.03
1002
}
  0
INSERT
  5
16C
330
1F
100
AcDbEntity
  8
ASHADE
 62
     7
100
AcDbBlockReference
  2
AVE_RENDER
 10
0.0
 20
0.0
 30
0.0
1001
AVE_RENDER
1002
{
1070
     0
1000
RFile Opt
1070
     1
1070
   640
1070
   480
1070
 10000
1070
     1
1070
     8
1070
     8
1070
     0
1070
     0
1070
     0
1070
     0
1070
     0
1070
     0
1070
     0
1002
}
  0
INSERT
  5
16D
330
1F
100
AcDbEntity
  8
ASHADE
 62
     8
100
AcDbBlockReference
  2
AVE_RENDER
 10
0.0
 20
0.0
 30
0.0
1001
AVE_RENDER
1002
{
1070
     0
1000
Fog Opt
1070
     0
1070
     0
1040
0.0
1040
1.0
1040
0.0
1040
1.0
1010
0.5
1020
0.5
1030
0.5
1002
}
  0
INSERT
  5
16E
330
1F
100
AcDbEntity
  8
ASHADE
 62
     9
100
AcDbBlockReference
  2
AVE_RENDER
 10
0.0
 20
0.0
 30
0.0
1001
AVE_RENDER
1002
{
1070
     0
1000
BG Opt
1070
     0
1070
     0
1010
0.0
1020
0.0
1030
0.0
1010
1.0
1020
0.0
1030
0.0
1010
0.0
1020
1.0
1030
0.0
1010
0.0
1020
0.0
1030
1.0
1040
0.5
1040
0.5
1040
0.0
1000

1070
     1
1000

1070
     1
1070
     1
1040
1.0
1040
1.0
1040
0.0
1040
0.0
1070
     0
1002
}
  0
POLYLINE
  5
E15
330
1F
100
AcDbEntity
  8
0
 62
     7
100
AcDbPolyFaceMesh
 66
     1
 10
0.0
 20
0.0
 30
0.0
 70
    64
 71
   520
 72
  1036
1001
AVE_ENTITY_MATERIAL
1002
{
1000

1002
{
1071
        0
1070
     0
1070
     0
1002
{
1070
     0
1070
     0
1070
     0
1040
0.0
1002
}
1070
     0
1070
     0
1002
{
1002
}
1002
}
1002
{
1002
}
1002
{
1002
}
1011
-7.015691748534578
1021
0.0
1031
33.17985152229093
1011
-6.015691748534578
1021
0.0
1031
33.17985152229093
1011
-7.015691748534578
1021
1.0
1031
33.17985152229093
1011
-7.015691748534578
1021
0.0
1031
34.17985152229093
1002
}
  0
VERTEX
  5
E16
330
E15
100
AcDbEntity
  8
0
 62
     7
100
AcDbVertex
100
AcDbPolyFaceMeshVertex
 10
4.000000008667571
 20
-0.9702039957046507
 30
25.35078619941496
 70
   192
  0
VERTEX
  5
E17
330
E15
100
AcDbEntity
  8
0
 62
     7
100
AcDbVertex
100
AcDbPolyFaceMeshVertex
 10
4.000000008667571
 20
-0.0000000000000019
 30
34.49999855979704
 70
   192
  0
VERTEX
  5
E18
330
E15
100
AcDbEntity
  8
0
 62
     7
100
AcDbVertex
100
AcDbPolyFaceMeshVertex
 10
4.000000008667571
 20
-2.0
 30
25.23683737739347
 70
   192
  0
VERTEX
  5
E19
330
E15
100
AcDbEntity
  8
0
 62
     7
100
AcDbVertex
100
AcDbPolyFaceMeshVertex
 10
4.000000008667571
 20
-0.0000000000000019
 30
25.68126629813932
 70
   192
  0
VERTEX
  5
E1A
330
E15
100
AcDbEntity
  8
0
 62
     7
100
AcDbVertex
100
AcDbPolyFaceMeshVertex
 10
4.000000008667571
 20
-4.0
 30
34.49999855979704
 70
   192
  0
VERTEX
  5
E1B
330
E15
100
AcDbEntity
  8
0
 62
     7
100
AcDbVertex
100
AcDbPolyFaceMeshVertex
 10
4.000000008667571
 20
-3.029795885086058
 30
25.35078619941496
 70
   192
  0
VERTEX
  5
E1C
330
E15
100
AcDbEntity
  8
0
 62
     7
100
AcDbVertex
100
AcDbPolyFaceMeshVertex
 10
4.000000008667571
 20
-4.0
 30
25.68126629813932
 70
   192
  0
VERTEX
  5
E1D
330
E15
100
AcDbEntity
  8
0
 62
     7
100
AcDbVertex
100
AcDbPolyFaceMeshVertex
 10
4.000000008667571
 20
-2.0
 30
3.777254094922756
 70
   192
  0
VERTEX
  5
E1E
330
E15
100
AcDbEntity
  8
0
 62
     7
100
AcDbVertex
100
AcDbPolyFaceMeshVertex
 10
4.000000008667571
 20
-2.710273265838623
 30
9.48291777595304
 70
   192
  0
VERTEX
  5
E1F
330
E15
100
AcDbEntity
  8
0
 62
     7
100
AcDbVertex
100
AcDbPolyFaceMeshVertex
 10
4.000000008667571
 20
-3.039080381393431
 30
3.913562764966712
 70
   192
  0
VERTEX
  5
E20
330
E15
100
AcDbEntity
  8
0
 62
     7
100
AcDbVertex
100
AcDbPolyFaceMeshVertex
 10
4.000000008667571
 20
-1.289726614952086
 30
9.48291777595304
 70
   192
  0
VERTEX
  5
E21
330
E15
100
AcDbEntity
  8
0
 62
     7
100
AcDbVertex
100
AcDbPolyFaceMeshVertex
 10
4.000000008667571
 20
-0.0000000000000019
 30
8.887470235669827
 70
   192
  0
VERTEX
  5
E22
330
E15
100
AcDbEntity
  8
0
 62
     7
100
AcDbVertex
100
AcDbPolyFaceMeshVertex
 10
4.000000008667571
 20
-0.9609196782112119
 30
3.913562764966712
 70
   192
  0
VERTEX
  5
E23
330
E15
100
AcDbEntity
  8
0
 62
     7
100
AcDbVertex
100
AcDbPolyFaceMeshVertex
 10
4.000000008667571
 20
-0.0000000000000019
 30
4.31252097114347
 70
   192
  0
VERTEX
  5
E24
330
E15
100
AcDbEntity
  8
0
 62
     7
100
AcDbVertex
100
AcDbPolyFaceMeshVertex
 10
4.000000008667571
 20
-4.0
 30
8.887470235669827
 70
   192
  0
VERTEX
  5
E25
330
E15
100
AcDbEntity
  8
0
 62
     7
100
AcDbVertex
100
AcDbPolyFaceMeshVertex
 10
4.000000008667571
 20
-4.0
 30
4.31252097114347
 70
   192
  0
VERTEX
  5
E26
330
E15
100
AcDbEntity
  8
0
 62
     7
100
AcDbVertex
100
AcDbPolyFaceMeshVertex
 10
3.029795655335052
 20
-4.0
 30
25.35078619941496
 70
   192
  0
VERTEX
  5
E27
330
E15
100
AcDbEntity
  8
0
 62
     7
100
AcDbVertex
100
AcDbPolyFaceMeshVertex
 10
2.000000008667569
 20
-4.0
 30
25.23683737739347
 70
   192
  0
VERTEX
  5
E28
330
E15
100
AcDbEntity
  8
0
 62
     7
100
AcDbVertex
100
AcDbPolyFaceMeshVertex
 10
0.0000000086675689
 20
-4.0
 30
34.49999855979704
 70
   192
  0
VERTEX
  5
E29
330
E15
100
AcDbEntity
  8
0
 62
     7
100
AcDbVertex
100
AcDbPolyFaceMeshVertex
 10
0.9702038851629302
 20
-4.0
 30
25.35078619941496
 70
   192
  0
VERTEX
  5
E2A
330
E15
100
AcDbEntity
  8
0
 62
     7
100
AcDbVertex
100
AcDbPolyFaceMeshVertex
 10
0.0000000086675689
 20
-4.0
 30
25.68126629813932
 70
   192
  0
VERTEX
  5
E2B
330
E15
100
AcDbEntity
  8
0
 62
     7
100
AcDbVertex
100
AcDbPolyFaceMeshVertex
 10
0.9702038851629302
 20
-0.0000000000000014
 30
25.35078619941496
 70
   192
  0
VERTEX
  5
E2C
330
E15
100
AcDbEntity
  8
0
 62
     7
100
AcDbVertex
100
AcDbPolyFaceMeshVertex
 10
0.0000000086675689
 20
-0.0000000000000012
 30
34.49999855979704
 70
   192
  0
VERTEX
  5
E2D
330
E15
100
AcDbEntity
  8
0
 62
     7
100
AcDbVertex
100
AcDbPolyFaceMeshVertex
 10
2.000000008667569
 20
-0.0000000000000016
 30
25.23683737739347
 70
   192
  0
VERTEX
  5
E2E
330
E15
100
AcDbEntity
  8
0
 62
     7
100
AcDbVertex
100
AcDbPolyFaceMeshVertex
 10
0.0000000086675689
 20
-0.0000000000000012
 30
25.68126629813932
 70
   192
  0
VERTEX
  5
E2F
330
E15
100
AcDbEntity
  8
0
 62
     7
100
AcDbVertex
100
AcDbPolyFaceMeshVertex
 10
3.029795655335052
 20
-0.0000000000000017
 30
25.35078619941496
 70
   192
  0
VERTEX
  5
E30
330
E15
100
AcDbEntity
  8
0
 62
     7
100
AcDbVertex
100
AcDbPolyFaceMeshVertex
 10
2.000000008667569
 20
-0.0000000000000016
 30
3.777254094922756
 70
   192
  0
VERTEX
  5
E31
330
E15
100
AcDbEntity
  8
0
 62
     7
100
AcDbVertex
100
AcDbPolyFaceMeshVertex
 10
2.710272797669034
 20
-0.0000000000000017
 30
9.48291777595304
 70
   192
  0
VERTEX
  5
E32
330
E15
100
AcDbEntity
  8
0
 62
     7
100
AcDbVertex
100
AcDbPolyFaceMeshVertex
 10
3.039079674805261
 20
-0.0000000000000017
 30
3.913562764966712
 70
   192
  0
VERTEX
  5
E33
330
E15
100
AcDbEntity
  8
0
 62
     7
100
AcDbVertex
100
AcDbPolyFaceMeshVertex
 10
1.289726265991788
 20
-0.0000000000000014
 30
9.48291777595304
 70
   192
  0
VERTEX
  5
E34
330
E15
100
AcDbEntity
  8
0
 62
     7
100
AcDbVertex
100
AcDbPolyFaceMeshVertex
 10
0.0000000086675689
 20
-0.0000000000000012
 30
8.887470235669827
 70
   192
  0
VERTEX
  5
E35
330
E15
100
AcDbEntity
  8
0
 62
     7
100
AcDbVertex
100
AcDbPolyFaceMeshVertex
 10
0.960919388855558
 20
-0.0000000000000014
 30
3.913562764966712
 70
   192
  0
VERTEX
  5
E36
330
E15
100
AcDbEntity
  8
0
 62
     7
100
AcDbVertex
100
AcDbPolyFaceMeshVertex
 10
0.0000000086675689
 20
-0.0000000000000012
 30
4.31252097114347
 70
   192
  0
VERTEX
  5
E37
330
E15
100
AcDbEntity
  8
0
 62
     7
100
AcDbVertex
100
AcDbPolyFaceMeshVertex
 10
0.0000000086675689
 20
-3.029795885086058
 30
25.35078619941496
 70
   192
  0
VERTEX
  5
E38
330
E15
100
AcDbEntity
  8
0
 62
     7
100
AcDbVertex
100
AcDbPolyFaceMeshVertex
 10
0.0000000086675689
 20
-2.0
 30
25.23683737739347
 70
   192
  0
VERTEX
  5
E39
330
E15
100
AcDbEntity
  8
0
 62
     7
100
AcDbVertex
100
AcDbPolyFaceMeshVertex
 10
0.0000000086675689
 20
-0.9702039957046507
 30
25.35078619941496
 70
   192
  0
VERTEX
  5
E3A
330
E15
100
AcDbEntity
  8
0
 62
     7
100
AcDbVertex
100
AcDbPolyFaceMeshVertex
 10
0.0000000086675689
 20
-2.0
 30
3.777254094922756
 70
   192
  0
VERTEX
  5
E3B
330
E15
100
AcDbEntity
  8
0
 62
     7
100
AcDbVertex
100
AcDbPolyFaceMeshVertex
 10
0.0000000086675689
 20
-1.289726614952086
 30
9.48291777595304
 70
   192
  0
VERTEX
  5
E3C
330
E15
100
AcDbEntity
  8
0
 62
     7
100
AcDbVertex
100
AcDbPolyFaceMeshVertex
 10
0.0000000086675689
 20
-0.9609196782112119
 30
3.913562764966712
 70
   192
  0
VERTEX
  5
E3D
330
E15
100
AcDbEntity
  8
0
 62
     7
100
AcDbVertex
100
AcDbPolyFaceMeshVertex
 10
0.0000000086675689
 20
-2.710273265838623
 30
9.48291777595304
 70
   192
  0
VERTEX
  5
E3E
330
E15
100
AcDbEntity
  8
0
 62
     7
100
AcDbVertex
100
AcDbPolyFaceMeshVertex
 10
0.0000000086675689
 20
-4.0
 30
8.887470235669827
 70
   192
  0
VERTEX
  5
E3F
330
E15
100
AcDbEntity
  8
0
 62
     7
100
AcDbVertex
100
AcDbPolyFaceMeshVertex
 10
0.0000000086675689
 20
-3.039080381393431
 30
3.913562764966712
 70
   192
  0
VERTEX
  5
E40
330
E15
100
AcDbEntity
  8
0
 62
     7
100
AcDbVertex
100
AcDbPolyFaceMeshVertex
 10
0.0000000086675689
 20
-4.0
 30
4.31252097114347
 70
   192
  0
VERTEX
  5
E41
330
E15
100
AcDbEntity
  8
0
 62
     7
100
AcDbVertex
100
AcDbPolyFaceMeshVertex
 10
2.000000008667569
 20
-4.0
 30
3.777254094922756
 70
   192
  0
VERTEX
  5
E42
330
E15
100
AcDbEntity
  8
0
 62
     7
100
AcDbVertex
100
AcDbPolyFaceMeshVertex
 10
1.289726265991788
 20
-4.0
 30
9.48291777595304
 70
   192
  0
VERTEX
  5
E43
330
E15
100
AcDbEntity
  8
0
 62
     7
100
AcDbVertex
100
AcDbPolyFaceMeshVertex
 10
0.960919388855558
 20
-4.0
 30
3.913562764966712
 70
   192
  0
VERTEX
  5
E44
330
E15
100
AcDbEntity
  8
0
 62
     7
100
AcDbVertex
100
AcDbPolyFaceMeshVertex
 10
2.710272797669034
 20
-4.0
 30
9.48291777595304
 70
   192
  0
VERTEX
  5
E45
330
E15
100
AcDbEntity
  8
0
 62
     7
100
AcDbVertex
100
AcDbPolyFaceMeshVertex
 10
3.039079674805261
 20
-4.0
 30
3.913562764966712
 70
   192
  0
VERTEX
  5
E46
330
E15
100
AcDbEntity
  8
0
 62
     7
100
AcDbVertex
100
AcDbPolyFaceMeshVertex
 10
3.183578499878501
 20
-3.183578729629516
 30
3.63274764045499
 70
   192
  0
VERTEX
  5
E47
330
E15
100
AcDbEntity
  8
0
 62
     7
100
AcDbVertex
100
AcDbPolyFaceMeshVertex
 10
3.163835534180261
 20
-2.671940565109252
 30
3.517944326246009
 70
   192
  0
VERTEX
  5
E48
330
E15
100
AcDbEntity
  8
0
 62
     7
100
AcDbVertex
100
AcDbPolyFaceMeshVertex
 10
3.546420106018642
 20
-2.640548229217529
 30
3.63274764045499
 70
   192
  0
VERTEX
  5
E49
330
E15
100
AcDbEntity
  8
0
 62
     7
100
AcDbVertex
100
AcDbPolyFaceMeshVertex
 10
0.816421040619474
 20
-0.8164213299751279
 30
3.63274764045499
 70
   192
  0
VERTEX
  5
E4A
330
E15
100
AcDbEntity
  8
0
 62
     7
100
AcDbVertex
100
AcDbPolyFaceMeshVertex
 10
0.8361644831548735
 20
-1.328059434890747
 30
3.517944326246009
 70
   192
  0
VERTEX
  5
E4B
330
E15
100
AcDbEntity
  8
0
 62
     7
100
AcDbVertex
100
AcDbPolyFaceMeshVertex
 10
0.4535799113164956
 20
-1.35945188999176
 30
3.63274764045499
 70
   192
  0
VERTEX
  5
E4C
330
E15
100
AcDbEntity
  8
0
 62
     7
100
AcDbVertex
100
AcDbPolyFaceMeshVertex
 10
3.183578499878501
 20
-0.8164213299751279
 30
3.63274764045499
 70
   192
  0
VERTEX
  5
E4D
330
E15
100
AcDbEntity
  8
0
 62
     7
100
AcDbVertex
100
AcDbPolyFaceMeshVertex
 10
2.671940812195401
 20
-0.8361647129058836
 30
3.517944326246009
 70
   192
  0
VERTEX
  5
E4E
330
E15
100
AcDbEntity
  8
0
 62
     7
100
AcDbVertex
100
AcDbPolyFaceMeshVertex
 10
2.64054776104794
 20
-0.4535799622535707
 30
3.63274764045499
 70
   192
  0
VERTEX
  5
E4F
330
E15
100
AcDbEntity
  8
0
 62
     7
100
AcDbVertex
100
AcDbPolyFaceMeshVertex
 10
2.671940812195401
 20
-3.163835287094116
 30
3.517944326246009
 70
   192
  0
VERTEX
  5
E50
330
E15
100
AcDbEntity
  8
0
 62
     7
100
AcDbVertex
100
AcDbPolyFaceMeshVertex
 10
1.328059205139737
 20
-3.163835287094116
 30
3.517944326246009
 70
   192
  0
VERTEX
  5
E51
330
E15
100
AcDbEntity
  8
0
 62
     7
100
AcDbVertex
100
AcDbPolyFaceMeshVertex
 10
1.35945130261288
 20
-3.546420097351073
 30
3.63274764045499
 70
   192
  0
VERTEX
  5
E52
330
E15
100
AcDbEntity
  8
0
 62
     7
100
AcDbVertex
100
AcDbPolyFaceMeshVertex
 10
0.816421040619474
 20
-3.183578729629516
 30
3.63274764045499
 70
   192
  0
VERTEX
  5
E53
330
E15
100
AcDbEntity
  8
0
 62
     7
100
AcDbVertex
100
AcDbPolyFaceMeshVertex
 10
0.8361644831548735
 20
-2.671940565109252
 30
3.517944326246009
 70
   192
  0
VERTEX
  5
E54
330
E15
100
AcDbEntity
  8
0
 62
     7
100
AcDbVertex
100
AcDbPolyFaceMeshVertex
 10
1.328059205139737
 20
-0.8361647129058836
 30
3.517944326246009
 70
   192
  0
VERTEX
  5
E55
330
E15
100
AcDbEntity
  8
0
 62
     7
100
AcDbVertex
100
AcDbPolyFaceMeshVertex
 10
3.163835534180261
 20
-1.328059434890747
 30
3.517944326246009
 70
   192
  0
VERTEX
  5
E56
330
E15
100
AcDbEntity
  8
0
 62
     7
100
AcDbVertex
100
AcDbPolyFaceMeshVertex
 10
2.000000008667569
 20
-3.673832893371582
 30
3.63274764045499
 70
   192
  0
VERTEX
  5
E57
330
E15
100
AcDbEntity
  8
0
 62
     7
100
AcDbVertex
100
AcDbPolyFaceMeshVertex
 10
2.000000008667569
 20
-3.343881130218504
 30
3.517944326246009
 70
   192
  0
VERTEX
  5
E58
330
E15
100
AcDbEntity
  8
0
 62
     7
100
AcDbVertex
100
AcDbPolyFaceMeshVertex
 10
3.673832902039151
 20
-2.0
 30
3.63274764045499
 70
   192
  0
VERTEX
  5
E59
330
E15
100
AcDbEntity
  8
0
 62
     7
100
AcDbVertex
100
AcDbPolyFaceMeshVertex
 10
3.343880662048912
 20
-2.0
 30
3.517944326246009
 70
   192
  0
VERTEX
  5
E5A
330
E15
100
AcDbEntity
  8
0
 62
     7
100
AcDbVertex
100
AcDbPolyFaceMeshVertex
 10
2.000000008667569
 20
-0.3261669874191284
 30
3.63274764045499
 70
   192
  0
VERTEX
  5
E5B
330
E15
100
AcDbEntity
  8
0
 62
     7
100
AcDbVertex
100
AcDbPolyFaceMeshVertex
 10
2.000000008667569
 20
-0.6561188101768494
 30
3.517944326246009
 70
   192
  0
VERTEX
  5
E5C
330
E15
100
AcDbEntity
  8
0
 62
     7
100
AcDbVertex
100
AcDbPolyFaceMeshVertex
 10
0.3261666384588286
 20
-2.0
 30
3.63274764045499
 70
   192
  0
VERTEX
  5
E5D
330
E15
100
AcDbEntity
  8
0
 62
     7
100
AcDbVertex
100
AcDbPolyFaceMeshVertex
 10
0.6561184016119049
 20
-2.0
 30
3.517944326246009
 70
   192
  0
VERTEX
  5
E5E
330
E15
100
AcDbEntity
  8
0
 62
     7
100
AcDbVertex
100
AcDbPolyFaceMeshVertex
 10
2.64054776104794
 20
-3.546420097351073
 30
3.63274764045499
 70
   192
  0
VERTEX
  5
E5F
330
E15
100
AcDbEntity
  8
0
 62
     7
100
AcDbVertex
100
AcDbPolyFaceMeshVertex
 10
0.4535799113164956
 20
-2.640548229217529
 30
3.63274764045499
 70
   192
  0
VERTEX
  5
E60
330
E15
100
AcDbEntity
  8
0
 62
     7
100
AcDbVertex
100
AcDbPolyFaceMeshVertex
 10
1.35945130261288
 20
-0.4535799622535707
 30
3.63274764045499
 70
   192
  0
VERTEX
  5
E61
330
E15
100
AcDbEntity
  8
0
 62
     7
100
AcDbVertex
100
AcDbPolyFaceMeshVertex
 10
3.546420106018642
 20
-1.35945188999176
 30
3.63274764045499
 70
   192
  0
VERTEX
  5
E62
330
E15
100
AcDbEntity
  8
0
 62
     7
100
AcDbVertex
100
AcDbPolyFaceMeshVertex
 10
2.936419495667081
 20
-0.378073513507843
 30
9.633594503247962
 70
   192
  0
VERTEX
  5
E63
330
E15
100
AcDbEntity
  8
0
 62
     7
100
AcDbVertex
100
AcDbPolyFaceMeshVertex
 10
3.4532489863287
 20
-0.5200363397598267
 30
9.514049520337803
 70
   192
  0
VERTEX
  5
E64
330
E15
100
AcDbEntity
  8
0
 62
     7
100
AcDbVertex
100
AcDbPolyFaceMeshVertex
 10
2.000000008667569
 20
-0.1271605938673019
 30
9.633594503247962
 70
   192
  0
VERTEX
  5
E65
330
E15
100
AcDbEntity
  8
0
 62
     7
100
AcDbVertex
100
AcDbPolyFaceMeshVertex
 10
1.063580521668058
 20
-0.378073513507843
 30
9.633594503247962
 70
   192
  0
VERTEX
  5
E66
330
E15
100
AcDbEntity
  8
0
 62
     7
100
AcDbVertex
100
AcDbPolyFaceMeshVertex
 10
0.5467505541692788
 20
-0.5200363397598267
 30
9.514049520337803
 70
   192
  0
VERTEX
  5
E67
330
E15
100
AcDbEntity
  8
0
 62
     7
100
AcDbVertex
100
AcDbPolyFaceMeshVertex
 10
0.3780732241521889
 20
-1.063580274581908
 30
9.633594503247962
 70
   192
  0
VERTEX
  5
E68
330
E15
100
AcDbEntity
  8
0
 62
     7
100
AcDbVertex
100
AcDbPolyFaceMeshVertex
 10
0.1271605578313872
 20
-2.0
 30
9.633594503247962
 70
   192
  0
VERTEX
  5
E69
330
E15
100
AcDbEntity
  8
0
 62
     7
100
AcDbVertex
100
AcDbPolyFaceMeshVertex
 10
0.3780732241521889
 20
-2.936419725418089
 30
9.633594503247962
 70
   192
  0
VERTEX
  5
E6A
330
E15
100
AcDbEntity
  8
0
 62
     7
100
AcDbVertex
100
AcDbPolyFaceMeshVertex
 10
3.62192631634579
 20
-1.063580274581908
 30
9.633594503247962
 70
   192
  0
VERTEX
  5
E6B
330
E15
100
AcDbEntity
  8
0
 62
     7
100
AcDbVertex
100
AcDbPolyFaceMeshVertex
 10
3.872838982666591
 20
-2.0
 30
9.633594503247962
 70
   192
  0
VERTEX
  5
E6C
330
E15
100
AcDbEntity
  8
0
 62
     7
100
AcDbVertex
100
AcDbPolyFaceMeshVertex
 10
3.4532489863287
 20
-3.479963779449461
 30
9.514049520337803
 70
   192
  0
VERTEX
  5
E6D
330
E15
100
AcDbEntity
  8
0
 62
     7
100
AcDbVertex
100
AcDbPolyFaceMeshVertex
 10
2.936419495667081
 20
-3.621926546096801
 30
9.633594503247962
 70
   192
  0
VERTEX
  5
E6E
330
E15
100
AcDbEntity
  8
0
 62
     7
100
AcDbVertex
100
AcDbPolyFaceMeshVertex
 10
3.62192631634579
 20
-2.936419725418089
 30
9.633594503247962
 70
   192
  0
VERTEX
  5
E6F
330
E15
100
AcDbEntity
  8
0
 62
     7
100
AcDbVertex
100
AcDbPolyFaceMeshVertex
 10
1.063580521668058
 20
-3.621926546096801
 30
9.633594503247962
 70
   192
  0
VERTEX
  5
E70
330
E15
100
AcDbEntity
  8
0
 62
     7
100
AcDbVertex
100
AcDbPolyFaceMeshVertex
 10
2.000000008667569
 20
-3.872839450836181
 30
9.633594503247962
 70
   192
  0
VERTEX
  5
E71
330
E15
100
AcDbEntity
  8
0
 62
     7
100
AcDbVertex
100
AcDbPolyFaceMeshVertex
 10
0.5467505541692788
 20
-3.479963779449461
 30
9.514049520337803
 70
   192
  0
VERTEX
  5
E72
330
E15
100
AcDbEntity
  8
0
 62
     7
100
AcDbVertex
100
AcDbPolyFaceMeshVertex
 10
2.324571618164638
 20
-3.736304283142088
 30
25.14422797187589
 70
   192
  0
VERTEX
  5
E73
330
E15
100
AcDbEntity
  8
0
 62
     7
100
AcDbVertex
100
AcDbPolyFaceMeshVertex
 10
2.000000008667569
 20
-3.578653335571288
 30
25.0790834329965
 70
   192
  0
VERTEX
  5
E74
330
E15
100
AcDbEntity
  8
0
 62
     7
100
AcDbVertex
100
AcDbPolyFaceMeshVertex
 10
0.8099970904241615
 20
-0.694629192352295
 30
25.14422797187589
 70
   192
  0
VERTEX
  5
E75
330
E15
100
AcDbEntity
  8
0
 62
     7
100
AcDbVertex
100
AcDbPolyFaceMeshVertex
 10
0.4188008395086343
 20
-1.212656497955322
 30
25.14422797187589
 70
   192
  0
VERTEX
  5
E76
330
E15
100
AcDbEntity
  8
0
 62
     7
100
AcDbVertex
100
AcDbPolyFaceMeshVertex
 10
1.675428399170497
 20
-3.736304283142088
 30
25.14422797187589
 70
   192
  0
VERTEX
  5
E77
330
E15
100
AcDbEntity
  8
0
 62
     7
100
AcDbVertex
100
AcDbPolyFaceMeshVertex
 10
0.5903978434454018
 20
-3.064481973648071
 30
25.14422797187589
 70
   192
  0
VERTEX
  5
E78
330
E15
100
AcDbEntity
  8
0
 62
     7
100
AcDbVertex
100
AcDbPolyFaceMeshVertex
 10
1.210673340881923
 20
-3.367153882980346
 30
25.0790834329965
 70
   192
  0
VERTEX
  5
E79
330
E15
100
AcDbEntity
  8
0
 62
     7
100
AcDbVertex
100
AcDbPolyFaceMeshVertex
 10
1.07012082012997
 20
-3.501806735992431
 30
25.14422797187589
 70
   192
  0
VERTEX
  5
E7A
330
E15
100
AcDbEntity
  8
0
 62
     7
100
AcDbVertex
100
AcDbPolyFaceMeshVertex
 10
0.632845887268644
 20
-2.789326667785644
 30
25.0790834329965
 70
   192
  0
VERTEX
  5
E7B
330
E15
100
AcDbEntity
  8
0
 62
     7
100
AcDbVertex
100
AcDbPolyFaceMeshVertex
 10
0.632845887268644
 20
-1.210673332214355
 30
25.0790834329965
 70
   192
  0
VERTEX
  5
E7C
330
E15
100
AcDbEntity
  8
0
 62
     7
100
AcDbVertex
100
AcDbPolyFaceMeshVertex
 10
1.210673340881923
 20
-0.6328460574150086
 30
25.0790834329965
 70
   192
  0
VERTEX
  5
E7D
330
E15
100
AcDbEntity
  8
0
 62
     7
100
AcDbVertex
100
AcDbPolyFaceMeshVertex
 10
0.2411546793829018
 20
-1.837018966674803
 30
25.14422797187589
 70
   192
  0
VERTEX
  5
E7E
330
E15
100
AcDbEntity
  8
0
 62
     7
100
AcDbVertex
100
AcDbPolyFaceMeshVertex
 10
3.758845337952232
 20
-1.837018966674803
 30
25.14422797187589
 70
   192
  0
VERTEX
  5
E7F
330
E15
100
AcDbEntity
  8
0
 62
     7
100
AcDbVertex
100
AcDbPolyFaceMeshVertex
 10
3.367154130066492
 20
-1.210673332214355
 30
25.0790834329965
 70
   192
  0
VERTEX
  5
E80
330
E15
100
AcDbEntity
  8
0
 62
     7
100
AcDbVertex
100
AcDbPolyFaceMeshVertex
 10
3.581198700989341
 20
-1.212656497955322
 30
25.14422797187589
 70
   192
  0
VERTEX
  5
E81
330
E15
100
AcDbEntity
  8
0
 62
     7
100
AcDbVertex
100
AcDbPolyFaceMeshVertex
 10
3.57865334423886
 20
-2.0
 30
25.0790834329965
 70
   192
  0
VERTEX
  5
E82
330
E15
100
AcDbEntity
  8
0
 62
     7
100
AcDbVertex
100
AcDbPolyFaceMeshVertex
 10
3.698949822510341
 20
-2.48339295387268
 30
25.14422797187589
 70
   192
  0
VERTEX
  5
E83
330
E15
100
AcDbEntity
  8
0
 62
     7
100
AcDbVertex
100
AcDbPolyFaceMeshVertex
 10
3.367154130066492
 20
-2.789326667785644
 30
25.0790834329965
 70
   192
  0
VERTEX
  5
E84
330
E15
100
AcDbEntity
  8
0
 62
     7
100
AcDbVertex
100
AcDbPolyFaceMeshVertex
 10
2.638090142334561
 20
-0.3528993725776672
 30
25.14422797187589
 70
   192
  0
VERTEX
  5
E85
330
E15
100
AcDbEntity
  8
0
 62
     7
100
AcDbVertex
100
AcDbPolyFaceMeshVertex
 10
2.789326676453214
 20
-0.6328460574150086
 30
25.0790834329965
 70
   192
  0
VERTEX
  5
E86
330
E15
100
AcDbEntity
  8
0
 62
     7
100
AcDbVertex
100
AcDbPolyFaceMeshVertex
 10
2.000000008667569
 20
-0.4213466048240663
 30
25.0790834329965
 70
   192
  0
VERTEX
  5
E87
330
E15
100
AcDbEntity
  8
0
 62
     7
100
AcDbVertex
100
AcDbPolyFaceMeshVertex
 10
2.929879197205167
 20
-3.501806735992431
 30
25.14422797187589
 70
   192
  0
VERTEX
  5
E88
330
E15
100
AcDbEntity
  8
0
 62
     7
100
AcDbVertex
100
AcDbPolyFaceMeshVertex
 10
2.789326676453214
 20
-3.367153882980346
 30
25.0790834329965
 70
   192
  0
VERTEX
  5
E89
330
E15
100
AcDbEntity
  8
0
 62
     7
100
AcDbVertex
100
AcDbPolyFaceMeshVertex
 10
2.000000008667569
 20
-0.2336196601390839
 30
25.14422797187589
 70
   192
  0
VERTEX
  5
E8A
330
E15
100
AcDbEntity
  8
0
 62
     7
100
AcDbVertex
100
AcDbPolyFaceMeshVertex
 10
0.4213461962591225
 20
-2.0
 30
25.0790834329965
 70
   192
  0
VERTEX
  5
E8B
330
E15
100
AcDbEntity
  8
0
 62
     7
100
AcDbVertex
100
AcDbPolyFaceMeshVertex
 10
3.409602173889732
 20
-3.064481973648071
 30
25.14422797187589
 70
   192
  0
VERTEX
  5
E8C
330
E15
100
AcDbEntity
  8
0
 62
     7
100
AcDbVertex
100
AcDbPolyFaceMeshVertex
 10
0.3010497179876372
 20
-2.48339295387268
 30
25.14422797187589
 70
   192
  0
VERTEX
  5
E8D
330
E15
100
AcDbEntity
  8
0
 62
     7
100
AcDbVertex
100
AcDbPolyFaceMeshVertex
 10
1.361909875000577
 20
-0.3528993725776672
 30
25.14422797187589
 70
   192
  0
VERTEX
  5
E8E
330
E15
100
AcDbEntity
  8
0
 62
     7
100
AcDbVertex
100
AcDbPolyFaceMeshVertex
 10
3.190002450073821
 20
-0.694629192352295
 30
25.14422797187589
 70
   192
  0
VERTEX
  5
E8F
330
E15
100
AcDbEntity
  8
0
 62
     7
100
AcDbVertex
100
AcDbPolyFaceMeshVertex
 10
1.375000008667567
 20
-0.9174682497978208
 30
-0.0000000096914903
 70
   192
  0
VERTEX
  5
E90
330
E15
100
AcDbEntity
  8
0
 62
     7
100
AcDbVertex
100
AcDbPolyFaceMeshVertex
 10
3.082531937683681
 20
-1.375
 30
-0.0000000096914903
 70
   192
  0
VERTEX
  5
E91
330
E15
100
AcDbEntity
  8
0
 62
     7
100
AcDbVertex
100
AcDbPolyFaceMeshVertex
 10
0.9174680796514564
 20
-1.375
 30
-0.0000000096914903
 70
   192
  0
VERTEX
  5
E92
330
E15
100
AcDbEntity
  8
0
 62
     7
100
AcDbVertex
100
AcDbPolyFaceMeshVertex
 10
2.625000008667569
 20
-0.9174682497978208
 30
-0.0000000096914903
 70
   192
  0
VERTEX
  5
E93
330
E15
100
AcDbEntity
  8
0
 62
     7
100
AcDbVertex
100
AcDbPolyFaceMeshVertex
 10
2.000000008667569
 20
-0.75
 30
-0.0000000096914903
 70
   192
  0
VERTEX
  5
E94
330
E15
100
AcDbEntity
  8
0
 62
     7
100
AcDbVertex
100
AcDbPolyFaceMeshVertex
 10
3.250000008667571
 20
-2.0
 30
-0.0000000096914903
 70
   192
  0
VERTEX
  5
E95
330
E15
100
AcDbEntity
  8
0
 62
     7
100
AcDbVertex
100
AcDbPolyFaceMeshVertex
 10
0.7500000086675689
 20
-2.0
 30
-0.0000000096914903
 70
   192
  0
VERTEX
  5
E96
330
E15
100
AcDbEntity
  8
0
 62
     7
100
AcDbVertex
100
AcDbPolyFaceMeshVertex
 10
1.375000008667567
 20
-3.082531690597533
 30
-0.0000000096914903
 70
   192
  0
VERTEX
  5
E97
330
E15
100
AcDbEntity
  8
0
 62
     7
100
AcDbVertex
100
AcDbPolyFaceMeshVertex
 10
0.9174680796514564
 20
-2.625
 30
-0.0000000096914903
 70
   192
  0
VERTEX
  5
E98
330
E15
100
AcDbEntity
  8
0
 62
     7
100
AcDbVertex
100
AcDbPolyFaceMeshVertex
 10
2.000000008667569
 20
-3.25
 30
-0.0000000096914903
 70
   192
  0
VERTEX
  5
E99
330
E15
100
AcDbEntity
  8
0
 62
     7
100
AcDbVertex
100
AcDbPolyFaceMeshVertex
 10
2.625000008667569
 20
-3.082531690597533
 30
-0.0000000096914903
 70
   192
  0
VERTEX
  5
E9A
330
E15
100
AcDbEntity
  8
0
 62
     7
100
AcDbVertex
100
AcDbPolyFaceMeshVertex
 10
3.082531937683681
 20
-2.625
 30
-0.0000000096914903
 70
   192
  0
VERTEX
  5
E9B
330
E15
100
AcDbEntity
  8
0
 62
     7
100
AcDbVertex
100
AcDbPolyFaceMeshVertex
 10
3.534738549316982
 20
-1.534442067146301
 30
0.299690236890541
 70
   192
  0
VERTEX
  5
E9C
330
E15
100
AcDbEntity
  8
0
 62
     7
100
AcDbVertex
100
AcDbPolyFaceMeshVertex
 10
3.83919812115536
 20
-2.0
 30
0.736347188794845
 70
   192
  0
VERTEX
  5
E9D
330
E15
100
AcDbEntity
  8
0
 62
     7
100
AcDbVertex
100
AcDbPolyFaceMeshVertex
 10
3.840832718933681
 20
-1.441589474678038
 30
1.09831236823819
 70
   192
  0
VERTEX
  5
E9E
330
E15
100
AcDbEntity
  8
0
 62
     7
100
AcDbVertex
100
AcDbPolyFaceMeshVertex
 10
3.946701058472251
 20
-2.0
 30
1.688125600660072
 70
   192
  0
VERTEX
  5
E9F
330
E15
100
AcDbEntity
  8
0
 62
     7
100
AcDbVertex
100
AcDbPolyFaceMeshVertex
 10
3.60343266400204
 20
-0.9286203384399414
 30
1.980957021558509
 70
   192
  0
VERTEX
  5
EA0
330
E15
100
AcDbEntity
  8
0
 62
     7
100
AcDbVertex
100
AcDbPolyFaceMeshVertex
 10
3.599469193543052
 20
-0.9312689304351804
 30
1.09831236823819
 70
   192
  0
VERTEX
  5
EA1
330
E15
100
AcDbEntity
  8
0
 62
     7
100
AcDbVertex
100
AcDbPolyFaceMeshVertex
 10
3.223383912170982
 20
-0.5093016028404236
 30
1.980957021558509
 70
   192
  0
VERTEX
  5
EA2
330
E15
100
AcDbEntity
  8
0
 62
     7
100
AcDbVertex
100
AcDbPolyFaceMeshVertex
 10
3.814844140137291
 20
-2.0
 30
2.668573369825111
 70
   192
  0
VERTEX
  5
EA3
330
E15
100
AcDbEntity
  8
0
 62
     7
100
AcDbVertex
100
AcDbPolyFaceMeshVertex
 10
3.708411225403411
 20
-1.481759071350096
 30
2.76679228767179
 70
   192
  0
VERTEX
  5
EA4
330
E15
100
AcDbEntity
  8
0
 62
     7
100
AcDbVertex
100
AcDbPolyFaceMeshVertex
 10
3.343880662048912
 20
-2.0
 30
3.48834990485929
 70
   192
  0
VERTEX
  5
EA5
330
E15
100
AcDbEntity
  8
0
 62
     7
100
AcDbVertex
100
AcDbPolyFaceMeshVertex
 10
3.1636982050787
 20
-1.222441911697387
 30
3.42872237190031
 70
   192
  0
VERTEX
  5
EA6
330
E15
100
AcDbEntity
  8
0
 62
     7
100
AcDbVertex
100
AcDbPolyFaceMeshVertex
 10
3.484410294617271
 20
-1.008148670196532
 30
2.76679228767179
 70
   192
  0
VERTEX
  5
EA7
330
E15
100
AcDbEntity
  8
0
 62
     7
100
AcDbVertex
100
AcDbPolyFaceMeshVertex
 10
2.887876519287685
 20
-0.9181196093559263
 30
3.42872237190031
 70
   192
  0
VERTEX
  5
EA8
330
E15
100
AcDbEntity
  8
0
 62
     7
100
AcDbVertex
100
AcDbPolyFaceMeshVertex
 10
2.174988755310634
 20
-0.2233114540576935
 30
2.76679228767179
 70
   192
  0
VERTEX
  5
EA9
330
E15
100
AcDbEntity
  8
0
 62
     7
100
AcDbVertex
100
AcDbPolyFaceMeshVertex
 10
2.683198937500577
 20
-0.3506115674972534
 30
2.76679228767179
 70
   192
  0
VERTEX
  5
EAA
330
E15
100
AcDbEntity
  8
0
 62
     7
100
AcDbVertex
100
AcDbPolyFaceMeshVertex
 10
2.737978943909268
 20
-0.2183607667684555
 30
1.980957021558509
 70
   192
  0
VERTEX
  5
EAB
330
E15
100
AcDbEntity
  8
0
 62
     7
100
AcDbVertex
100
AcDbPolyFaceMeshVertex
 10
3.220359810913661
 20
-0.5129867792129517
 30
1.09831236823819
 70
   192
  0
VERTEX
  5
EAC
330
E15
100
AcDbEntity
  8
0
 62
     7
100
AcDbVertex
100
AcDbPolyFaceMeshVertex
 10
3.333508500183681
 20
-1.108977675437927
 30
0.299690236890541
 70
   192
  0
VERTEX
  5
EAD
330
E15
100
AcDbEntity
  8
0
 62
     7
100
AcDbVertex
100
AcDbPolyFaceMeshVertex
 10
3.512051591003992
 20
-0.9896795153617857
 30
0.6783981226327214
 70
   192
  0
VERTEX
  5
EAE
330
E15
100
AcDbEntity
  8
0
 62
     7
100
AcDbVertex
100
AcDbPolyFaceMeshVertex
 10
3.153662690247161
 20
-0.594258189201355
 30
0.6783981226327214
 70
   192
  0
VERTEX
  5
EAF
330
E15
100
AcDbEntity
  8
0
 62
     7
100
AcDbVertex
100
AcDbPolyFaceMeshVertex
 10
2.736154564941983
 20
-0.2227652221918106
 30
1.09831236823819
 70
   192
  0
VERTEX
  5
EB0
330
E15
100
AcDbEntity
  8
0
 62
     7
100
AcDbVertex
100
AcDbPolyFaceMeshVertex
 10
3.132573136414151
 20
-0.6199558973312378
 30
2.76679228767179
 70
   192
  0
VERTEX
  5
EB1
330
E15
100
AcDbEntity
  8
0
 62
     7
100
AcDbVertex
100
AcDbPolyFaceMeshVertex
 10
1.328059205139737
 20
-0.8361647129058836
 30
3.48834990485929
 70
   192
  0
VERTEX
  5
EB2
330
E15
100
AcDbEntity
  8
0
 62
     7
100
AcDbVertex
100
AcDbPolyFaceMeshVertex
 10
1.72695732983456
 20
-0.627324640750885
 30
3.42872237190031
 70
   192
  0
VERTEX
  5
EB3
330
E15
100
AcDbEntity
  8
0
 62
     7
100
AcDbVertex
100
AcDbPolyFaceMeshVertex
 10
1.340248116577724
 20
-0.7656915187835695
 30
3.42872237190031
 70
   192
  0
VERTEX
  5
EB4
330
E15
100
AcDbEntity
  8
0
 62
     7
100
AcDbVertex
100
AcDbPolyFaceMeshVertex
 10
1.651707657898526
 20
-0.2490185797214508
 30
2.76679228767179
 70
   192
  0
VERTEX
  5
EB5
330
E15
100
AcDbEntity
  8
0
 62
     7
100
AcDbVertex
100
AcDbPolyFaceMeshVertex
 10
2.189019211853604
 20
-0.0808535218238831
 30
1.980957021558509
 70
   192
  0
VERTEX
  5
EB6
330
E15
100
AcDbEntity
  8
0
 62
     7
100
AcDbVertex
100
AcDbPolyFaceMeshVertex
 10
2.613746651733976
 20
-0.5182840824127199
 30
0.299690236890541
 70
   192
  0
VERTEX
  5
EB7
330
E15
100
AcDbEntity
  8
0
 62
     7
100
AcDbVertex
100
AcDbPolyFaceMeshVertex
 10
1.624711045349698
 20
-0.1132976189255714
 30
1.09831236823819
 70
   192
  0
VERTEX
  5
EB8
330
E15
100
AcDbEntity
  8
0
 62
     7
100
AcDbVertex
100
AcDbPolyFaceMeshVertex
 10
2.188551911438565
 20
-0.0855979099869728
 30
1.09831236823819
 70
   192
  0
VERTEX
  5
EB9
330
E15
100
AcDbEntity
  8
0
 62
     7
100
AcDbVertex
100
AcDbPolyFaceMeshVertex
 10
2.178246506775478
 20
-0.1902278810739517
 30
0.6783981226327214
 70
   192
  0
VERTEX
  5
EBA
330
E15
100
AcDbEntity
  8
0
 62
     7
100
AcDbVertex
100
AcDbPolyFaceMeshVertex
 10
2.695920952881436
 20
-0.3198984265327454
 30
0.6783981226327214
 70
   192
  0
VERTEX
  5
EBB
330
E15
100
AcDbEntity
  8
0
 62
     7
100
AcDbVertex
100
AcDbPolyFaceMeshVertex
 10
2.137181290711025
 20
-0.6071716547012329
 30
3.42872237190031
 70
   192
  0
VERTEX
  5
EBC
330
E15
100
AcDbEntity
  8
0
 62
     7
100
AcDbVertex
100
AcDbPolyFaceMeshVertex
 10
1.623781212891202
 20
-0.1086218804121017
 30
1.980957021558509
 70
   192
  0
VERTEX
  5
EBD
330
E15
100
AcDbEntity
  8
0
 62
     7
100
AcDbVertex
100
AcDbPolyFaceMeshVertex
 10
1.090943345154384
 20
-0.2992744445800781
 30
1.980957021558509
 70
   192
  0
VERTEX
  5
EBE
330
E15
100
AcDbEntity
  8
0
 62
     7
100
AcDbVertex
100
AcDbPolyFaceMeshVertex
 10
2.000000008667569
 20
-0.6561188101768494
 30
3.48834990485929
 70
   192
  0
VERTEX
  5
EBF
330
E15
100
AcDbEntity
  8
0
 62
     7
100
AcDbVertex
100
AcDbPolyFaceMeshVertex
 10
1.010355958069423
 20
-1.010356187820434
 30
3.42872237190031
 70
   192
  0
VERTEX
  5
EC0
330
E15
100
AcDbEntity
  8
0
 62
     7
100
AcDbVertex
100
AcDbPolyFaceMeshVertex
 10
1.093190201843839
 20
-0.303478866815567
 30
1.09831236823819
 70
   192
  0
VERTEX
  5
EC1
330
E15
100
AcDbEntity
  8
0
 62
     7
100
AcDbVertex
100
AcDbPolyFaceMeshVertex
 10
1.645222672546964
 20
-0.2164136916399002
 30
0.6783981226327214
 70
   192
  0
VERTEX
  5
EC2
330
E15
100
AcDbEntity
  8
0
 62
     7
100
AcDbVertex
100
AcDbPolyFaceMeshVertex
 10
2.157199868286708
 20
-0.4039249420166017
 30
0.299690236890541
 70
   192
  0
VERTEX
  5
EC3
330
E15
100
AcDbEntity
  8
0
 62
     7
100
AcDbVertex
100
AcDbPolyFaceMeshVertex
 10
1.142751702393153
 20
-0.3962007462978363
 30
0.6783981226327214
 70
   192
  0
VERTEX
  5
EC4
330
E15
100
AcDbEntity
  8
0
 62
     7
100
AcDbVertex
100
AcDbPolyFaceMeshVertex
 10
0.6363921252141998
 20
-0.63639235496521
 30
1.980957021558509
 70
   192
  0
VERTEX
  5
EC5
330
E15
100
AcDbEntity
  8
0
 62
     7
100
AcDbVertex
100
AcDbPolyFaceMeshVertex
 10
1.158422478760341
 20
-0.4255190491676332
 30
2.76679228767179
 70
   192
  0
VERTEX
  5
EC6
330
E15
100
AcDbEntity
  8
0
 62
     7
100
AcDbVertex
100
AcDbPolyFaceMeshVertex
 10
0.7447657671819741
 20
-1.380987048149107
 30
3.42872237190031
 70
   192
  0
VERTEX
  5
EC7
330
E15
100
AcDbEntity
  8
0
 62
     7
100
AcDbVertex
100
AcDbPolyFaceMeshVertex
 10
0.8361644831548735
 20
-1.328059434890747
 30
3.48834990485929
 70
   192
  0
VERTEX
  5
EC8
330
E15
100
AcDbEntity
  8
0
 62
     7
100
AcDbVertex
100
AcDbPolyFaceMeshVertex
 10
0.737612732971769
 20
-0.7376127243041993
 30
2.76679228767179
 70
   192
  0
VERTEX
  5
EC9
330
E15
100
AcDbEntity
  8
0
 62
     7
100
AcDbVertex
100
AcDbPolyFaceMeshVertex
 10
0.6397633639226968
 20
-0.6397634148597719
 30
1.09831236823819
 70
   192
  0
VERTEX
  5
ECA
330
E15
100
AcDbEntity
  8
0
 62
     7
100
AcDbVertex
100
AcDbPolyFaceMeshVertex
 10
0.2704415408025786
 20
-1.14707612991333
 30
1.980957021558509
 70
   192
  0
VERTEX
  5
ECB
330
E15
100
AcDbEntity
  8
0
 62
     7
100
AcDbVertex
100
AcDbPolyFaceMeshVertex
 10
1.243974694336513
 20
-0.5855766534805298
 30
0.299690236890541
 70
   192
  0
VERTEX
  5
ECC
330
E15
100
AcDbEntity
  8
0
 62
     7
100
AcDbVertex
100
AcDbPolyFaceMeshVertex
 10
0.7141056147466714
 20
-0.7141059041023256
 30
0.6783981226327214
 70
   192
  0
VERTEX
  5
ECD
330
E15
100
AcDbEntity
  8
0
 62
     7
100
AcDbVertex
100
AcDbPolyFaceMeshVertex
 10
0.2747168627630288
 20
-1.149184703826904
 30
1.09831236823819
 70
   192
  0
VERTEX
  5
ECE
330
E15
100
AcDbEntity
  8
0
 62
     7
100
AcDbVertex
100
AcDbPolyFaceMeshVertex
 10
0.3690109339605385
 20
-1.195685267448425
 30
0.6783981226327214
 70
   192
  0
VERTEX
  5
ECF
330
E15
100
AcDbEntity
  8
0
 62
     7
100
AcDbVertex
100
AcDbPolyFaceMeshVertex
 10
0.0927920428167388
 20
-1.748911380767821
 30
1.09831236823819
 70
   192
  0
VERTEX
  5
ED0
330
E15
100
AcDbEntity
  8
0
 62
     7
100
AcDbVertex
100
AcDbPolyFaceMeshVertex
 10
0.3988261309515026
 20
-1.210388541221617
 30
2.76679228767179
 70
   192
  0
VERTEX
  5
ED1
330
E15
100
AcDbEntity
  8
0
 62
     7
100
AcDbVertex
100
AcDbPolyFaceMeshVertex
 10
0.2299881068121001
 20
-1.766973495483398
 30
2.76679228767179
 70
   192
  0
VERTEX
  5
ED2
330
E15
100
AcDbEntity
  8
0
 62
     7
100
AcDbVertex
100
AcDbPolyFaceMeshVertex
 10
0.6124057856451089
 20
-1.817319750785826
 30
3.42872237190031
 70
   192
  0
VERTEX
  5
ED3
330
E15
100
AcDbEntity
  8
0
 62
     7
100
AcDbVertex
100
AcDbPolyFaceMeshVertex
 10
0.6561184016119049
 20
-2.0
 30
3.48834990485929
 70
   192
  0
VERTEX
  5
ED4
330
E15
100
AcDbEntity
  8
0
 62
     7
100
AcDbVertex
100
AcDbPolyFaceMeshVertex
 10
0.8659434405218178
 20
-0.8659437298774719
 30
0.299690236890541
 70
   192
  0
VERTEX
  5
ED5
330
E15
100
AcDbEntity
  8
0
 62
     7
100
AcDbVertex
100
AcDbPolyFaceMeshVertex
 10
0.5615973559270904
 20
-1.290658354759215
 30
0.299690236890541
 70
   192
  0
VERTEX
  5
ED6
330
E15
100
AcDbEntity
  8
0
 62
     7
100
AcDbVertex
100
AcDbPolyFaceMeshVertex
 10
0.1970286455999428
 20
-1.762634396553038
 30
0.6783981226327214
 70
   192
  0
VERTEX
  5
ED7
330
E15
100
AcDbEntity
  8
0
 62
     7
100
AcDbVertex
100
AcDbPolyFaceMeshVertex
 10
0.1132974711309487
 20
-2.375288486480712
 30
1.09831236823819
 70
   192
  0
VERTEX
  5
ED8
330
E15
100
AcDbEntity
  8
0
 62
     7
100
AcDbVertex
100
AcDbPolyFaceMeshVertex
 10
0.0880656329046277
 20
-1.748289108276367
 30
1.980957021558509
 70
   192
  0
VERTEX
  5
ED9
330
E15
100
AcDbEntity
  8
0
 62
     7
100
AcDbVertex
100
AcDbPolyFaceMeshVertex
 10
0.2490182009588286
 20
-2.348291873931884
 30
2.76679228767179
 70
   192
  0
VERTEX
  5
EDA
330
E15
100
AcDbEntity
  8
0
 62
     7
100
AcDbVertex
100
AcDbPolyFaceMeshVertex
 10
1.07720089825497
 20
-3.052250623703001
 30
3.42872237190031
 70
   192
  0
VERTEX
  5
EDB
330
E15
100
AcDbEntity
  8
0
 62
     7
100
AcDbVertex
100
AcDbPolyFaceMeshVertex
 10
0.7879386034856842
 20
-2.69978380203247
 30
3.42872237190031
 70
   192
  0
VERTEX
  5
EDC
330
E15
100
AcDbEntity
  8
0
 62
     7
100
AcDbVertex
100
AcDbPolyFaceMeshVertex
 10
0.4538974848638589
 20
-2.892642498016357
 30
2.76679228767179
 70
   192
  0
VERTEX
  5
EDD
330
E15
100
AcDbEntity
  8
0
 62
     7
100
AcDbVertex
100
AcDbPolyFaceMeshVertex
 10
0.1086216059576088
 20
-2.376218557357788
 30
1.980957021558509
 70
   192
  0
VERTEX
  5
EDE
330
E15
100
AcDbEntity
  8
0
 62
     7
100
AcDbVertex
100
AcDbPolyFaceMeshVertex
 10
0.2164135065923736
 20
-2.354777336120605
 30
0.6783981226327214
 70
   192
  0
VERTEX
  5
EDF
330
E15
100
AcDbEntity
  8
0
 62
     7
100
AcDbVertex
100
AcDbPolyFaceMeshVertex
 10
0.3340568629156166
 20
-2.961832523345946
 30
1.09831236823819
 70
   192
  0
VERTEX
  5
EE0
330
E15
100
AcDbEntity
  8
0
 62
     7
100
AcDbVertex
100
AcDbPolyFaceMeshVertex
 10
0.4251074877630288
 20
-2.909264326095581
 30
0.6783981226327214
 70
   192
  0
VERTEX
  5
EE1
330
E15
100
AcDbEntity
  8
0
 62
     7
100
AcDbVertex
100
AcDbPolyFaceMeshVertex
 10
0.427018651093106
 20
-2.312885522842406
 30
0.299690236890541
 70
   192
  0
VERTEX
  5
EE2
330
E15
100
AcDbEntity
  8
0
 62
     7
100
AcDbVertex
100
AcDbPolyFaceMeshVertex
 10
0.329928406799894
 20
-2.964216232299803
 30
1.980957021558509
 70
   192
  0
VERTEX
  5
EE3
330
E15
100
AcDbEntity
  8
0
 62
     7
100
AcDbVertex
100
AcDbPolyFaceMeshVertex
 10
0.7284960833440835
 20
-3.449872255325316
 30
1.980957021558509
 70
   192
  0
VERTEX
  5
EE4
330
E15
100
AcDbEntity
  8
0
 62
     7
100
AcDbVertex
100
AcDbPolyFaceMeshVertex
 10
1.88323689373837
 20
-3.781462669372558
 30
2.76679228767179
 70
   192
  0
VERTEX
  5
EE5
330
E15
100
AcDbEntity
  8
0
 62
     7
100
AcDbVertex
100
AcDbPolyFaceMeshVertex
 10
1.31680107983456
 20
-3.649388551712036
 30
2.76679228767179
 70
   192
  0
VERTEX
  5
EE6
330
E15
100
AcDbEntity
  8
0
 62
     7
100
AcDbVertex
100
AcDbPolyFaceMeshVertex
 10
1.26202107342587
 20
-3.781639337539671
 30
1.980957021558509
 70
   192
  0
VERTEX
  5
EE7
330
E15
100
AcDbEntity
  8
0
 62
     7
100
AcDbVertex
100
AcDbPolyFaceMeshVertex
 10
0.7316393938909585
 20
-3.446287870407103
 30
1.09831236823819
 70
   192
  0
VERTEX
  5
EE8
330
E15
100
AcDbEntity
  8
0
 62
     7
100
AcDbVertex
100
AcDbPolyFaceMeshVertex
 10
0.611070164764981
 20
-2.801898956298828
 30
0.299690236890541
 70
   192
  0
VERTEX
  5
EE9
330
E15
100
AcDbEntity
  8
0
 62
     7
100
AcDbVertex
100
AcDbPolyFaceMeshVertex
 10
0.8009605494390541
 20
-3.367242336273193
 30
0.6783981226327214
 70
   192
  0
VERTEX
  5
EEA
330
E15
100
AcDbEntity
  8
0
 62
     7
100
AcDbVertex
100
AcDbPolyFaceMeshVertex
 10
1.263845452393153
 20
-3.77723479270935
 30
1.09831236823819
 70
   192
  0
VERTEX
  5
EEB
330
E15
100
AcDbEntity
  8
0
 62
     7
100
AcDbVertex
100
AcDbPolyFaceMeshVertex
 10
0.8228793230901763
 20
-3.342248439788818
 30
2.76679228767179
 70
   192
  0
VERTEX
  5
EEC
330
E15
100
AcDbEntity
  8
0
 62
     7
100
AcDbVertex
100
AcDbPolyFaceMeshVertex
 10
1.386253365601163
 20
-3.481715917587279
 30
0.299690236890541
 70
   192
  0
VERTEX
  5
EED
330
E15
100
AcDbEntity
  8
0
 62
     7
100
AcDbVertex
100
AcDbPolyFaceMeshVertex
 10
2.415093430603604
 20
-3.549149751663208
 30
0.299690236890541
 70
   192
  0
VERTEX
  5
EEE
330
E15
100
AcDbEntity
  8
0
 62
     7
100
AcDbVertex
100
AcDbPolyFaceMeshVertex
 10
1.895106324280362
 20
-3.600363969802856
 30
0.299690236890541
 70
   192
  0
VERTEX
  5
EEF
330
E15
100
AcDbEntity
  8
0
 62
     7
100
AcDbVertex
100
AcDbPolyFaceMeshVertex
 10
2.470669755066495
 20
-3.756563901901245
 30
0.6783981226327214
 70
   192
  0
VERTEX
  5
EF0
330
E15
100
AcDbEntity
  8
0
 62
     7
100
AcDbVertex
100
AcDbPolyFaceMeshVertex
 10
1.304079064453702
 20
-3.680101633071898
 30
0.6783981226327214
 70
   192
  0
VERTEX
  5
EF1
330
E15
100
AcDbEntity
  8
0
 62
     7
100
AcDbVertex
100
AcDbPolyFaceMeshVertex
 10
1.874186524475673
 20
-3.919546365737915
 30
1.09831236823819
 70
   192
  0
VERTEX
  5
EF2
330
E15
100
AcDbEntity
  8
0
 62
     7
100
AcDbVertex
100
AcDbPolyFaceMeshVertex
 10
1.881062516296964
 20
-3.814635276794433
 30
0.6783981226327214
 70
   192
  0
VERTEX
  5
EF3
330
E15
100
AcDbEntity
  8
0
 62
     7
100
AcDbVertex
100
AcDbPolyFaceMeshVertex
 10
1.87387467297421
 20
-3.924303531646728
 30
1.980957021558509
 70
   192
  0
VERTEX
  5
EF4
330
E15
100
AcDbEntity
  8
0
 62
     7
100
AcDbVertex
100
AcDbPolyFaceMeshVertex
 10
2.499114998901944
 20
-3.862722635269165
 30
1.980957021558509
 70
   192
  0
VERTEX
  5
EF5
330
E15
100
AcDbEntity
  8
0
 62
     7
100
AcDbVertex
100
AcDbPolyFaceMeshVertex
 10
1.908463486755948
 20
-3.396571159362791
 30
3.42872237190031
 70
   192
  0
VERTEX
  5
EF6
330
E15
100
AcDbEntity
  8
0
 62
     7
100
AcDbVertex
100
AcDbPolyFaceMeshVertex
 10
2.362234124268155
 20
-3.351878404617308
 30
3.42872237190031
 70
   192
  0
VERTEX
  5
EF7
330
E15
100
AcDbEntity
  8
0
 62
     7
100
AcDbVertex
100
AcDbPolyFaceMeshVertex
 10
2.000000008667569
 20
-3.343881130218504
 30
3.48834990485929
 70
   192
  0
VERTEX
  5
EF8
330
E15
100
AcDbEntity
  8
0
 62
     7
100
AcDbVertex
100
AcDbPolyFaceMeshVertex
 10
2.777558335388761
 20
-3.163697957992553
 30
3.42872237190031
 70
   192
  0
VERTEX
  5
EF9
330
E15
100
AcDbEntity
  8
0
 62
     7
100
AcDbVertex
100
AcDbPolyFaceMeshVertex
 10
2.671940812195401
 20
-3.163835287094116
 30
3.48834990485929
 70
   192
  0
VERTEX
  5
EFA
330
E15
100
AcDbEntity
  8
0
 62
     7
100
AcDbVertex
100
AcDbPolyFaceMeshVertex
 10
2.462065705383878
 20
-3.724452972412108
 30
2.76679228767179
 70
   192
  0
VERTEX
  5
EFB
330
E15
100
AcDbEntity
  8
0
 62
     7
100
AcDbVertex
100
AcDbPolyFaceMeshVertex
 10
2.497880944336513
 20
-3.858117818832397
 30
1.09831236823819
 70
   192
  0
VERTEX
  5
EFC
330
E15
100
AcDbEntity
  8
0
 62
     7
100
AcDbVertex
100
AcDbPolyFaceMeshVertex
 10
3.068731316650971
 20
-3.599468946456908
 30
1.09831236823819
 70
   192
  0
VERTEX
  5
EFD
330
E15
100
AcDbEntity
  8
0
 62
     7
100
AcDbVertex
100
AcDbPolyFaceMeshVertex
 10
2.991850861633881
 20
-3.484410285949707
 30
2.76679228767179
 70
   192
  0
VERTEX
  5
EFE
330
E15
100
AcDbEntity
  8
0
 62
     7
100
AcDbVertex
100
AcDbPolyFaceMeshVertex
 10
3.110351571167571
 20
-2.8520028591156
 30
3.42872237190031
 70
   192
  0
VERTEX
  5
EFF
330
E15
100
AcDbEntity
  8
0
 62
     7
100
AcDbVertex
100
AcDbPolyFaceMeshVertex
 10
3.163835534180261
 20
-2.671940565109252
 30
3.48834990485929
 70
   192
  0
VERTEX
  5
F00
330
E15
100
AcDbEntity
  8
0
 62
     7
100
AcDbVertex
100
AcDbPolyFaceMeshVertex
 10
3.27237797650204
 20
-2.976330280303955
 30
0.299690236890541
 70
   192
  0
VERTEX
  5
F01
330
E15
100
AcDbEntity
  8
0
 62
     7
100
AcDbVertex
100
AcDbPolyFaceMeshVertex
 10
2.891021737183194
 20
-3.33350920677185
 30
0.299690236890541
 70
   192
  0
VERTEX
  5
F02
330
E15
100
AcDbEntity
  8
0
 62
     7
100
AcDbVertex
100
AcDbPolyFaceMeshVertex
 10
3.010320672119709
 20
-3.512051343917846
 30
0.6783981226327214
 70
   192
  0
VERTEX
  5
F03
330
E15
100
AcDbEntity
  8
0
 62
     7
100
AcDbVertex
100
AcDbPolyFaceMeshVertex
 10
3.526145943726161
 20
-3.171053171157836
 30
1.09831236823819
 70
   192
  0
VERTEX
  5
F04
330
E15
100
AcDbEntity
  8
0
 62
     7
100
AcDbVertex
100
AcDbPolyFaceMeshVertex
 10
3.071379670227631
 20
-3.603432893753051
 30
1.980957021558509
 70
   192
  0
VERTEX
  5
F05
330
E15
100
AcDbEntity
  8
0
 62
     7
100
AcDbVertex
100
AcDbPolyFaceMeshVertex
 10
3.416361817444421
 20
-3.086812734603881
 30
2.76679228767179
 70
   192
  0
VERTEX
  5
F06
330
E15
100
AcDbEntity
  8
0
 62
     7
100
AcDbVertex
100
AcDbPolyFaceMeshVertex
 10
3.61422253521786
 20
-2.0
 30
0.312129964673737
 70
   192
  0
VERTEX
  5
F07
330
E15
100
AcDbEntity
  8
0
 62
     7
100
AcDbVertex
100
AcDbPolyFaceMeshVertex
 10
3.518684395874601
 20
-2.51552391052246
 30
0.299690236890541
 70
   192
  0
VERTEX
  5
F08
330
E15
100
AcDbEntity
  8
0
 62
     7
100
AcDbVertex
100
AcDbPolyFaceMeshVertex
 10
3.442735680664641
 20
-3.10705018043518
 30
0.6783981226327214
 70
   192
  0
VERTEX
  5
F09
330
E15
100
AcDbEntity
  8
0
 62
     7
100
AcDbVertex
100
AcDbPolyFaceMeshVertex
 10
3.821576127136813
 20
-2.618341922760009
 30
1.09831236823819
 70
   192
  0
VERTEX
  5
F0A
330
E15
100
AcDbEntity
  8
0
 62
     7
100
AcDbVertex
100
AcDbPolyFaceMeshVertex
 10
3.52992821606503
 20
-3.173955202102661
 30
1.980957021558509
 70
   192
  0
VERTEX
  5
F0B
330
E15
100
AcDbEntity
  8
0
 62
     7
100
AcDbVertex
100
AcDbPolyFaceMeshVertex
 10
3.690540322388271
 20
-2.573861122131346
 30
2.76679228767179
 70
   192
  0
VERTEX
  5
F0C
330
E15
100
AcDbEntity
  8
0
 62
     7
100
AcDbVertex
100
AcDbPolyFaceMeshVertex
 10
0.8361644831548735
 20
-2.671940565109252
 30
3.48834990485929
 70
   192
  0
VERTEX
  5
F0D
330
E15
100
AcDbEntity
  8
0
 62
     7
100
AcDbVertex
100
AcDbPolyFaceMeshVertex
 10
1.328059205139737
 20
-3.163835287094116
 30
3.48834990485929
 70
   192
  0
VERTEX
  5
F0E
330
E15
100
AcDbEntity
  8
0
 62
     7
100
AcDbVertex
100
AcDbPolyFaceMeshVertex
 10
1.687114724243741
 20
-0.4270187616348268
 30
0.299690236890541
 70
   192
  0
VERTEX
  5
F0F
330
E15
100
AcDbEntity
  8
0
 62
     7
100
AcDbVertex
100
AcDbPolyFaceMeshVertex
 10
3.163835534180261
 20
-1.328059434890747
 30
3.48834990485929
 70
   192
  0
VERTEX
  5
F10
330
E15
100
AcDbEntity
  8
0
 62
     7
100
AcDbVertex
100
AcDbPolyFaceMeshVertex
 10
2.671940812195401
 20
-0.8361647129058836
 30
3.48834990485929
 70
   192
  0
VERTEX
  5
F11
330
E15
100
AcDbEntity
  8
0
 62
     7
100
AcDbVertex
100
AcDbPolyFaceMeshVertex
 10
0.9425425616155678
 20
-3.205799102783203
 30
0.299690236890541
 70
   192
  0
VERTEX
  5
F12
330
E15
100
AcDbEntity
  8
0
 62
     7
100
AcDbVertex
100
AcDbPolyFaceMeshVertex
 10
0.4099226084600494
 20
-1.790662407875061
 30
0.299690236890541
 70
   192
  0
VERTEX
  5
F13
330
E15
100
AcDbEntity
  8
0
 62
     7
100
AcDbVertex
100
AcDbPolyFaceMeshVertex
 10
3.017437943543061
 20
-0.7602475285530092
 30
0.299690236890541
 70
   192
  0
VERTEX
  5
F14
330
E15
100
AcDbEntity
  8
0
 62
     7
100
AcDbVertex
100
AcDbPolyFaceMeshVertex
 10
3.740222939575771
 20
-1.472108960151671
 30
0.6783981226327214
 70
   192
  0
VERTEX
  5
F15
330
E15
100
AcDbEntity
  8
0
 62
     7
100
AcDbVertex
100
AcDbPolyFaceMeshVertex
 10
3.845394143189052
 20
-1.440205574035643
 30
1.980957021558509
 70
   192
  0
VERTEX
  5
F16
330
E15
100
AcDbEntity
  8
0
 62
     7
100
AcDbVertex
100
AcDbPolyFaceMeshVertex
 10
3.339302071655851
 20
-1.593726992607115
 30
3.42872237190031
 70
   192
  0
VERTEX
  5
F17
330
E15
100
AcDbEntity
  8
0
 62
     7
100
AcDbVertex
100
AcDbPolyFaceMeshVertex
 10
2.535591134155849
 20
-0.7069681286811829
 30
3.42872237190031
 70
   192
  0
VERTEX
  5
F18
330
E15
100
AcDbEntity
  8
0
 62
     7
100
AcDbVertex
100
AcDbPolyFaceMeshVertex
 10
0.6273245898138092
 20
-2.273042201995849
 30
3.42872237190031
 70
   192
  0
VERTEX
  5
F19
330
E15
100
AcDbEntity
  8
0
 62
     7
100
AcDbVertex
100
AcDbPolyFaceMeshVertex
 10
1.464408883179288
 20
-3.293031930923461
 30
3.42872237190031
 70
   192
  0
VERTEX
  5
F1A
330
E15
100
AcDbEntity
  8
0
 62
     7
100
AcDbVertex
100
AcDbPolyFaceMeshVertex
 10
3.325292595947841
 20
-2.449876308441162
 30
3.42872237190031
 70
   192
  0
VERTEX
  5
F1B
330
E15
100
AcDbEntity
  8
0
 62
     7
100
AcDbVertex
100
AcDbPolyFaceMeshVertex
 10
3.826090821350669
 20
-2.619874238967895
 30
1.980957021558509
 70
   192
  0
VERTEX
  5
F1C
330
E15
100
AcDbEntity
  8
0
 62
     7
100
AcDbVertex
100
AcDbPolyFaceMeshVertex
 10
3.72201920422421
 20
-2.584547042846679
 30
0.6783981226327214
 70
   192
  0
VERTEX
  5
F1D
330
E15
100
AcDbEntity
  8
0
 62
     7
100
AcDbVertex
100
AcDbPolyFaceMeshVertex
 10
2.146903046692472
 20
-0.5553824305534363
 30
21.90859889014983
 70
   192
  0
VERTEX
  5
F1E
330
E15
100
AcDbEntity
  8
0
 62
     7
100
AcDbVertex
100
AcDbPolyFaceMeshVertex
 10
2.968750008667569
 20
-0.3220757842063904
 30
24.50638293250822
 70
   192
  0
VERTEX
  5
F1F
330
E15
100
AcDbEntity
  8
0
 62
     7
100
AcDbVertex
100
AcDbPolyFaceMeshVertex
 10
2.292299279297454
 20
-0.5776562094688416
 30
21.90859889014983
 70
   192
  0
VERTEX
  5
F20
330
E15
100
AcDbEntity
  8
0
 62
     7
100
AcDbVertex
100
AcDbPolyFaceMeshVertex
 10
2.829520234192472
 20
-0.808195948600769
 30
21.90859889014983
 70
   192
  0
VERTEX
  5
F21
330
E15
100
AcDbEntity
  8
0
 62
     7
100
AcDbVertex
100
AcDbPolyFaceMeshVertex
 10
3.677924164856531
 20
-1.03125
 30
24.50638293250822
 70
   192
  0
VERTEX
  5
F22
330
E15
100
AcDbEntity
  8
0
 62
     7
100
AcDbVertex
100
AcDbPolyFaceMeshVertex
 10
2.945837029541593
 20
-0.8982318639755249
 30
21.90859889014983
 70
   192
  0
VERTEX
  5
F23
330
E15
100
AcDbEntity
  8
0
 62
     7
100
AcDbVertex
100
AcDbPolyFaceMeshVertex
 10
3.303672799194911
 20
-1.360517859458922
 30
21.90859889014983
 70
   192
  0
VERTEX
  5
F24
330
E15
100
AcDbEntity
  8
0
 62
     7
100
AcDbVertex
100
AcDbPolyFaceMeshVertex
 10
3.937500008667571
 20
-2.0
 30
24.50638293250822
 70
   192
  0
VERTEX
  5
F25
330
E15
100
AcDbEntity
  8
0
 62
     7
100
AcDbVertex
100
AcDbPolyFaceMeshVertex
 10
3.361679085816001
 20
-1.495689272880554
 30
21.90859889014983
 70
   192
  0
VERTEX
  5
F26
330
E15
100
AcDbEntity
  8
0
 62
     7
100
AcDbVertex
100
AcDbPolyFaceMeshVertex
 10
3.450203904236412
 20
-2.073545932769774
 30
21.90859889014983
 70
   192
  0
VERTEX
  5
F27
330
E15
100
AcDbEntity
  8
0
 62
     7
100
AcDbVertex
100
AcDbPolyFaceMeshVertex
 10
3.677924164856531
 20
-2.96875
 30
24.50638293250822
 70
   192
  0
VERTEX
  5
F28
330
E15
100
AcDbEntity
  8
0
 62
     7
100
AcDbVertex
100
AcDbPolyFaceMeshVertex
 10
3.43532277020321
 20
-2.219883441925048
 30
21.90859889014983
 70
   192
  0
VERTEX
  5
F29
330
E15
100
AcDbEntity
  8
0
 62
     7
100
AcDbVertex
100
AcDbPolyFaceMeshVertex
 10
3.232288369263271
 20
-2.768091440200805
 30
21.90859889014983
 70
   192
  0
VERTEX
  5
F2A
330
E15
100
AcDbEntity
  8
0
 62
     7
100
AcDbVertex
100
AcDbPolyFaceMeshVertex
 10
2.968750008667569
 20
-3.677924156188963
 30
24.50638293250822
 70
   192
  0
VERTEX
  5
F2B
330
E15
100
AcDbEntity
  8
0
 62
     7
100
AcDbVertex
100
AcDbPolyFaceMeshVertex
 10
3.148260125244709
 20
-2.888819217681883
 30
21.90859889014983
 70
   192
  0
VERTEX
  5
F2C
330
E15
100
AcDbEntity
  8
0
 62
     7
100
AcDbVertex
100
AcDbPolyFaceMeshVertex
 10
2.704690941895108
 20
-3.269610404968261
 30
21.90859889014983
 70
   192
  0
VERTEX
  5
F2D
330
E15
100
AcDbEntity
  8
0
 62
     7
100
AcDbVertex
100
AcDbPolyFaceMeshVertex
 10
2.000000008667569
 20
-3.9375
 30
24.50638293250822
 70
   192
  0
VERTEX
  5
F2E
330
E15
100
AcDbEntity
  8
0
 62
     7
100
AcDbVertex
100
AcDbPolyFaceMeshVertex
 10
2.572630890930753
 20
-3.334388971328734
 30
21.90859889014983
 70
   192
  0
VERTEX
  5
F2F
330
E15
100
AcDbEntity
  8
0
 62
     7
100
AcDbVertex
100
AcDbPolyFaceMeshVertex
 10
1.853096970642667
 20
-3.444617509841917
 30
21.90859889014983
 70
   192
  0
VERTEX
  5
F30
330
E15
100
AcDbEntity
  8
0
 62
     7
100
AcDbVertex
100
AcDbPolyFaceMeshVertex
 10
1.031250008667567
 20
-3.677924156188963
 30
24.50638293250822
 70
   192
  0
VERTEX
  5
F31
330
E15
100
AcDbEntity
  8
0
 62
     7
100
AcDbVertex
100
AcDbPolyFaceMeshVertex
 10
1.707700738037685
 20
-3.422343730926513
 30
21.90859889014983
 70
   192
  0
VERTEX
  5
F32
330
E15
100
AcDbEntity
  8
0
 62
     7
100
AcDbVertex
100
AcDbPolyFaceMeshVertex
 10
1.170479783142667
 20
-3.19180417060852
 30
21.90859889014983
 70
   192
  0
VERTEX
  5
F33
330
E15
100
AcDbEntity
  8
0
 62
     7
100
AcDbVertex
100
AcDbPolyFaceMeshVertex
 10
0.3220753756414467
 20
-2.96875
 30
24.50638293250822
 70
   192
  0
VERTEX
  5
F34
330
E15
100
AcDbEntity
  8
0
 62
     7
100
AcDbVertex
100
AcDbPolyFaceMeshVertex
 10
1.054162987793546
 20
-3.101768255233763
 30
21.90859889014983
 70
   192
  0
VERTEX
  5
F35
330
E15
100
AcDbEntity
  8
0
 62
     7
100
AcDbVertex
100
AcDbPolyFaceMeshVertex
 10
0.6963267413030679
 20
-2.639482021331787
 30
21.90859889014983
 70
   192
  0
VERTEX
  5
F36
330
E15
100
AcDbEntity
  8
0
 62
     7
100
AcDbVertex
100
AcDbPolyFaceMeshVertex
 10
0.0625000086675689
 20
-2.0
 30
24.50638293250822
 70
   192
  0
VERTEX
  5
F37
330
E15
100
AcDbEntity
  8
0
 62
     7
100
AcDbVertex
100
AcDbPolyFaceMeshVertex
 10
0.6383204546819741
 20
-2.504310846328734
 30
21.90859889014983
 70
   192
  0
VERTEX
  5
F38
330
E15
100
AcDbEntity
  8
0
 62
     7
100
AcDbVertex
100
AcDbPolyFaceMeshVertex
 10
0.549795636261564
 20
-1.926453948020935
 30
21.90859889014983
 70
   192
  0
VERTEX
  5
F39
330
E15
100
AcDbEntity
  8
0
 62
     7
100
AcDbVertex
100
AcDbPolyFaceMeshVertex
 10
0.3220753756414467
 20
-1.03125
 30
24.50638293250822
 70
   192
  0
VERTEX
  5
F3A
330
E15
100
AcDbEntity
  8
0
 62
     7
100
AcDbVertex
100
AcDbPolyFaceMeshVertex
 10
0.5646767702947662
 20
-1.78011667728424
 30
21.90859889014983
 70
   192
  0
VERTEX
  5
F3B
330
E15
100
AcDbEntity
  8
0
 62
     7
100
AcDbVertex
100
AcDbPolyFaceMeshVertex
 10
0.7677106943975494
 20
-1.231908440589904
 30
21.90859889014983
 70
   192
  0
VERTEX
  5
F3C
330
E15
100
AcDbEntity
  8
0
 62
     7
100
AcDbVertex
100
AcDbPolyFaceMeshVertex
 10
1.031250008667567
 20
-0.3220757842063904
 30
24.50638293250822
 70
   192
  0
VERTEX
  5
F3D
330
E15
100
AcDbEntity
  8
0
 62
     7
100
AcDbVertex
100
AcDbPolyFaceMeshVertex
 10
0.8517398920904213
 20
-1.111180663108825
 30
21.90859889014983
 70
   192
  0
VERTEX
  5
F3E
330
E15
100
AcDbEntity
  8
0
 62
     7
100
AcDbVertex
100
AcDbPolyFaceMeshVertex
 10
3.232288369263271
 20
-1.231908440589904
 30
21.90859889014983
 70
   192
  0
VERTEX
  5
F3F
330
E15
100
AcDbEntity
  8
0
 62
     7
100
AcDbVertex
100
AcDbPolyFaceMeshVertex
 10
3.148260125244709
 20
-1.111180663108825
 30
21.90859889014983
 70
   192
  0
VERTEX
  5
F40
330
E15
100
AcDbEntity
  8
0
 62
     7
100
AcDbVertex
100
AcDbPolyFaceMeshVertex
 10
2.704690941895108
 20
-0.7303895354270935
 30
21.90859889014983
 70
   192
  0
VERTEX
  5
F41
330
E15
100
AcDbEntity
  8
0
 62
     7
100
AcDbVertex
100
AcDbPolyFaceMeshVertex
 10
2.572630890930753
 20
-0.6656110882759096
 30
21.90859889014983
 70
   192
  0
VERTEX
  5
F42
330
E15
100
AcDbEntity
  8
0
 62
     7
100
AcDbVertex
100
AcDbPolyFaceMeshVertex
 10
1.170479783142667
 20
-0.808195948600769
 30
21.90859889014983
 70
   192
  0
VERTEX
  5
F43
330
E15
100
AcDbEntity
  8
0
 62
     7
100
AcDbVertex
100
AcDbPolyFaceMeshVertex
 10
1.054162987793546
 20
-0.8982318639755249
 30
21.90859889014983
 70
   192
  0
VERTEX
  5
F44
330
E15
100
AcDbEntity
  8
0
 62
     7
100
AcDbVertex
100
AcDbPolyFaceMeshVertex
 10
0.6963267413030679
 20
-1.360517859458922
 30
21.90859889014983
 70
   192
  0
VERTEX
  5
F45
330
E15
100
AcDbEntity
  8
0
 62
     7
100
AcDbVertex
100
AcDbPolyFaceMeshVertex
 10
0.6383204546819741
 20
-1.495689272880554
 30
21.90859889014983
 70
   192
  0
VERTEX
  5
F46
330
E15
100
AcDbEntity
  8
0
 62
     7
100
AcDbVertex
100
AcDbPolyFaceMeshVertex
 10
0.549795636261564
 20
-2.073545932769774
 30
21.90859889014983
 70
   192
  0
VERTEX
  5
F47
330
E15
100
AcDbEntity
  8
0
 62
     7
100
AcDbVertex
100
AcDbPolyFaceMeshVertex
 10
0.5646767702947662
 20
-2.219883441925048
 30
21.90859889014983
 70
   192
  0
VERTEX
  5
F48
330
E15
100
AcDbEntity
  8
0
 62
     7
100
AcDbVertex
100
AcDbPolyFaceMeshVertex
 10
0.7677106943975494
 20
-2.768091440200805
 30
21.90859889014983
 70
   192
  0
VERTEX
  5
F49
330
E15
100
AcDbEntity
  8
0
 62
     7
100
AcDbVertex
100
AcDbPolyFaceMeshVertex
 10
0.8517398920904213
 20
-2.888819217681883
 30
21.90859889014983
 70
   192
  0
VERTEX
  5
F4A
330
E15
100
AcDbEntity
  8
0
 62
     7
100
AcDbVertex
100
AcDbPolyFaceMeshVertex
 10
1.295308121765714
 20
-3.269610404968261
 30
21.90859889014983
 70
   192
  0
VERTEX
  5
F4B
330
E15
100
AcDbEntity
  8
0
 62
     7
100
AcDbVertex
100
AcDbPolyFaceMeshVertex
 10
1.427368172730067
 20
-3.334388971328734
 30
21.90859889014983
 70
   192
  0
VERTEX
  5
F4C
330
E15
100
AcDbEntity
  8
0
 62
     7
100
AcDbVertex
100
AcDbPolyFaceMeshVertex
 10
2.829520234192472
 20
-3.19180417060852
 30
21.90859889014983
 70
   192
  0
VERTEX
  5
F4D
330
E15
100
AcDbEntity
  8
0
 62
     7
100
AcDbVertex
100
AcDbPolyFaceMeshVertex
 10
2.945837029541593
 20
-3.101768255233763
 30
21.90859889014983
 70
   192
  0
VERTEX
  5
F4E
330
E15
100
AcDbEntity
  8
0
 62
     7
100
AcDbVertex
100
AcDbPolyFaceMeshVertex
 10
3.303672799194911
 20
-2.639482021331787
 30
21.90859889014983
 70
   192
  0
VERTEX
  5
F4F
330
E15
100
AcDbEntity
  8
0
 62
     7
100
AcDbVertex
100
AcDbPolyFaceMeshVertex
 10
3.361679085816001
 20
-2.504310846328734
 30
21.90859889014983
 70
   192
  0
VERTEX
  5
F50
330
E15
100
AcDbEntity
  8
0
 62
     7
100
AcDbVertex
100
AcDbPolyFaceMeshVertex
 10
3.450203904236412
 20
-1.926453948020935
 30
21.90859889014983
 70
   192
  0
VERTEX
  5
F51
330
E15
100
AcDbEntity
  8
0
 62
     7
100
AcDbVertex
100
AcDbPolyFaceMeshVertex
 10
3.43532277020321
 20
-1.78011667728424
 30
21.90859889014983
 70
   192
  0
VERTEX
  5
F52
330
E15
100
AcDbEntity
  8
0
 62
     7
100
AcDbVertex
100
AcDbPolyFaceMeshVertex
 10
2.292299279297454
 20
-0.5776562094688416
 30
11.94085883125089
 70
   192
  0
VERTEX
  5
F53
330
E15
100
AcDbEntity
  8
0
 62
     7
100
AcDbVertex
100
AcDbPolyFaceMeshVertex
 10
2.146903046692472
 20
-0.5553824305534363
 30
11.94085883125089
 70
   192
  0
VERTEX
  5
F54
330
E15
100
AcDbEntity
  8
0
 62
     7
100
AcDbVertex
100
AcDbPolyFaceMeshVertex
 10
2.434695252503017
 20
-0.6145252585411072
 30
11.94085883125089
 70
   192
  0
VERTEX
  5
F55
330
E15
100
AcDbEntity
  8
0
 62
     7
100
AcDbVertex
100
AcDbPolyFaceMeshVertex
 10
2.218871125305753
 20
-0.9349615573883054
 30
16.9247283838632
 70
   192
  0
VERTEX
  5
F56
330
E15
100
AcDbEntity
  8
0
 62
     7
100
AcDbVertex
100
AcDbPolyFaceMeshVertex
 10
2.434695252503017
 20
-0.6145252585411072
 30
21.90859889014983
 70
   192
  0
VERTEX
  5
F57
330
E15
100
AcDbEntity
  8
0
 62
     7
100
AcDbVertex
100
AcDbPolyFaceMeshVertex
 10
2.572630890930753
 20
-0.6656110882759096
 30
11.94085883125089
 70
   192
  0
VERTEX
  5
F58
330
E15
100
AcDbEntity
  8
0
 62
     7
100
AcDbVertex
100
AcDbPolyFaceMeshVertex
 10
2.704690941895108
 20
-0.7303895354270935
 30
11.94085883125089
 70
   192
  0
VERTEX
  5
F59
330
E15
100
AcDbEntity
  8
0
 62
     7
100
AcDbVertex
100
AcDbPolyFaceMeshVertex
 10
2.428781518066983
 20
-1.000821352005003
 30
16.9247283838632
 70
   192
  0
VERTEX
  5
F5A
330
E15
100
AcDbEntity
  8
0
 62
     7
100
AcDbVertex
100
AcDbPolyFaceMeshVertex
 10
3.148260125244709
 20
-1.111180663108825
 30
11.94085883125089
 70
   192
  0
VERTEX
  5
F5B
330
E15
100
AcDbEntity
  8
0
 62
     7
100
AcDbVertex
100
AcDbPolyFaceMeshVertex
 10
3.232288369263271
 20
-1.231908440589904
 30
11.94085883125089
 70
   192
  0
VERTEX
  5
F5C
330
E15
100
AcDbEntity
  8
0
 62
     7
100
AcDbVertex
100
AcDbPolyFaceMeshVertex
 10
2.829520234192472
 20
-0.808195948600769
 30
11.94085883125089
 70
   192
  0
VERTEX
  5
F5D
330
E15
100
AcDbEntity
  8
0
 62
     7
100
AcDbVertex
100
AcDbPolyFaceMeshVertex
 10
2.945837029541593
 20
-0.8982318639755249
 30
11.94085883125089
 70
   192
  0
VERTEX
  5
F5E
330
E15
100
AcDbEntity
  8
0
 62
     7
100
AcDbVertex
100
AcDbPolyFaceMeshVertex
 10
2.621136674011808
 20
-1.107587695121764
 30
16.9247283838632
 70
   192
  0
VERTEX
  5
F5F
330
E15
100
AcDbEntity
  8
0
 62
     7
100
AcDbVertex
100
AcDbPolyFaceMeshVertex
 10
3.052448281372642
 20
-0.9995734095573423
 30
21.90859889014983
 70
   192
  0
VERTEX
  5
F60
330
E15
100
AcDbEntity
  8
0
 62
     7
100
AcDbVertex
100
AcDbPolyFaceMeshVertex
 10
3.052448281372642
 20
-0.9995734095573423
 30
11.94085883125089
 70
   192
  0
VERTEX
  5
F61
330
E15
100
AcDbEntity
  8
0
 62
     7
100
AcDbVertex
100
AcDbPolyFaceMeshVertex
 10
2.788064011658294
 20
-1.250889420509337
 30
16.9247283838632
 70
   192
  0
VERTEX
  5
F62
330
E15
100
AcDbEntity
  8
0
 62
     7
100
AcDbVertex
100
AcDbPolyFaceMeshVertex
 10
3.303672799194911
 20
-1.360517859458922
 30
11.94085883125089
 70
   192
  0
VERTEX
  5
F63
330
E15
100
AcDbEntity
  8
0
 62
     7
100
AcDbVertex
100
AcDbPolyFaceMeshVertex
 10
2.92272663983212
 20
-1.424859881401061
 30
16.9247283838632
 70
   192
  0
VERTEX
  5
F64
330
E15
100
AcDbEntity
  8
0
 62
     7
100
AcDbVertex
100
AcDbPolyFaceMeshVertex
 10
3.361679085816001
 20
-1.495689272880554
 30
11.94085883125089
 70
   192
  0
VERTEX
  5
F65
330
E15
100
AcDbEntity
  8
0
 62
     7
100
AcDbVertex
100
AcDbPolyFaceMeshVertex
 10
3.405713090027431
 20
-1.636035561561583
 30
11.94085883125089
 70
   192
  0
VERTEX
  5
F66
330
E15
100
AcDbEntity
  8
0
 62
     7
100
AcDbVertex
100
AcDbPolyFaceMeshVertex
 10
3.01961327465878
 20
-1.622376561164855
 30
16.9247283838632
 70
   192
  0
VERTEX
  5
F67
330
E15
100
AcDbEntity
  8
0
 62
     7
100
AcDbVertex
100
AcDbPolyFaceMeshVertex
 10
3.405713090027431
 20
-1.636035561561583
 30
21.90859889014983
 70
   192
  0
VERTEX
  5
F68
330
E15
100
AcDbEntity
  8
0
 62
     7
100
AcDbVertex
100
AcDbPolyFaceMeshVertex
 10
3.43532277020321
 20
-1.78011667728424
 30
11.94085883125089
 70
   192
  0
VERTEX
  5
F69
330
E15
100
AcDbEntity
  8
0
 62
     7
100
AcDbVertex
100
AcDbPolyFaceMeshVertex
 10
3.450203904236412
 20
-1.926453948020935
 30
11.94085883125089
 70
   192
  0
VERTEX
  5
F6A
330
E15
100
AcDbEntity
  8
0
 62
     7
100
AcDbVertex
100
AcDbPolyFaceMeshVertex
 10
3.074756630982021
 20
-1.83535325527191
 30
16.9247283838632
 70
   192
  0
VERTEX
  5
F6B
330
E15
100
AcDbEntity
  8
0
 62
     7
100
AcDbVertex
100
AcDbPolyFaceMeshVertex
 10
3.361679085816001
 20
-2.504310846328734
 30
11.94085883125089
 70
   192
  0
VERTEX
  5
F6C
330
E15
100
AcDbEntity
  8
0
 62
     7
100
AcDbVertex
100
AcDbPolyFaceMeshVertex
 10
3.303672799194911
 20
-2.639482021331787
 30
11.94085883125089
 70
   192
  0
VERTEX
  5
F6D
330
E15
100
AcDbEntity
  8
0
 62
     7
100
AcDbVertex
100
AcDbPolyFaceMeshVertex
 10
3.450203904236412
 20
-2.073545932769774
 30
11.94085883125089
 70
   192
  0
VERTEX
  5
F6E
330
E15
100
AcDbEntity
  8
0
 62
     7
100
AcDbVertex
100
AcDbPolyFaceMeshVertex
 10
3.43532277020321
 20
-2.219883441925048
 30
11.94085883125089
 70
   192
  0
VERTEX
  5
F6F
330
E15
100
AcDbEntity
  8
0
 62
     7
100
AcDbVertex
100
AcDbPolyFaceMeshVertex
 10
3.085899361694911
 20
-2.055070638656615
 30
16.9247283838632
 70
   192
  0
VERTEX
  5
F70
330
E15
100
AcDbEntity
  8
0
 62
     7
100
AcDbVertex
100
AcDbPolyFaceMeshVertex
 10
3.405713090027431
 20
-2.363964557647705
 30
21.90859889014983
 70
   192
  0
VERTEX
  5
F71
330
E15
100
AcDbEntity
  8
0
 62
     7
100
AcDbVertex
100
AcDbPolyFaceMeshVertex
 10
3.405713090027431
 20
-2.363964557647705
 30
11.94085883125089
 70
   192
  0
VERTEX
  5
F72
330
E15
100
AcDbEntity
  8
0
 62
     7
100
AcDbVertex
100
AcDbPolyFaceMeshVertex
 10
3.05258561047421
 20
-2.272533416748045
 30
16.9247283838632
 70
   192
  0
VERTEX
  5
F73
330
E15
100
AcDbEntity
  8
0
 62
     7
100
AcDbVertex
100
AcDbPolyFaceMeshVertex
 10
3.232288369263271
 20
-2.768091440200805
 30
11.94085883125089
 70
   192
  0
VERTEX
  5
F74
330
E15
100
AcDbEntity
  8
0
 62
     7
100
AcDbVertex
100
AcDbPolyFaceMeshVertex
 10
2.976178177918058
 20
-2.478838443756103
 30
16.9247283838632
 70
   192
  0
VERTEX
  5
F75
330
E15
100
AcDbEntity
  8
0
 62
     7
100
AcDbVertex
100
AcDbPolyFaceMeshVertex
 10
3.148260125244709
 20
-2.888819217681883
 30
11.94085883125089
 70
   192
  0
VERTEX
  5
F76
330
E15
100
AcDbEntity
  8
0
 62
     7
100
AcDbVertex
100
AcDbPolyFaceMeshVertex
 10
3.052448281372642
 20
-3.000426530838011
 30
11.94085883125089
 70
   192
  0
VERTEX
  5
F77
330
E15
100
AcDbEntity
  8
0
 62
     7
100
AcDbVertex
100
AcDbPolyFaceMeshVertex
 10
2.859807023132901
 20
-2.665539979934691
 30
16.9247283838632
 70
   192
  0
VERTEX
  5
F78
330
E15
100
AcDbEntity
  8
0
 62
     7
100
AcDbVertex
100
AcDbPolyFaceMeshVertex
 10
3.052448281372642
 20
-3.000426530838011
 30
21.90859889014983
 70
   192
  0
VERTEX
  5
F79
330
E15
100
AcDbEntity
  8
0
 62
     7
100
AcDbVertex
100
AcDbPolyFaceMeshVertex
 10
2.945837029541593
 20
-3.101768255233763
 30
11.94085883125089
 70
   192
  0
VERTEX
  5
F7A
330
E15
100
AcDbEntity
  8
0
 62
     7
100
AcDbVertex
100
AcDbPolyFaceMeshVertex
 10
2.829520234192472
 20
-3.19180417060852
 30
11.94085883125089
 70
   192
  0
VERTEX
  5
F7B
330
E15
100
AcDbEntity
  8
0
 62
     7
100
AcDbVertex
100
AcDbPolyFaceMeshVertex
 10
2.708233841980558
 20
-2.824994325637817
 30
16.9247283838632
 70
   192
  0
VERTEX
  5
F7C
330
E15
100
AcDbEntity
  8
0
 62
     7
100
AcDbVertex
100
AcDbPolyFaceMeshVertex
 10
2.292299279297454
 20
-3.422343730926513
 30
11.94085883125089
 70
   192
  0
VERTEX
  5
F7D
330
E15
100
AcDbEntity
  8
0
 62
     7
100
AcDbVertex
100
AcDbPolyFaceMeshVertex
 10
2.146903046692472
 20
-3.444617509841917
 30
11.94085883125089
 70
   192
  0
VERTEX
  5
F7E
330
E15
100
AcDbEntity
  8
0
 62
     7
100
AcDbVertex
100
AcDbPolyFaceMeshVertex
 10
2.704690941895108
 20
-3.269610404968261
 30
11.94085883125089
 70
   192
  0
VERTEX
  5
F7F
330
E15
100
AcDbEntity
  8
0
 62
     7
100
AcDbVertex
100
AcDbPolyFaceMeshVertex
 10
2.572630890930753
 20
-3.334388971328734
 30
11.94085883125089
 70
   192
  0
VERTEX
  5
F80
330
E15
100
AcDbEntity
  8
0
 62
     7
100
AcDbVertex
100
AcDbPolyFaceMeshVertex
 10
2.527666100586513
 20
-2.950673103332518
 30
16.9247283838632
 70
   192
  0
VERTEX
  5
F81
330
E15
100
AcDbEntity
  8
0
 62
     7
100
AcDbVertex
100
AcDbPolyFaceMeshVertex
 10
2.434695252503017
 20
-3.385474681854248
 30
21.90859889014983
 70
   192
  0
VERTEX
  5
F82
330
E15
100
AcDbEntity
  8
0
 62
     7
100
AcDbVertex
100
AcDbPolyFaceMeshVertex
 10
2.292299279297454
 20
-3.422343730926513
 30
21.90859889014983
 70
   192
  0
VERTEX
  5
F83
330
E15
100
AcDbEntity
  8
0
 62
     7
100
AcDbVertex
100
AcDbPolyFaceMeshVertex
 10
2.434695252503017
 20
-3.385474681854248
 30
11.94085883125089
 70
   192
  0
VERTEX
  5
F84
330
E15
100
AcDbEntity
  8
0
 62
     7
100
AcDbVertex
100
AcDbPolyFaceMeshVertex
 10
2.325495728577237
 20
-3.037431240081787
 30
16.9247283838632
 70
   192
  0
VERTEX
  5
F85
330
E15
100
AcDbEntity
  8
0
 62
     7
100
AcDbVertex
100
AcDbPolyFaceMeshVertex
 10
2.146903046692472
 20
-3.444617509841917
 30
21.90859889014983
 70
   192
  0
VERTEX
  5
F86
330
E15
100
AcDbEntity
  8
0
 62
     7
100
AcDbVertex
100
AcDbPolyFaceMeshVertex
 10
2.000000008667569
 20
-3.452067613601683
 30
21.90859889014983
 70
   192
  0
VERTEX
  5
F87
330
E15
100
AcDbEntity
  8
0
 62
     7
100
AcDbVertex
100
AcDbPolyFaceMeshVertex
 10
2.000000008667569
 20
-3.452067613601683
 30
11.94085883125089
 70
   192
  0
VERTEX
  5
F88
330
E15
100
AcDbEntity
  8
0
 62
     7
100
AcDbVertex
100
AcDbPolyFaceMeshVertex
 10
2.109999665344815
 20
-3.081716775894165
 30
16.9247283838632
 70
   192
  0
VERTEX
  5
F89
330
E15
100
AcDbEntity
  8
0
 62
     7
100
AcDbVertex
100
AcDbPolyFaceMeshVertex
 10
1.427368172730067
 20
-3.334388971328734
 30
11.94085883125089
 70
   192
  0
VERTEX
  5
F8A
330
E15
100
AcDbEntity
  8
0
 62
     7
100
AcDbVertex
100
AcDbPolyFaceMeshVertex
 10
1.295308121765714
 20
-3.269610404968261
 30
11.94085883125089
 70
   192
  0
VERTEX
  5
F8B
330
E15
100
AcDbEntity
  8
0
 62
     7
100
AcDbVertex
100
AcDbPolyFaceMeshVertex
 10
1.853096970642667
 20
-3.444617509841917
 30
11.94085883125089
 70
   192
  0
VERTEX
  5
F8C
330
E15
100
AcDbEntity
  8
0
 62
     7
100
AcDbVertex
100
AcDbPolyFaceMeshVertex
 10
1.707700738037685
 20
-3.422343730926513
 30
11.94085883125089
 70
   192
  0
VERTEX
  5
F8D
330
E15
100
AcDbEntity
  8
0
 62
     7
100
AcDbVertex
100
AcDbPolyFaceMeshVertex
 10
1.890000351990323
 20
-3.081716775894165
 30
16.9247283838632
 70
   192
  0
VERTEX
  5
F8E
330
E15
100
AcDbEntity
  8
0
 62
     7
100
AcDbVertex
100
AcDbPolyFaceMeshVertex
 10
1.56530476483212
 20
-3.385474681854248
 30
21.90859889014983
 70
   192
  0
VERTEX
  5
F8F
330
E15
100
AcDbEntity
  8
0
 62
     7
100
AcDbVertex
100
AcDbPolyFaceMeshVertex
 10
1.56530476483212
 20
-3.385474681854248
 30
11.94085883125089
 70
   192
  0
VERTEX
  5
F90
330
E15
100
AcDbEntity
  8
0
 62
     7
100
AcDbVertex
100
AcDbPolyFaceMeshVertex
 10
1.674503335083585
 20
-3.037431240081787
 30
16.9247283838632
 70
   192
  0
VERTEX
  5
F91
330
E15
100
AcDbEntity
  8
0
 62
     7
100
AcDbVertex
100
AcDbPolyFaceMeshVertex
 10
1.170479783142667
 20
-3.19180417060852
 30
11.94085883125089
 70
   192
  0
VERTEX
  5
F92
330
E15
100
AcDbEntity
  8
0
 62
     7
100
AcDbVertex
100
AcDbPolyFaceMeshVertex
 10
1.472332963074308
 20
-2.950673103332518
 30
16.9247283838632
 70
   192
  0
VERTEX
  5
F93
330
E15
100
AcDbEntity
  8
0
 62
     7
100
AcDbVertex
100
AcDbPolyFaceMeshVertex
 10
1.054162987793546
 20
-3.101768255233763
 30
11.94085883125089
 70
   192
  0
VERTEX
  5
F94
330
E15
100
AcDbEntity
  8
0
 62
     7
100
AcDbVertex
100
AcDbPolyFaceMeshVertex
 10
0.9475517359624916
 20
-3.000426530838011
 30
11.94085883125089
 70
   192
  0
VERTEX
  5
F95
330
E15
100
AcDbEntity
  8
0
 62
     7
100
AcDbVertex
100
AcDbPolyFaceMeshVertex
 10
1.291765221680263
 20
-2.824994325637817
 30
16.9247283838632
 70
   192
  0
VERTEX
  5
F96
330
E15
100
AcDbEntity
  8
0
 62
     7
100
AcDbVertex
100
AcDbPolyFaceMeshVertex
 10
0.9475517359624916
 20
-3.000426530838011
 30
21.90859889014983
 70
   192
  0
VERTEX
  5
F97
330
E15
100
AcDbEntity
  8
0
 62
     7
100
AcDbVertex
100
AcDbPolyFaceMeshVertex
 10
0.8517398920904213
 20
-2.888819217681883
 30
11.94085883125089
 70
   192
  0
VERTEX
  5
F98
330
E15
100
AcDbEntity
  8
0
 62
     7
100
AcDbVertex
100
AcDbPolyFaceMeshVertex
 10
0.7677106943975494
 20
-2.768091440200805
 30
11.94085883125089
 70
   192
  0
VERTEX
  5
F99
330
E15
100
AcDbEntity
  8
0
 62
     7
100
AcDbVertex
100
AcDbPolyFaceMeshVertex
 10
1.140192994202237
 20
-2.665539979934691
 30
16.9247283838632
 70
   192
  0
VERTEX
  5
F9A
330
E15
100
AcDbEntity
  8
0
 62
     7
100
AcDbVertex
100
AcDbPolyFaceMeshVertex
 10
0.5646767702947662
 20
-2.219883441925048
 30
11.94085883125089
 70
   192
  0
VERTEX
  5
F9B
330
E15
100
AcDbEntity
  8
0
 62
     7
100
AcDbVertex
100
AcDbPolyFaceMeshVertex
 10
0.549795636261564
 20
-2.073545932769774
 30
11.94085883125089
 70
   192
  0
VERTEX
  5
F9C
330
E15
100
AcDbEntity
  8
0
 62
     7
100
AcDbVertex
100
AcDbPolyFaceMeshVertex
 10
0.6963267413030679
 20
-2.639482021331787
 30
11.94085883125089
 70
   192
  0
VERTEX
  5
F9D
330
E15
100
AcDbEntity
  8
0
 62
     7
100
AcDbVertex
100
AcDbPolyFaceMeshVertex
 10
0.6383204546819741
 20
-2.504310846328734
 30
11.94085883125089
 70
   192
  0
VERTEX
  5
F9E
330
E15
100
AcDbEntity
  8
0
 62
     7
100
AcDbVertex
100
AcDbPolyFaceMeshVertex
 10
1.023820885742763
 20
-2.478838443756103
 30
16.9247283838632
 70
   192
  0
VERTEX
  5
F9F
330
E15
100
AcDbEntity
  8
0
 62
     7
100
AcDbVertex
100
AcDbPolyFaceMeshVertex
 10
0.5942864504705474
 20
-2.363964557647705
 30
21.90859889014983
 70
   192
  0
VERTEX
  5
FA0
330
E15
100
AcDbEntity
  8
0
 62
     7
100
AcDbVertex
100
AcDbPolyFaceMeshVertex
 10
0.5942864504705474
 20
-2.363964557647705
 30
11.94085883125089
 70
   192
  0
VERTEX
  5
FA1
330
E15
100
AcDbEntity
  8
0
 62
     7
100
AcDbVertex
100
AcDbPolyFaceMeshVertex
 10
0.94741393002377
 20
-2.272533416748045
 30
16.9247283838632
 70
   192
  0
VERTEX
  5
FA2
330
E15
100
AcDbEntity
  8
0
 62
     7
100
AcDbVertex
100
AcDbPolyFaceMeshVertex
 10
0.549795636261564
 20
-1.926453948020935
 30
11.94085883125089
 70
   192
  0
VERTEX
  5
FA3
330
E15
100
AcDbEntity
  8
0
 62
     7
100
AcDbVertex
100
AcDbPolyFaceMeshVertex
 10
0.9140997019659087
 20
-2.055070638656615
 30
16.9247283838632
 70
   192
  0
VERTEX
  5
FA4
330
E15
100
AcDbEntity
  8
0
 62
     7
100
AcDbVertex
100
AcDbPolyFaceMeshVertex
 10
0.5646767702947662
 20
-1.78011667728424
 30
11.94085883125089
 70
   192
  0
VERTEX
  5
FA5
330
E15
100
AcDbEntity
  8
0
 62
     7
100
AcDbVertex
100
AcDbPolyFaceMeshVertex
 10
0.5942864504705474
 20
-1.636035561561583
 30
11.94085883125089
 70
   192
  0
VERTEX
  5
FA6
330
E15
100
AcDbEntity
  8
0
 62
     7
100
AcDbVertex
100
AcDbPolyFaceMeshVertex
 10
0.9252429095159584
 20
-1.83535325527191
 30
16.9247283838632
 70
   192
  0
VERTEX
  5
FA7
330
E15
100
AcDbEntity
  8
0
 62
     7
100
AcDbVertex
100
AcDbPolyFaceMeshVertex
 10
0.5942864504705474
 20
-1.636035561561583
 30
21.90859889014983
 70
   192
  0
VERTEX
  5
FA8
330
E15
100
AcDbEntity
  8
0
 62
     7
100
AcDbVertex
100
AcDbPolyFaceMeshVertex
 10
0.6383204546819741
 20
-1.495689272880554
 30
11.94085883125089
 70
   192
  0
VERTEX
  5
FA9
330
E15
100
AcDbEntity
  8
0
 62
     7
100
AcDbVertex
100
AcDbPolyFaceMeshVertex
 10
0.6963267413030679
 20
-1.360517859458922
 30
11.94085883125089
 70
   192
  0
VERTEX
  5
FAA
330
E15
100
AcDbEntity
  8
0
 62
     7
100
AcDbVertex
100
AcDbPolyFaceMeshVertex
 10
0.9803862658391997
 20
-1.622376561164855
 30
16.9247283838632
 70
   192
  0
VERTEX
  5
FAB
330
E15
100
AcDbEntity
  8
0
 62
     7
100
AcDbVertex
100
AcDbPolyFaceMeshVertex
 10
1.054162987793546
 20
-0.8982318639755249
 30
11.94085883125089
 70
   192
  0
VERTEX
  5
FAC
330
E15
100
AcDbEntity
  8
0
 62
     7
100
AcDbVertex
100
AcDbPolyFaceMeshVertex
 10
1.170479783142667
 20
-0.808195948600769
 30
11.94085883125089
 70
   192
  0
VERTEX
  5
FAD
330
E15
100
AcDbEntity
  8
0
 62
     7
100
AcDbVertex
100
AcDbPolyFaceMeshVertex
 10
0.7677106943975494
 20
-1.231908440589904
 30
11.94085883125089
 70
   192
  0
VERTEX
  5
FAE
330
E15
100
AcDbEntity
  8
0
 62
     7
100
AcDbVertex
100
AcDbPolyFaceMeshVertex
 10
0.8517398920904213
 20
-1.111180663108825
 30
11.94085883125089
 70
   192
  0
VERTEX
  5
FAF
330
E15
100
AcDbEntity
  8
0
 62
     7
100
AcDbVertex
100
AcDbPolyFaceMeshVertex
 10
1.077272423828702
 20
-1.424859881401061
 30
16.9247283838632
 70
   192
  0
VERTEX
  5
FB0
330
E15
100
AcDbEntity
  8
0
 62
     7
100
AcDbVertex
100
AcDbPolyFaceMeshVertex
 10
0.9475517359624916
 20
-0.9995734095573423
 30
21.90859889014983
 70
   192
  0
VERTEX
  5
FB1
330
E15
100
AcDbEntity
  8
0
 62
     7
100
AcDbVertex
100
AcDbPolyFaceMeshVertex
 10
0.9475517359624916
 20
-0.9995734095573423
 30
11.94085883125089
 70
   192
  0
VERTEX
  5
FB2
330
E15
100
AcDbEntity
  8
0
 62
     7
100
AcDbVertex
100
AcDbPolyFaceMeshVertex
 10
1.211936005676845
 20
-1.250889420509337
 30
16.9247283838632
 70
   192
  0
VERTEX
  5
FB3
330
E15
100
AcDbEntity
  8
0
 62
     7
100
AcDbVertex
100
AcDbPolyFaceMeshVertex
 10
1.295308121765714
 20
-0.7303895354270935
 30
21.90859889014983
 70
   192
  0
VERTEX
  5
FB4
330
E15
100
AcDbEntity
  8
0
 62
     7
100
AcDbVertex
100
AcDbPolyFaceMeshVertex
 10
1.295308121765714
 20
-0.7303895354270935
 30
11.94085883125089
 70
   192
  0
VERTEX
  5
FB5
330
E15
100
AcDbEntity
  8
0
 62
     7
100
AcDbVertex
100
AcDbPolyFaceMeshVertex
 10
1.378862389649013
 20
-1.107587695121764
 30
16.9247283838632
 70
   192
  0
VERTEX
  5
FB6
330
E15
100
AcDbEntity
  8
0
 62
     7
100
AcDbVertex
100
AcDbPolyFaceMeshVertex
 10
1.427368172730067
 20
-0.6656110882759096
 30
11.94085883125089
 70
   192
  0
VERTEX
  5
FB7
330
E15
100
AcDbEntity
  8
0
 62
     7
100
AcDbVertex
100
AcDbPolyFaceMeshVertex
 10
1.56530476483212
 20
-0.6145252585411072
 30
11.94085883125089
 70
   192
  0
VERTEX
  5
FB8
330
E15
100
AcDbEntity
  8
0
 62
     7
100
AcDbVertex
100
AcDbPolyFaceMeshVertex
 10
1.571218499268153
 20
-1.000821352005003
 30
16.9247283838632
 70
   192
  0
VERTEX
  5
FB9
330
E15
100
AcDbEntity
  8
0
 62
     7
100
AcDbVertex
100
AcDbPolyFaceMeshVertex
 10
1.56530476483212
 20
-0.6145252585411072
 30
21.90859889014983
 70
   192
  0
VERTEX
  5
FBA
330
E15
100
AcDbEntity
  8
0
 62
     7
100
AcDbVertex
100
AcDbPolyFaceMeshVertex
 10
1.781128892029384
 20
-0.9349615573883054
 30
16.9247283838632
 70
   192
  0
VERTEX
  5
FBB
330
E15
100
AcDbEntity
  8
0
 62
     7
100
AcDbVertex
100
AcDbPolyFaceMeshVertex
 10
1.674503335083585
 20
-0.9625687599182127
 30
16.9247283838632
 70
   192
  0
VERTEX
  5
FBC
330
E15
100
AcDbEntity
  8
0
 62
     7
100
AcDbVertex
100
AcDbPolyFaceMeshVertex
 10
1.707700738037685
 20
-0.5776562094688416
 30
11.94085883125089
 70
   192
  0
VERTEX
  5
FBD
330
E15
100
AcDbEntity
  8
0
 62
     7
100
AcDbVertex
100
AcDbPolyFaceMeshVertex
 10
1.853096970642667
 20
-0.5553824305534363
 30
11.94085883125089
 70
   192
  0
VERTEX
  5
FBE
330
E15
100
AcDbEntity
  8
0
 62
     7
100
AcDbVertex
100
AcDbPolyFaceMeshVertex
 10
2.109999665344815
 20
-0.91828316450119
 30
16.9247283838632
 70
   192
  0
VERTEX
  5
FBF
330
E15
100
AcDbEntity
  8
0
 62
     7
100
AcDbVertex
100
AcDbPolyFaceMeshVertex
 10
2.000000008667569
 20
-0.5479323267936707
 30
21.90859889014983
 70
   192
  0
VERTEX
  5
FC0
330
E15
100
AcDbEntity
  8
0
 62
     7
100
AcDbVertex
100
AcDbPolyFaceMeshVertex
 10
2.000000008667569
 20
-0.0625
 30
24.50638293250822
 70
   192
  0
VERTEX
  5
FC1
330
E15
100
AcDbEntity
  8
0
 62
     7
100
AcDbVertex
100
AcDbPolyFaceMeshVertex
 10
2.325495728577237
 20
-0.9625687599182127
 30
16.9247283838632
 70
   192
  0
VERTEX
  5
FC2
330
E15
100
AcDbEntity
  8
0
 62
     7
100
AcDbVertex
100
AcDbPolyFaceMeshVertex
 10
2.527666100586513
 20
-1.04932689666748
 30
16.9247283838632
 70
   192
  0
VERTEX
  5
FC3
330
E15
100
AcDbEntity
  8
0
 62
     7
100
AcDbVertex
100
AcDbPolyFaceMeshVertex
 10
2.708233841980558
 20
-1.175005793571471
 30
16.9247283838632
 70
   192
  0
VERTEX
  5
FC4
330
E15
100
AcDbEntity
  8
0
 62
     7
100
AcDbVertex
100
AcDbPolyFaceMeshVertex
 10
2.859807023132901
 20
-1.334460020065307
 30
16.9247283838632
 70
   192
  0
VERTEX
  5
FC5
330
E15
100
AcDbEntity
  8
0
 62
     7
100
AcDbVertex
100
AcDbPolyFaceMeshVertex
 10
2.976178177918058
 20
-1.521161437034606
 30
16.9247283838632
 70
   192
  0
VERTEX
  5
FC6
330
E15
100
AcDbEntity
  8
0
 62
     7
100
AcDbVertex
100
AcDbPolyFaceMeshVertex
 10
3.05258561047421
 20
-1.727466702461241
 30
16.9247283838632
 70
   192
  0
VERTEX
  5
FC7
330
E15
100
AcDbEntity
  8
0
 62
     7
100
AcDbVertex
100
AcDbPolyFaceMeshVertex
 10
3.085899361694911
 20
-1.944929361343383
 30
16.9247283838632
 70
   192
  0
VERTEX
  5
FC8
330
E15
100
AcDbEntity
  8
0
 62
     7
100
AcDbVertex
100
AcDbPolyFaceMeshVertex
 10
3.074756630982021
 20
-2.164646625518798
 30
16.9247283838632
 70
   192
  0
VERTEX
  5
FC9
330
E15
100
AcDbEntity
  8
0
 62
     7
100
AcDbVertex
100
AcDbPolyFaceMeshVertex
 10
3.01961327465878
 20
-2.377623319625854
 30
16.9247283838632
 70
   192
  0
VERTEX
  5
FCA
330
E15
100
AcDbEntity
  8
0
 62
     7
100
AcDbVertex
100
AcDbPolyFaceMeshVertex
 10
2.92272663983212
 20
-2.575140237808227
 30
16.9247283838632
 70
   192
  0
VERTEX
  5
FCB
330
E15
100
AcDbEntity
  8
0
 62
     7
100
AcDbVertex
100
AcDbPolyFaceMeshVertex
 10
2.788064011658294
 20
-2.749110460281372
 30
16.9247283838632
 70
   192
  0
VERTEX
  5
FCC
330
E15
100
AcDbEntity
  8
0
 62
     7
100
AcDbVertex
100
AcDbPolyFaceMeshVertex
 10
2.621136674011808
 20
-2.892412424087524
 30
16.9247283838632
 70
   192
  0
VERTEX
  5
FCD
330
E15
100
AcDbEntity
  8
0
 62
     7
100
AcDbVertex
100
AcDbPolyFaceMeshVertex
 10
2.428781518066983
 20
-2.999178647994995
 30
16.9247283838632
 70
   192
  0
VERTEX
  5
FCE
330
E15
100
AcDbEntity
  8
0
 62
     7
100
AcDbVertex
100
AcDbPolyFaceMeshVertex
 10
2.218871125305753
 20
-3.065038442611693
 30
16.9247283838632
 70
   192
  0
VERTEX
  5
FCF
330
E15
100
AcDbEntity
  8
0
 62
     7
100
AcDbVertex
100
AcDbPolyFaceMeshVertex
 10
2.000000008667569
 20
-3.087295532226562
 30
16.9247283838632
 70
   192
  0
VERTEX
  5
FD0
330
E15
100
AcDbEntity
  8
0
 62
     7
100
AcDbVertex
100
AcDbPolyFaceMeshVertex
 10
1.781128892029384
 20
-3.065038442611693
 30
16.9247283838632
 70
   192
  0
VERTEX
  5
FD1
330
E15
100
AcDbEntity
  8
0
 62
     7
100
AcDbVertex
100
AcDbPolyFaceMeshVertex
 10
1.571218499268153
 20
-2.999178647994995
 30
16.9247283838632
 70
   192
  0
VERTEX
  5
FD2
330
E15
100
AcDbEntity
  8
0
 62
     7
100
AcDbVertex
100
AcDbPolyFaceMeshVertex
 10
1.378862389649013
 20
-2.892412424087524
 30
16.9247283838632
 70
   192
  0
VERTEX
  5
FD3
330
E15
100
AcDbEntity
  8
0
 62
     7
100
AcDbVertex
100
AcDbPolyFaceMeshVertex
 10
1.211936005676845
 20
-2.749110460281372
 30
16.9247283838632
 70
   192
  0
VERTEX
  5
FD4
330
E15
100
AcDbEntity
  8
0
 62
     7
100
AcDbVertex
100
AcDbPolyFaceMeshVertex
 10
1.077272423828702
 20
-2.575140237808227
 30
16.9247283838632
 70
   192
  0
VERTEX
  5
FD5
330
E15
100
AcDbEntity
  8
0
 62
     7
100
AcDbVertex
100
AcDbPolyFaceMeshVertex
 10
0.9803862658391997
 20
-2.377623319625854
 30
16.9247283838632
 70
   192
  0
VERTEX
  5
FD6
330
E15
100
AcDbEntity
  8
0
 62
     7
100
AcDbVertex
100
AcDbPolyFaceMeshVertex
 10
0.9252429095159584
 20
-2.164646625518798
 30
16.9247283838632
 70
   192
  0
VERTEX
  5
FD7
330
E15
100
AcDbEntity
  8
0
 62
     7
100
AcDbVertex
100
AcDbPolyFaceMeshVertex
 10
0.9140997019659087
 20
-1.944929361343383
 30
16.9247283838632
 70
   192
  0
VERTEX
  5
FD8
330
E15
100
AcDbEntity
  8
0
 62
     7
100
AcDbVertex
100
AcDbPolyFaceMeshVertex
 10
0.94741393002377
 20
-1.727466702461241
 30
16.9247283838632
 70
   192
  0
VERTEX
  5
FD9
330
E15
100
AcDbEntity
  8
0
 62
     7
100
AcDbVertex
100
AcDbPolyFaceMeshVertex
 10
1.023820885742763
 20
-1.521161437034606
 30
16.9247283838632
 70
   192
  0
VERTEX
  5
FDA
330
E15
100
AcDbEntity
  8
0
 62
     7
100
AcDbVertex
100
AcDbPolyFaceMeshVertex
 10
1.140192994202237
 20
-1.334460020065307
 30
16.9247283838632
 70
   192
  0
VERTEX
  5
FDB
330
E15
100
AcDbEntity
  8
0
 62
     7
100
AcDbVertex
100
AcDbPolyFaceMeshVertex
 10
1.291765221680263
 20
-1.175005793571471
 30
16.9247283838632
 70
   192
  0
VERTEX
  5
FDC
330
E15
100
AcDbEntity
  8
0
 62
     7
100
AcDbVertex
100
AcDbPolyFaceMeshVertex
 10
1.472332963074308
 20
-1.04932689666748
 30
16.9247283838632
 70
   192
  0
VERTEX
  5
FDD
330
E15
100
AcDbEntity
  8
0
 62
     7
100
AcDbVertex
100
AcDbPolyFaceMeshVertex
 10
1.890000351990323
 20
-0.91828316450119
 30
16.9247283838632
 70
   192
  0
VERTEX
  5
FDE
330
E15
100
AcDbEntity
  8
0
 62
     7
100
AcDbVertex
100
AcDbPolyFaceMeshVertex
 10
1.427368172730067
 20
-0.6656110882759096
 30
21.90859889014983
 70
   192
  0
VERTEX
  5
FDF
330
E15
100
AcDbEntity
  8
0
 62
     7
100
AcDbVertex
100
AcDbPolyFaceMeshVertex
 10
1.707700738037685
 20
-0.5776562094688416
 30
21.90859889014983
 70
   192
  0
VERTEX
  5
FE0
330
E15
100
AcDbEntity
  8
0
 62
     7
100
AcDbVertex
100
AcDbPolyFaceMeshVertex
 10
1.853096970642667
 20
-0.5553824305534363
 30
21.90859889014983
 70
   192
  0
VERTEX
  5
FE1
330
E15
100
AcDbEntity
  8
0
 62
     7
100
AcDbVertex
100
AcDbPolyFaceMeshVertex
 10
2.000000008667569
 20
-0.5479323267936707
 30
11.94085883125089
 70
   192
  0
VERTEX
  5
FE2
330
E15
100
AcDbEntity
  8
0
 62
     7
100
AcDbVertex
100
AcDbPolyFaceMeshVertex
 10
2.000000008667569
 20
-0.912704586982727
 30
16.9247283838632
 70
   192
  0
VERTEX
  5
FE3
330
E15
100
AcDbEntity
  8
0
 62
     7
100
AcDbVertex
100
AcDbPolyFaceMeshVertex
 10
3.90655232342587
 20
-2.0
 30
24.67731188758634
 70
   192
  0
VERTEX
  5
FE4
330
E15
100
AcDbEntity
  8
0
 62
     7
100
AcDbVertex
100
AcDbPolyFaceMeshVertex
 10
3.757220276917081
 20
-1.466952919960021
 30
24.81082915290617
 70
   192
  0
VERTEX
  5
FE5
330
E15
100
AcDbEntity
  8
0
 62
     7
100
AcDbVertex
100
AcDbPolyFaceMeshVertex
 10
3.82254887493954
 20
-2.0
 30
24.83034800514005
 70
   192
  0
VERTEX
  5
FE6
330
E15
100
AcDbEntity
  8
0
 62
     7
100
AcDbVertex
100
AcDbPolyFaceMeshVertex
 10
3.401577958191492
 20
-1.063495635986327
 30
24.98229502662443
 70
   192
  0
VERTEX
  5
FE7
330
E15
100
AcDbEntity
  8
0
 62
     7
100
AcDbVertex
100
AcDbPolyFaceMeshVertex
 10
3.52682019146786
 20
-0.9798115491867063
 30
24.81082915290617
 70
   192
  0
VERTEX
  5
FE8
330
E15
100
AcDbEntity
  8
0
 62
     7
100
AcDbVertex
100
AcDbPolyFaceMeshVertex
 10
3.069373139465911
 20
-0.6969646811485291
 30
24.98229502662443
 70
   192
  0
VERTEX
  5
FE9
330
E15
100
AcDbEntity
  8
0
 62
     7
100
AcDbVertex
100
AcDbPolyFaceMeshVertex
 10
3.84582806500302
 20
-1.44007408618927
 30
24.60080241187834
 70
   192
  0
VERTEX
  5
FEA
330
E15
100
AcDbEntity
  8
0
 62
     7
100
AcDbVertex
100
AcDbPolyFaceMeshVertex
 10
3.603809365357021
 20
-0.9283686280250547
 30
24.60080241187834
 70
   192
  0
VERTEX
  5
FEB
330
E15
100
AcDbEntity
  8
0
 62
     7
100
AcDbVertex
100
AcDbPolyFaceMeshVertex
 10
3.164930352295501
 20
-0.5805280804634096
 30
24.81082915290617
 70
   192
  0
VERTEX
  5
FEC
330
E15
100
AcDbEntity
  8
0
 62
     7
100
AcDbVertex
100
AcDbPolyFaceMeshVertex
 10
1.641757020081143
 20
-0.1989930868148804
 30
24.81082915290617
 70
   192
  0
VERTEX
  5
FED
330
E15
100
AcDbEntity
  8
0
 62
     7
100
AcDbVertex
100
AcDbPolyFaceMeshVertex
 10
2.179987916077237
 20
-0.1725515127182007
 30
24.81082915290617
 70
   192
  0
VERTEX
  5
FEE
330
E15
100
AcDbEntity
  8
0
 62
     7
100
AcDbVertex
100
AcDbPolyFaceMeshVertex
 10
2.189064034546476
 20
-0.0804025977849961
 30
24.60080241187834
 70
   192
  0
VERTEX
  5
FEF
330
E15
100
AcDbEntity
  8
0
 62
     7
100
AcDbVertex
100
AcDbPolyFaceMeshVertex
 10
2.738152512634853
 20
-0.2179421484470367
 30
24.60080241187834
 70
   192
  0
VERTEX
  5
FF0
330
E15
100
AcDbEntity
  8
0
 62
     7
100
AcDbVertex
100
AcDbPolyFaceMeshVertex
 10
2.165224083984954
 20
-0.322453647851944
 30
24.98229502662443
 70
   192
  0
VERTEX
  5
FF1
330
E15
100
AcDbEntity
  8
0
 62
     7
100
AcDbVertex
100
AcDbPolyFaceMeshVertex
 10
2.702717789734464
 20
-0.3034885823726654
 30
24.81082915290617
 70
   192
  0
VERTEX
  5
FF2
330
E15
100
AcDbEntity
  8
0
 62
     7
100
AcDbVertex
100
AcDbPolyFaceMeshVertex
 10
1.671143540466884
 20
-0.346726268529892
 30
24.98229502662443
 70
   192
  0
VERTEX
  5
FF3
330
E15
100
AcDbEntity
  8
0
 62
     7
100
AcDbVertex
100
AcDbPolyFaceMeshVertex
 10
1.205383309448817
 20
-0.5133777260780335
 30
24.98229502662443
 70
   192
  0
VERTEX
  5
FF4
330
E15
100
AcDbEntity
  8
0
 62
     7
100
AcDbVertex
100
AcDbPolyFaceMeshVertex
 10
0.8080558863531166
 20
-0.8080560564994812
 30
24.98229502662443
 70
   192
  0
VERTEX
  5
FF5
330
E15
100
AcDbEntity
  8
0
 62
     7
100
AcDbVertex
100
AcDbPolyFaceMeshVertex
 10
1.134378441895108
 20
-0.3805361688137054
 30
24.81082915290617
 70
   192
  0
VERTEX
  5
FF6
330
E15
100
AcDbEntity
  8
0
 62
     7
100
AcDbVertex
100
AcDbPolyFaceMeshVertex
 10
0.4881744471441314
 20
-1.254450201988219
 30
24.98229502662443
 70
   192
  0
VERTEX
  5
FF7
330
E15
100
AcDbEntity
  8
0
 62
     7
100
AcDbVertex
100
AcDbPolyFaceMeshVertex
 10
0.7015462008367593
 20
-0.7015463709831238
 30
24.81082915290617
 70
   192
  0
VERTEX
  5
FF8
330
E15
100
AcDbEntity
  8
0
 62
     7
100
AcDbVertex
100
AcDbPolyFaceMeshVertex
 10
0.6360716906438873
 20
-0.6360719799995424
 30
24.60080241187834
 70
   192
  0
VERTEX
  5
FF9
330
E15
100
AcDbEntity
  8
0
 62
     7
100
AcDbVertex
100
AcDbPolyFaceMeshVertex
 10
1.090729722107509
 20
-0.2988748550415039
 30
24.60080241187834
 70
   192
  0
VERTEX
  5
FFA
330
E15
100
AcDbEntity
  8
0
 62
     7
100
AcDbVertex
100
AcDbPolyFaceMeshVertex
 10
0.3530807581792885
 20
-1.187829375267028
 30
24.81082915290617
 70
   192
  0
VERTEX
  5
FFB
330
E15
100
AcDbEntity
  8
0
 62
     7
100
AcDbVertex
100
AcDbPolyFaceMeshVertex
 10
0.3287577715765026
 20
-1.779976844787596
 30
24.98229502662443
 70
   192
  0
VERTEX
  5
FFC
330
E15
100
AcDbEntity
  8
0
 62
     7
100
AcDbVertex
100
AcDbPolyFaceMeshVertex
 10
0.2700347987066314
 20
-1.146875739097594
 30
24.60080241187834
 70
   192
  0
VERTEX
  5
FFD
330
E15
100
AcDbEntity
  8
0
 62
     7
100
AcDbVertex
100
AcDbPolyFaceMeshVertex
 10
0.1794185725103423
 20
-1.760316014289855
 30
24.81082915290617
 70
   192
  0
VERTEX
  5
FFE
330
E15
100
AcDbEntity
  8
0
 62
     7
100
AcDbVertex
100
AcDbPolyFaceMeshVertex
 10
0.888564595306974
 20
-3.267348766326903
 30
24.98229502662443
 70
   192
  0
VERTEX
  5
FFF
330
E15
100
AcDbEntity
  8
0
 62
     7
100
AcDbVertex
100
AcDbPolyFaceMeshVertex
 10
0.5401725855718667
 20
-2.842831611633299
 30
24.98229502662443
 70
   192
  0
VERTEX
  5
1000
330
E15
100
AcDbEntity
  8
0
 62
     7
100
AcDbVertex
100
AcDbPolyFaceMeshVertex
 10
0.4097251978765542
 20
-2.918145418167113
 30
24.81082915290617
 70
   192
  0
VERTEX
  5
1001
330
E15
100
AcDbEntity
  8
0
 62
     7
100
AcDbVertex
100
AcDbPolyFaceMeshVertex
 10
0.1989927378545815
 20
-2.358242511749267
 30
24.81082915290617
 70
   192
  0
VERTEX
  5
1002
330
E15
100
AcDbEntity
  8
0
 62
     7
100
AcDbVertex
100
AcDbPolyFaceMeshVertex
 10
0.1081771937261635
 20
-2.376307010650634
 30
24.60080241187834
 70
   192
  0
VERTEX
  5
1003
330
E15
100
AcDbEntity
  8
0
 62
     7
100
AcDbVertex
100
AcDbPolyFaceMeshVertex
 10
0.3295359698186928
 20
-2.964442729949951
 30
24.60080241187834
 70
   192
  0
VERTEX
  5
1004
330
E15
100
AcDbEntity
  8
0
 62
     7
100
AcDbVertex
100
AcDbPolyFaceMeshVertex
 10
0.7892494288335854
 20
-3.380596399307249
 30
24.81082915290617
 70
   192
  0
VERTEX
  5
1005
330
E15
100
AcDbEntity
  8
0
 62
     7
100
AcDbVertex
100
AcDbPolyFaceMeshVertex
 10
1.297282227600673
 20
-3.696511507034301
 30
24.81082915290617
 70
   192
  0
VERTEX
  5
1006
330
E15
100
AcDbEntity
  8
0
 62
     7
100
AcDbVertex
100
AcDbPolyFaceMeshVertex
 10
1.879900940979581
 20
-3.832359075546263
 30
24.81082915290617
 70
   192
  0
VERTEX
  5
1007
330
E15
100
AcDbEntity
  8
0
 62
     7
100
AcDbVertex
100
AcDbPolyFaceMeshVertex
 10
1.889752396668058
 20
-3.682054042816162
 30
24.98229502662443
 70
   192
  0
VERTEX
  5
1008
330
E15
100
AcDbEntity
  8
0
 62
     7
100
AcDbVertex
100
AcDbPolyFaceMeshVertex
 10
1.261847504700282
 20
-3.782057762145996
 30
24.60080241187834
 70
   192
  0
VERTEX
  5
1009
330
E15
100
AcDbEntity
  8
0
 62
     7
100
AcDbVertex
100
AcDbPolyFaceMeshVertex
 10
2.4362812128912
 20
-3.628225803375243
 30
24.98229502662443
 70
   192
  0
VERTEX
  5
100A
330
E15
100
AcDbEntity
  8
0
 62
     7
100
AcDbVertex
100
AcDbPolyFaceMeshVertex
 10
2.936504372681241
 20
-3.401577711105346
 30
24.98229502662443
 70
   192
  0
VERTEX
  5
100B
330
E15
100
AcDbEntity
  8
0
 62
     7
100
AcDbVertex
100
AcDbPolyFaceMeshVertex
 10
2.475266465271573
 20
-3.773720741271971
 30
24.81082915290617
 70
   192
  0
VERTEX
  5
100C
330
E15
100
AcDbEntity
  8
0
 62
     7
100
AcDbVertex
100
AcDbPolyFaceMeshVertex
 10
2.49923230084286
 20
-3.863160371780395
 30
24.60080241187834
 70
   192
  0
VERTEX
  5
100D
330
E15
100
AcDbEntity
  8
0
 62
     7
100
AcDbVertex
100
AcDbPolyFaceMeshVertex
 10
1.873845109070401
 20
-3.924755573272705
 30
24.60080241187834
 70
   192
  0
VERTEX
  5
100E
330
E15
100
AcDbEntity
  8
0
 62
     7
100
AcDbVertex
100
AcDbPolyFaceMeshVertex
 10
3.020188340271571
 20
-3.526819944381712
 30
24.81082915290617
 70
   192
  0
VERTEX
  5
100F
330
E15
100
AcDbEntity
  8
0
 62
     7
100
AcDbVertex
100
AcDbPolyFaceMeshVertex
 10
3.071631440247161
 20
-3.603809595108031
 30
24.60080241187834
 70
   192
  0
VERTEX
  5
1010
330
E15
100
AcDbEntity
  8
0
 62
     7
100
AcDbVertex
100
AcDbPolyFaceMeshVertex
 10
3.456827172363849
 20
-3.117862939834593
 30
24.81082915290617
 70
   192
  0
VERTEX
  5
1011
330
E15
100
AcDbEntity
  8
0
 62
     7
100
AcDbVertex
100
AcDbPolyFaceMeshVertex
 10
3.596204766358001
 20
-2.541838645935058
 30
24.98229502662443
 70
   192
  0
VERTEX
  5
1012
330
E15
100
AcDbEntity
  8
0
 62
     7
100
AcDbVertex
100
AcDbPolyFaceMeshVertex
 10
3.530287751282312
 20
-3.174231052398681
 30
24.60080241187834
 70
   192
  0
VERTEX
  5
1013
330
E15
100
AcDbEntity
  8
0
 62
     7
100
AcDbVertex
100
AcDbPolyFaceMeshVertex
 10
3.826519974793052
 20
-2.620019912719726
 30
24.60080241187834
 70
   192
  0
VERTEX
  5
1014
330
E15
100
AcDbEntity
  8
0
 62
     7
100
AcDbVertex
100
AcDbPolyFaceMeshVertex
 10
3.337326058472251
 20
-3.026166677474975
 30
24.98229502662443
 70
   192
  0
VERTEX
  5
1015
330
E15
100
AcDbEntity
  8
0
 62
     7
100
AcDbVertex
100
AcDbPolyFaceMeshVertex
 10
1.623692521179776
 20
-0.1081774830818176
 30
24.60080241187834
 70
   192
  0
VERTEX
  5
1016
330
E15
100
AcDbEntity
  8
0
 62
     7
100
AcDbVertex
100
AcDbPolyFaceMeshVertex
 10
0.7281971064458892
 20
-3.450212955474853
 30
24.60080241187834
 70
   192
  0
VERTEX
  5
1017
330
E15
100
AcDbEntity
  8
0
 62
     7
100
AcDbVertex
100
AcDbPolyFaceMeshVertex
 10
0.0876159754644439
 20
-1.748229861259459
 30
24.60080241187834
 70
   192
  0
VERTEX
  5
1018
330
E15
100
AcDbEntity
  8
0
 62
     7
100
AcDbVertex
100
AcDbPolyFaceMeshVertex
 10
3.22367192181454
 20
-0.5089513063430787
 30
24.60080241187834
 70
   192
  0
VERTEX
  5
1019
330
E15
100
AcDbEntity
  8
0
 62
     7
100
AcDbVertex
100
AcDbPolyFaceMeshVertex
 10
3.613079079712491
 20
-1.510677814483641
 30
24.98229502662443
 70
   192
  0
VERTEX
  5
101A
330
E15
100
AcDbEntity
  8
0
 62
     7
100
AcDbVertex
100
AcDbPolyFaceMeshVertex
 10
2.645074853027921
 20
-0.4426501989364624
 30
24.98229502662443
 70
   192
  0
VERTEX
  5
101B
330
E15
100
AcDbEntity
  8
0
 62
     7
100
AcDbVertex
100
AcDbPolyFaceMeshVertex
 10
0.3467259493719155
 20
-2.328856706619261
 30
24.98229502662443
 70
   192
  0
VERTEX
  5
101C
330
E15
100
AcDbEntity
  8
0
 62
     7
100
AcDbVertex
100
AcDbPolyFaceMeshVertex
 10
1.354924210632901
 20
-3.557349681854248
 30
24.98229502662443
 70
   192
  0
VERTEX
  5
101D
330
E15
100
AcDbEntity
  8
0
 62
     7
100
AcDbVertex
100
AcDbPolyFaceMeshVertex
 10
3.738839158142662
 20
-2.590256214141845
 30
24.81082915290617
 70
   192
  0
VERTEX
  5
101E
330
E15
100
AcDbEntity
  8
0
 62
     7
100
AcDbFaceRecord
 10
0.0
 20
0.0
 30
0.0
 70
   128
 71
     1
 72
     2
 73
     3
  0
VERTEX
  5
101F
330
E15
100
AcDbEntity
  8
0
 62
     7
100
AcDbFaceRecord
 10
0.0
 20
0.0
 30
0.0
 70
   128
 71
     4
 72
     2
 73
     1
  0
VERTEX
  5
1020
330
E15
100
AcDbEntity
  8
0
 62
     7
100
AcDbFaceRecord
 10
0.0
 20
0.0
 30
0.0
 70
   128
 71
     5
 72
     3
 73
     2
  0
VERTEX
  5
1021
330
E15
100
AcDbEntity
  8
0
 62
     7
100
AcDbFaceRecord
 10
0.0
 20
0.0
 30
0.0
 70
   128
 71
     6
 72
     3
 73
     5
  0
VERTEX
  5
1022
330
E15
100
AcDbEntity
  8
0
 62
     7
100
AcDbFaceRecord
 10
0.0
 20
0.0
 30
0.0
 70
   128
 71
     7
 72
     6
 73
     5
  0
VERTEX
  5
1023
330
E15
100
AcDbEntity
  8
0
 62
     7
100
AcDbFaceRecord
 10
0.0
 20
0.0
 30
0.0
 70
   128
 71
     8
 72
     9
 73
    10
  0
VERTEX
  5
1024
330
E15
100
AcDbEntity
  8
0
 62
     7
100
AcDbFaceRecord
 10
0.0
 20
0.0
 30
0.0
 70
   128
 71
    11
 72
     9
 73
     8
  0
VERTEX
  5
1025
330
E15
100
AcDbEntity
  8
0
 62
     7
100
AcDbFaceRecord
 10
0.0
 20
0.0
 30
0.0
 70
   128
 71
    12
 72
    11
 73
    13
  0
VERTEX
  5
1026
330
E15
100
AcDbEntity
  8
0
 62
     7
100
AcDbFaceRecord
 10
0.0
 20
0.0
 30
0.0
 70
   128
 71
    14
 72
    12
 73
    13
  0
VERTEX
  5
1027
330
E15
100
AcDbEntity
  8
0
 62
     7
100
AcDbFaceRecord
 10
0.0
 20
0.0
 30
0.0
 70
   128
 71
    13
 72
    11
 73
     8
  0
VERTEX
  5
1028
330
E15
100
AcDbEntity
  8
0
 62
     7
100
AcDbFaceRecord
 10
0.0
 20
0.0
 30
0.0
 70
   128
 71
    15
 72
    10
 73
     9
  0
VERTEX
  5
1029
330
E15
100
AcDbEntity
  8
0
 62
     7
100
AcDbFaceRecord
 10
0.0
 20
0.0
 30
0.0
 70
   128
 71
    16
 72
    10
 73
    15
  0
VERTEX
  5
102A
330
E15
100
AcDbEntity
  8
0
 62
     7
100
AcDbFaceRecord
 10
0.0
 20
0.0
 30
0.0
 70
   128
 71
    17
 72
     5
 73
    18
  0
VERTEX
  5
102B
330
E15
100
AcDbEntity
  8
0
 62
     7
100
AcDbFaceRecord
 10
0.0
 20
0.0
 30
0.0
 70
   128
 71
     7
 72
     5
 73
    17
  0
VERTEX
  5
102C
330
E15
100
AcDbEntity
  8
0
 62
     7
100
AcDbFaceRecord
 10
0.0
 20
0.0
 30
0.0
 70
   128
 71
    19
 72
    18
 73
     5
  0
VERTEX
  5
102D
330
E15
100
AcDbEntity
  8
0
 62
     7
100
AcDbFaceRecord
 10
0.0
 20
0.0
 30
0.0
 70
   128
 71
    20
 72
    18
 73
    19
  0
VERTEX
  5
102E
330
E15
100
AcDbEntity
  8
0
 62
     7
100
AcDbFaceRecord
 10
0.0
 20
0.0
 30
0.0
 70
   128
 71
    21
 72
    20
 73
    19
  0
VERTEX
  5
102F
330
E15
100
AcDbEntity
  8
0
 62
     7
100
AcDbFaceRecord
 10
0.0
 20
0.0
 30
0.0
 70
   128
 71
    22
 72
    23
 73
    24
  0
VERTEX
  5
1030
330
E15
100
AcDbEntity
  8
0
 62
     7
100
AcDbFaceRecord
 10
0.0
 20
0.0
 30
0.0
 70
   128
 71
    25
 72
    23
 73
    22
  0
VERTEX
  5
1031
330
E15
100
AcDbEntity
  8
0
 62
     7
100
AcDbFaceRecord
 10
0.0
 20
0.0
 30
0.0
 70
   128
 71
     2
 72
    24
 73
    23
  0
VERTEX
  5
1032
330
E15
100
AcDbEntity
  8
0
 62
     7
100
AcDbFaceRecord
 10
0.0
 20
0.0
 30
0.0
 70
   128
 71
    26
 72
    24
 73
     2
  0
VERTEX
  5
1033
330
E15
100
AcDbEntity
  8
0
 62
     7
100
AcDbFaceRecord
 10
0.0
 20
0.0
 30
0.0
 70
   128
 71
     4
 72
    26
 73
     2
  0
VERTEX
  5
1034
330
E15
100
AcDbEntity
  8
0
 62
     7
100
AcDbFaceRecord
 10
0.0
 20
0.0
 30
0.0
 70
   128
 71
    27
 72
    28
 73
    29
  0
VERTEX
  5
1035
330
E15
100
AcDbEntity
  8
0
 62
     7
100
AcDbFaceRecord
 10
0.0
 20
0.0
 30
0.0
 70
   128
 71
    30
 72
    28
 73
    27
  0
VERTEX
  5
1036
330
E15
100
AcDbEntity
  8
0
 62
     7
100
AcDbFaceRecord
 10
0.0
 20
0.0
 30
0.0
 70
   128
 71
    31
 72
    30
 73
    32
  0
VERTEX
  5
1037
330
E15
100
AcDbEntity
  8
0
 62
     7
100
AcDbFaceRecord
 10
0.0
 20
0.0
 30
0.0
 70
   128
 71
    33
 72
    31
 73
    32
  0
VERTEX
  5
1038
330
E15
100
AcDbEntity
  8
0
 62
     7
100
AcDbFaceRecord
 10
0.0
 20
0.0
 30
0.0
 70
   128
 71
    32
 72
    30
 73
    27
  0
VERTEX
  5
1039
330
E15
100
AcDbEntity
  8
0
 62
     7
100
AcDbFaceRecord
 10
0.0
 20
0.0
 30
0.0
 70
   128
 71
    12
 72
    29
 73
    28
  0
VERTEX
  5
103A
330
E15
100
AcDbEntity
  8
0
 62
     7
100
AcDbFaceRecord
 10
0.0
 20
0.0
 30
0.0
 70
   128
 71
    14
 72
    29
 73
    12
  0
VERTEX
  5
103B
330
E15
100
AcDbEntity
  8
0
 62
     7
100
AcDbFaceRecord
 10
0.0
 20
0.0
 30
0.0
 70
   128
 71
    34
 72
    19
 73
    35
  0
VERTEX
  5
103C
330
E15
100
AcDbEntity
  8
0
 62
     7
100
AcDbFaceRecord
 10
0.0
 20
0.0
 30
0.0
 70
   128
 71
    21
 72
    19
 73
    34
  0
VERTEX
  5
103D
330
E15
100
AcDbEntity
  8
0
 62
     7
100
AcDbFaceRecord
 10
0.0
 20
0.0
 30
0.0
 70
   128
 71
    23
 72
    35
 73
    19
  0
VERTEX
  5
103E
330
E15
100
AcDbEntity
  8
0
 62
     7
100
AcDbFaceRecord
 10
0.0
 20
0.0
 30
0.0
 70
   128
 71
    36
 72
    35
 73
    23
  0
VERTEX
  5
103F
330
E15
100
AcDbEntity
  8
0
 62
     7
100
AcDbFaceRecord
 10
0.0
 20
0.0
 30
0.0
 70
   128
 71
    25
 72
    36
 73
    23
  0
VERTEX
  5
1040
330
E15
100
AcDbEntity
  8
0
 62
     7
100
AcDbFaceRecord
 10
0.0
 20
0.0
 30
0.0
 70
   128
 71
    37
 72
    38
 73
    39
  0
VERTEX
  5
1041
330
E15
100
AcDbEntity
  8
0
 62
     7
100
AcDbFaceRecord
 10
0.0
 20
0.0
 30
0.0
 70
   128
 71
    40
 72
    38
 73
    37
  0
VERTEX
  5
1042
330
E15
100
AcDbEntity
  8
0
 62
     7
100
AcDbFaceRecord
 10
0.0
 20
0.0
 30
0.0
 70
   128
 71
    41
 72
    40
 73
    42
  0
VERTEX
  5
1043
330
E15
100
AcDbEntity
  8
0
 62
     7
100
AcDbFaceRecord
 10
0.0
 20
0.0
 30
0.0
 70
   128
 71
    43
 72
    41
 73
    42
  0
VERTEX
  5
1044
330
E15
100
AcDbEntity
  8
0
 62
     7
100
AcDbFaceRecord
 10
0.0
 20
0.0
 30
0.0
 70
   128
 71
    42
 72
    40
 73
    37
  0
VERTEX
  5
1045
330
E15
100
AcDbEntity
  8
0
 62
     7
100
AcDbFaceRecord
 10
0.0
 20
0.0
 30
0.0
 70
   128
 71
    31
 72
    39
 73
    38
  0
VERTEX
  5
1046
330
E15
100
AcDbEntity
  8
0
 62
     7
100
AcDbFaceRecord
 10
0.0
 20
0.0
 30
0.0
 70
   128
 71
    33
 72
    39
 73
    31
  0
VERTEX
  5
1047
330
E15
100
AcDbEntity
  8
0
 62
     7
100
AcDbFaceRecord
 10
0.0
 20
0.0
 30
0.0
 70
   128
 71
    44
 72
    45
 73
    46
  0
VERTEX
  5
1048
330
E15
100
AcDbEntity
  8
0
 62
     7
100
AcDbFaceRecord
 10
0.0
 20
0.0
 30
0.0
 70
   128
 71
    47
 72
    45
 73
    44
  0
VERTEX
  5
1049
330
E15
100
AcDbEntity
  8
0
 62
     7
100
AcDbFaceRecord
 10
0.0
 20
0.0
 30
0.0
 70
   128
 71
    15
 72
    47
 73
    48
  0
VERTEX
  5
104A
330
E15
100
AcDbEntity
  8
0
 62
     7
100
AcDbFaceRecord
 10
0.0
 20
0.0
 30
0.0
 70
   128
 71
    16
 72
    15
 73
    48
  0
VERTEX
  5
104B
330
E15
100
AcDbEntity
  8
0
 62
     7
100
AcDbFaceRecord
 10
0.0
 20
0.0
 30
0.0
 70
   128
 71
    48
 72
    47
 73
    44
  0
VERTEX
  5
104C
330
E15
100
AcDbEntity
  8
0
 62
     7
100
AcDbFaceRecord
 10
0.0
 20
0.0
 30
0.0
 70
   128
 71
    41
 72
    46
 73
    45
  0
VERTEX
  5
104D
330
E15
100
AcDbEntity
  8
0
 62
     7
100
AcDbFaceRecord
 10
0.0
 20
0.0
 30
0.0
 70
   128
 71
    43
 72
    46
 73
    41
  0
VERTEX
  5
104E
330
E15
100
AcDbEntity
  8
0
 62
     7
100
AcDbFaceRecord
 10
0.0
 20
0.0
 30
0.0
 70
   128
 71
    19
 72
     5
 73
     2
  0
VERTEX
  5
104F
330
E15
100
AcDbEntity
  8
0
 62
     7
100
AcDbFaceRecord
 10
0.0
 20
0.0
 30
0.0
 70
   128
 71
    23
 72
    19
 73
     2
  0
VERTEX
  5
1050
330
E15
100
AcDbEntity
  8
0
 62
     7
100
AcDbFaceRecord
 10
0.0
 20
0.0
 30
0.0
 70
   128
 71
    49
 72
    50
 73
    51
  0
VERTEX
  5
1051
330
E15
100
AcDbEntity
  8
0
 62
     7
100
AcDbFaceRecord
 10
0.0
 20
0.0
 30
0.0
 70
   128
 71
    10
 72
    49
 73
    51
  0
VERTEX
  5
1052
330
E15
100
AcDbEntity
  8
0
 62
     7
100
AcDbFaceRecord
 10
0.0
 20
0.0
 30
0.0
 70
   128
 71
    52
 72
    53
 73
    54
  0
VERTEX
  5
1053
330
E15
100
AcDbEntity
  8
0
 62
     7
100
AcDbFaceRecord
 10
0.0
 20
0.0
 30
0.0
 70
   128
 71
    39
 72
    52
 73
    54
  0
VERTEX
  5
1054
330
E15
100
AcDbEntity
  8
0
 62
     7
100
AcDbFaceRecord
 10
0.0
 20
0.0
 30
0.0
 70
   128
 71
    55
 72
    56
 73
    57
  0
VERTEX
  5
1055
330
E15
100
AcDbEntity
  8
0
 62
     7
100
AcDbFaceRecord
 10
0.0
 20
0.0
 30
0.0
 70
   128
 71
    29
 72
    55
 73
    57
  0
VERTEX
  5
1056
330
E15
100
AcDbEntity
  8
0
 62
     7
100
AcDbFaceRecord
 10
0.0
 20
0.0
 30
0.0
 70
   128
 71
     8
 72
    10
 73
    51
  0
VERTEX
  5
1057
330
E15
100
AcDbEntity
  8
0
 62
     7
100
AcDbFaceRecord
 10
0.0
 20
0.0
 30
0.0
 70
   128
 71
    58
 72
    50
 73
    49
  0
VERTEX
  5
1058
330
E15
100
AcDbEntity
  8
0
 62
     7
100
AcDbFaceRecord
 10
0.0
 20
0.0
 30
0.0
 70
   128
 71
    59
 72
    60
 73
    61
  0
VERTEX
  5
1059
330
E15
100
AcDbEntity
  8
0
 62
     7
100
AcDbFaceRecord
 10
0.0
 20
0.0
 30
0.0
 70
   128
 71
    62
 72
    59
 73
    61
  0
VERTEX
  5
105A
330
E15
100
AcDbEntity
  8
0
 62
     7
100
AcDbFaceRecord
 10
0.0
 20
0.0
 30
0.0
 70
   128
 71
    61
 72
    43
 73
    42
  0
VERTEX
  5
105B
330
E15
100
AcDbEntity
  8
0
 62
     7
100
AcDbFaceRecord
 10
0.0
 20
0.0
 30
0.0
 70
   128
 71
    37
 72
    39
 73
    54
  0
VERTEX
  5
105C
330
E15
100
AcDbEntity
  8
0
 62
     7
100
AcDbFaceRecord
 10
0.0
 20
0.0
 30
0.0
 70
   128
 71
    63
 72
    53
 73
    52
  0
VERTEX
  5
105D
330
E15
100
AcDbEntity
  8
0
 62
     7
100
AcDbFaceRecord
 10
0.0
 20
0.0
 30
0.0
 70
   128
 71
    27
 72
    29
 73
    57
  0
VERTEX
  5
105E
330
E15
100
AcDbEntity
  8
0
 62
     7
100
AcDbFaceRecord
 10
0.0
 20
0.0
 30
0.0
 70
   128
 71
    64
 72
    56
 73
    55
  0
VERTEX
  5
105F
330
E15
100
AcDbEntity
  8
0
 62
     7
100
AcDbFaceRecord
 10
0.0
 20
0.0
 30
0.0
 70
   128
 71
    65
 72
    60
 73
    66
  0
VERTEX
  5
1060
330
E15
100
AcDbEntity
  8
0
 62
     7
100
AcDbFaceRecord
 10
0.0
 20
0.0
 30
0.0
 70
   128
 71
    65
 72
    44
 73
    60
  0
VERTEX
  5
1061
330
E15
100
AcDbEntity
  8
0
 62
     7
100
AcDbFaceRecord
 10
0.0
 20
0.0
 30
0.0
 70
   128
 71
    16
 72
    48
 73
    49
  0
VERTEX
  5
1062
330
E15
100
AcDbEntity
  8
0
 62
     7
100
AcDbFaceRecord
 10
0.0
 20
0.0
 30
0.0
 70
   128
 71
    16
 72
    49
 73
    10
  0
VERTEX
  5
1063
330
E15
100
AcDbEntity
  8
0
 62
     7
100
AcDbFaceRecord
 10
0.0
 20
0.0
 30
0.0
 70
   128
 71
    67
 72
    51
 73
    68
  0
VERTEX
  5
1064
330
E15
100
AcDbEntity
  8
0
 62
     7
100
AcDbFaceRecord
 10
0.0
 20
0.0
 30
0.0
 70
   128
 71
    67
 72
     8
 73
    51
  0
VERTEX
  5
1065
330
E15
100
AcDbEntity
  8
0
 62
     7
100
AcDbFaceRecord
 10
0.0
 20
0.0
 30
0.0
 70
   128
 71
    14
 72
    13
 73
    55
  0
VERTEX
  5
1066
330
E15
100
AcDbEntity
  8
0
 62
     7
100
AcDbFaceRecord
 10
0.0
 20
0.0
 30
0.0
 70
   128
 71
    14
 72
    55
 73
    29
  0
VERTEX
  5
1067
330
E15
100
AcDbEntity
  8
0
 62
     7
100
AcDbFaceRecord
 10
0.0
 20
0.0
 30
0.0
 70
   128
 71
    69
 72
    57
 73
    70
  0
VERTEX
  5
1068
330
E15
100
AcDbEntity
  8
0
 62
     7
100
AcDbFaceRecord
 10
0.0
 20
0.0
 30
0.0
 70
   128
 71
    69
 72
    27
 73
    57
  0
VERTEX
  5
1069
330
E15
100
AcDbEntity
  8
0
 62
     7
100
AcDbFaceRecord
 10
0.0
 20
0.0
 30
0.0
 70
   128
 71
    33
 72
    32
 73
    52
  0
VERTEX
  5
106A
330
E15
100
AcDbEntity
  8
0
 62
     7
100
AcDbFaceRecord
 10
0.0
 20
0.0
 30
0.0
 70
   128
 71
    33
 72
    52
 73
    39
  0
VERTEX
  5
106B
330
E15
100
AcDbEntity
  8
0
 62
     7
100
AcDbFaceRecord
 10
0.0
 20
0.0
 30
0.0
 70
   128
 71
    71
 72
    54
 73
    72
  0
VERTEX
  5
106C
330
E15
100
AcDbEntity
  8
0
 62
     7
100
AcDbFaceRecord
 10
0.0
 20
0.0
 30
0.0
 70
   128
 71
    71
 72
    37
 73
    54
  0
VERTEX
  5
106D
330
E15
100
AcDbEntity
  8
0
 62
     7
100
AcDbFaceRecord
 10
0.0
 20
0.0
 30
0.0
 70
   128
 71
    46
 72
    60
 73
    44
  0
VERTEX
  5
106E
330
E15
100
AcDbEntity
  8
0
 62
     7
100
AcDbFaceRecord
 10
0.0
 20
0.0
 30
0.0
 70
   128
 71
    46
 72
    61
 73
    60
  0
VERTEX
  5
106F
330
E15
100
AcDbEntity
  8
0
 62
     7
100
AcDbFaceRecord
 10
0.0
 20
0.0
 30
0.0
 70
   128
 71
    46
 72
    43
 73
    61
  0
VERTEX
  5
1070
330
E15
100
AcDbEntity
  8
0
 62
     7
100
AcDbFaceRecord
 10
0.0
 20
0.0
 30
0.0
 70
   128
 71
    68
 72
    51
 73
    50
  0
VERTEX
  5
1071
330
E15
100
AcDbEntity
  8
0
 62
     7
100
AcDbFaceRecord
 10
0.0
 20
0.0
 30
0.0
 70
   128
 71
    73
 72
    65
 73
    66
  0
VERTEX
  5
1072
330
E15
100
AcDbEntity
  8
0
 62
     7
100
AcDbFaceRecord
 10
0.0
 20
0.0
 30
0.0
 70
   128
 71
    73
 72
    44
 73
    65
  0
VERTEX
  5
1073
330
E15
100
AcDbEntity
  8
0
 62
     7
100
AcDbFaceRecord
 10
0.0
 20
0.0
 30
0.0
 70
   128
 71
    73
 72
    48
 73
    44
  0
VERTEX
  5
1074
330
E15
100
AcDbEntity
  8
0
 62
     7
100
AcDbFaceRecord
 10
0.0
 20
0.0
 30
0.0
 70
   128
 71
    73
 72
    49
 73
    48
  0
VERTEX
  5
1075
330
E15
100
AcDbEntity
  8
0
 62
     7
100
AcDbFaceRecord
 10
0.0
 20
0.0
 30
0.0
 70
   128
 71
    73
 72
    58
 73
    49
  0
VERTEX
  5
1076
330
E15
100
AcDbEntity
  8
0
 62
     7
100
AcDbFaceRecord
 10
0.0
 20
0.0
 30
0.0
 70
   128
 71
    58
 72
    73
 73
    66
  0
VERTEX
  5
1077
330
E15
100
AcDbEntity
  8
0
 62
     7
100
AcDbFaceRecord
 10
0.0
 20
0.0
 30
0.0
 70
   128
 71
    66
 72
    60
 73
    59
  0
VERTEX
  5
1078
330
E15
100
AcDbEntity
  8
0
 62
     7
100
AcDbFaceRecord
 10
0.0
 20
0.0
 30
0.0
 70
   128
 71
    74
 72
    71
 73
    72
  0
VERTEX
  5
1079
330
E15
100
AcDbEntity
  8
0
 62
     7
100
AcDbFaceRecord
 10
0.0
 20
0.0
 30
0.0
 70
   128
 71
    74
 72
    37
 73
    71
  0
VERTEX
  5
107A
330
E15
100
AcDbEntity
  8
0
 62
     7
100
AcDbFaceRecord
 10
0.0
 20
0.0
 30
0.0
 70
   128
 71
    74
 72
    42
 73
    37
  0
VERTEX
  5
107B
330
E15
100
AcDbEntity
  8
0
 62
     7
100
AcDbFaceRecord
 10
0.0
 20
0.0
 30
0.0
 70
   128
 71
    74
 72
    61
 73
    42
  0
VERTEX
  5
107C
330
E15
100
AcDbEntity
  8
0
 62
     7
100
AcDbFaceRecord
 10
0.0
 20
0.0
 30
0.0
 70
   128
 71
    74
 72
    62
 73
    61
  0
VERTEX
  5
107D
330
E15
100
AcDbEntity
  8
0
 62
     7
100
AcDbFaceRecord
 10
0.0
 20
0.0
 30
0.0
 70
   128
 71
    62
 72
    74
 73
    72
  0
VERTEX
  5
107E
330
E15
100
AcDbEntity
  8
0
 62
     7
100
AcDbFaceRecord
 10
0.0
 20
0.0
 30
0.0
 70
   128
 71
    72
 72
    54
 73
    53
  0
VERTEX
  5
107F
330
E15
100
AcDbEntity
  8
0
 62
     7
100
AcDbFaceRecord
 10
0.0
 20
0.0
 30
0.0
 70
   128
 71
    75
 72
    69
 73
    70
  0
VERTEX
  5
1080
330
E15
100
AcDbEntity
  8
0
 62
     7
100
AcDbFaceRecord
 10
0.0
 20
0.0
 30
0.0
 70
   128
 71
    75
 72
    27
 73
    69
  0
VERTEX
  5
1081
330
E15
100
AcDbEntity
  8
0
 62
     7
100
AcDbFaceRecord
 10
0.0
 20
0.0
 30
0.0
 70
   128
 71
    75
 72
    32
 73
    27
  0
VERTEX
  5
1082
330
E15
100
AcDbEntity
  8
0
 62
     7
100
AcDbFaceRecord
 10
0.0
 20
0.0
 30
0.0
 70
   128
 71
    75
 72
    52
 73
    32
  0
VERTEX
  5
1083
330
E15
100
AcDbEntity
  8
0
 62
     7
100
AcDbFaceRecord
 10
0.0
 20
0.0
 30
0.0
 70
   128
 71
    75
 72
    63
 73
    52
  0
VERTEX
  5
1084
330
E15
100
AcDbEntity
  8
0
 62
     7
100
AcDbFaceRecord
 10
0.0
 20
0.0
 30
0.0
 70
   128
 71
    63
 72
    75
 73
    70
  0
VERTEX
  5
1085
330
E15
100
AcDbEntity
  8
0
 62
     7
100
AcDbFaceRecord
 10
0.0
 20
0.0
 30
0.0
 70
   128
 71
    70
 72
    57
 73
    56
  0
VERTEX
  5
1086
330
E15
100
AcDbEntity
  8
0
 62
     7
100
AcDbFaceRecord
 10
0.0
 20
0.0
 30
0.0
 70
   128
 71
    76
 72
    67
 73
    68
  0
VERTEX
  5
1087
330
E15
100
AcDbEntity
  8
0
 62
     7
100
AcDbFaceRecord
 10
0.0
 20
0.0
 30
0.0
 70
   128
 71
    76
 72
     8
 73
    67
  0
VERTEX
  5
1088
330
E15
100
AcDbEntity
  8
0
 62
     7
100
AcDbFaceRecord
 10
0.0
 20
0.0
 30
0.0
 70
   128
 71
    76
 72
    13
 73
     8
  0
VERTEX
  5
1089
330
E15
100
AcDbEntity
  8
0
 62
     7
100
AcDbFaceRecord
 10
0.0
 20
0.0
 30
0.0
 70
   128
 71
    76
 72
    55
 73
    13
  0
VERTEX
  5
108A
330
E15
100
AcDbEntity
  8
0
 62
     7
100
AcDbFaceRecord
 10
0.0
 20
0.0
 30
0.0
 70
   128
 71
    76
 72
    64
 73
    55
  0
VERTEX
  5
108B
330
E15
100
AcDbEntity
  8
0
 62
     7
100
AcDbFaceRecord
 10
0.0
 20
0.0
 30
0.0
 70
   128
 71
    64
 72
    76
 73
    68
  0
VERTEX
  5
108C
330
E15
100
AcDbEntity
  8
0
 62
     7
100
AcDbFaceRecord
 10
0.0
 20
0.0
 30
0.0
 70
   128
 71
    28
 72
    77
 73
    78
  0
VERTEX
  5
108D
330
E15
100
AcDbEntity
  8
0
 62
     7
100
AcDbFaceRecord
 10
0.0
 20
0.0
 30
0.0
 70
   128
 71
    79
 72
    77
 73
    28
  0
VERTEX
  5
108E
330
E15
100
AcDbEntity
  8
0
 62
     7
100
AcDbFaceRecord
 10
0.0
 20
0.0
 30
0.0
 70
   128
 71
    80
 72
    81
 73
    82
  0
VERTEX
  5
108F
330
E15
100
AcDbEntity
  8
0
 62
     7
100
AcDbFaceRecord
 10
0.0
 20
0.0
 30
0.0
 70
   128
 71
    83
 72
    40
 73
    84
  0
VERTEX
  5
1090
330
E15
100
AcDbEntity
  8
0
 62
     7
100
AcDbFaceRecord
 10
0.0
 20
0.0
 30
0.0
 70
   128
 71
    12
 72
    28
 73
    78
  0
VERTEX
  5
1091
330
E15
100
AcDbEntity
  8
0
 62
     7
100
AcDbFaceRecord
 10
0.0
 20
0.0
 30
0.0
 70
   128
 71
    85
 72
    12
 73
    78
  0
VERTEX
  5
1092
330
E15
100
AcDbEntity
  8
0
 62
     7
100
AcDbFaceRecord
 10
0.0
 20
0.0
 30
0.0
 70
   128
 71
    11
 72
    12
 73
    85
  0
VERTEX
  5
1093
330
E15
100
AcDbEntity
  8
0
 62
     7
100
AcDbFaceRecord
 10
0.0
 20
0.0
 30
0.0
 70
   128
 71
     9
 72
    11
 73
    86
  0
VERTEX
  5
1094
330
E15
100
AcDbEntity
  8
0
 62
     7
100
AcDbFaceRecord
 10
0.0
 20
0.0
 30
0.0
 70
   128
 71
    47
 72
    15
 73
    87
  0
VERTEX
  5
1095
330
E15
100
AcDbEntity
  8
0
 62
     7
100
AcDbFaceRecord
 10
0.0
 20
0.0
 30
0.0
 70
   128
 71
    88
 72
    87
 73
    89
  0
VERTEX
  5
1096
330
E15
100
AcDbEntity
  8
0
 62
     7
100
AcDbFaceRecord
 10
0.0
 20
0.0
 30
0.0
 70
   128
 71
    88
 72
    47
 73
    87
  0
VERTEX
  5
1097
330
E15
100
AcDbEntity
  8
0
 62
     7
100
AcDbFaceRecord
 10
0.0
 20
0.0
 30
0.0
 70
   128
 71
    90
 72
    45
 73
    91
  0
VERTEX
  5
1098
330
E15
100
AcDbEntity
  8
0
 62
     7
100
AcDbFaceRecord
 10
0.0
 20
0.0
 30
0.0
 70
   128
 71
    38
 72
    40
 73
    83
  0
VERTEX
  5
1099
330
E15
100
AcDbEntity
  8
0
 62
     7
100
AcDbFaceRecord
 10
0.0
 20
0.0
 30
0.0
 70
   128
 71
    30
 72
    81
 73
    80
  0
VERTEX
  5
109A
330
E15
100
AcDbEntity
  8
0
 62
     7
100
AcDbFaceRecord
 10
0.0
 20
0.0
 30
0.0
 70
   128
 71
    30
 72
    31
 73
    81
  0
VERTEX
  5
109B
330
E15
100
AcDbEntity
  8
0
 62
     7
100
AcDbFaceRecord
 10
0.0
 20
0.0
 30
0.0
 70
   128
 71
    86
 72
    11
 73
    85
  0
VERTEX
  5
109C
330
E15
100
AcDbEntity
  8
0
 62
     7
100
AcDbFaceRecord
 10
0.0
 20
0.0
 30
0.0
 70
   128
 71
    85
 72
    78
 73
    77
  0
VERTEX
  5
109D
330
E15
100
AcDbEntity
  8
0
 62
     7
100
AcDbFaceRecord
 10
0.0
 20
0.0
 30
0.0
 70
   128
 71
    30
 72
    79
 73
    28
  0
VERTEX
  5
109E
330
E15
100
AcDbEntity
  8
0
 62
     7
100
AcDbFaceRecord
 10
0.0
 20
0.0
 30
0.0
 70
   128
 71
    79
 72
    30
 73
    80
  0
VERTEX
  5
109F
330
E15
100
AcDbEntity
  8
0
 62
     7
100
AcDbFaceRecord
 10
0.0
 20
0.0
 30
0.0
 70
   128
 71
    38
 72
    81
 73
    31
  0
VERTEX
  5
10A0
330
E15
100
AcDbEntity
  8
0
 62
     7
100
AcDbFaceRecord
 10
0.0
 20
0.0
 30
0.0
 70
   128
 71
    38
 72
    82
 73
    81
  0
VERTEX
  5
10A1
330
E15
100
AcDbEntity
  8
0
 62
     7
100
AcDbFaceRecord
 10
0.0
 20
0.0
 30
0.0
 70
   128
 71
    82
 72
    38
 73
    83
  0
VERTEX
  5
10A2
330
E15
100
AcDbEntity
  8
0
 62
     7
100
AcDbFaceRecord
 10
0.0
 20
0.0
 30
0.0
 70
   128
 71
    92
 72
    45
 73
    90
  0
VERTEX
  5
10A3
330
E15
100
AcDbEntity
  8
0
 62
     7
100
AcDbFaceRecord
 10
0.0
 20
0.0
 30
0.0
 70
   128
 71
    92
 72
    41
 73
    45
  0
VERTEX
  5
10A4
330
E15
100
AcDbEntity
  8
0
 62
     7
100
AcDbFaceRecord
 10
0.0
 20
0.0
 30
0.0
 70
   128
 71
    92
 72
    40
 73
    41
  0
VERTEX
  5
10A5
330
E15
100
AcDbEntity
  8
0
 62
     7
100
AcDbFaceRecord
 10
0.0
 20
0.0
 30
0.0
 70
   128
 71
    92
 72
    84
 73
    40
  0
VERTEX
  5
10A6
330
E15
100
AcDbEntity
  8
0
 62
     7
100
AcDbFaceRecord
 10
0.0
 20
0.0
 30
0.0
 70
   128
 71
    84
 72
    92
 73
    90
  0
VERTEX
  5
10A7
330
E15
100
AcDbEntity
  8
0
 62
     7
100
AcDbFaceRecord
 10
0.0
 20
0.0
 30
0.0
 70
   128
 71
    47
 72
    91
 73
    45
  0
VERTEX
  5
10A8
330
E15
100
AcDbEntity
  8
0
 62
     7
100
AcDbFaceRecord
 10
0.0
 20
0.0
 30
0.0
 70
   128
 71
    91
 72
    47
 73
    88
  0
VERTEX
  5
10A9
330
E15
100
AcDbEntity
  8
0
 62
     7
100
AcDbFaceRecord
 10
0.0
 20
0.0
 30
0.0
 70
   128
 71
     9
 72
    87
 73
    15
  0
VERTEX
  5
10AA
330
E15
100
AcDbEntity
  8
0
 62
     7
100
AcDbFaceRecord
 10
0.0
 20
0.0
 30
0.0
 70
   128
 71
     9
 72
    89
 73
    87
  0
VERTEX
  5
10AB
330
E15
100
AcDbEntity
  8
0
 62
     7
100
AcDbFaceRecord
 10
0.0
 20
0.0
 30
0.0
 70
   128
 71
    89
 72
     9
 73
    86
  0
VERTEX
  5
10AC
330
E15
100
AcDbEntity
  8
0
 62
     7
100
AcDbFaceRecord
 10
0.0
 20
0.0
 30
0.0
 70
   128
 71
    93
 72
    18
 73
    94
  0
VERTEX
  5
10AD
330
E15
100
AcDbEntity
  8
0
 62
     7
100
AcDbFaceRecord
 10
0.0
 20
0.0
 30
0.0
 70
   128
 71
    95
 72
    96
 73
    36
  0
VERTEX
  5
10AE
330
E15
100
AcDbEntity
  8
0
 62
     7
100
AcDbFaceRecord
 10
0.0
 20
0.0
 30
0.0
 70
   128
 71
    17
 72
    18
 73
    93
  0
VERTEX
  5
10AF
330
E15
100
AcDbEntity
  8
0
 62
     7
100
AcDbFaceRecord
 10
0.0
 20
0.0
 30
0.0
 70
   128
 71
    97
 72
    94
 73
    18
  0
VERTEX
  5
10B0
330
E15
100
AcDbEntity
  8
0
 62
     7
100
AcDbFaceRecord
 10
0.0
 20
0.0
 30
0.0
 70
   128
 71
    98
 72
    99
 73
   100
  0
VERTEX
  5
10B1
330
E15
100
AcDbEntity
  8
0
 62
     7
100
AcDbFaceRecord
 10
0.0
 20
0.0
 30
0.0
 70
   128
 71
   101
 72
    99
 73
    98
  0
VERTEX
  5
10B2
330
E15
100
AcDbEntity
  8
0
 62
     7
100
AcDbFaceRecord
 10
0.0
 20
0.0
 30
0.0
 70
   128
 71
   102
 72
    96
 73
    95
  0
VERTEX
  5
10B3
330
E15
100
AcDbEntity
  8
0
 62
     7
100
AcDbFaceRecord
 10
0.0
 20
0.0
 30
0.0
 70
   128
 71
   103
 72
   102
 73
    95
  0
VERTEX
  5
10B4
330
E15
100
AcDbEntity
  8
0
 62
     7
100
AcDbFaceRecord
 10
0.0
 20
0.0
 30
0.0
 70
   128
 71
    36
 72
   104
 73
    35
  0
VERTEX
  5
10B5
330
E15
100
AcDbEntity
  8
0
 62
     7
100
AcDbFaceRecord
 10
0.0
 20
0.0
 30
0.0
 70
   128
 71
   105
 72
   106
 73
   107
  0
VERTEX
  5
10B6
330
E15
100
AcDbEntity
  8
0
 62
     7
100
AcDbFaceRecord
 10
0.0
 20
0.0
 30
0.0
 70
   128
 71
     3
 72
   105
 73
   107
  0
VERTEX
  5
10B7
330
E15
100
AcDbEntity
  8
0
 62
     7
100
AcDbFaceRecord
 10
0.0
 20
0.0
 30
0.0
 70
   128
 71
   108
 72
   109
 73
   110
  0
VERTEX
  5
10B8
330
E15
100
AcDbEntity
  8
0
 62
     7
100
AcDbFaceRecord
 10
0.0
 20
0.0
 30
0.0
 70
   128
 71
   108
 72
     3
 73
   109
  0
VERTEX
  5
10B9
330
E15
100
AcDbEntity
  8
0
 62
     7
100
AcDbFaceRecord
 10
0.0
 20
0.0
 30
0.0
 70
   128
 71
   108
 72
   105
 73
     3
  0
VERTEX
  5
10BA
330
E15
100
AcDbEntity
  8
0
 62
     7
100
AcDbFaceRecord
 10
0.0
 20
0.0
 30
0.0
 70
   128
 71
    21
 72
   100
 73
    20
  0
VERTEX
  5
10BB
330
E15
100
AcDbEntity
  8
0
 62
     7
100
AcDbFaceRecord
 10
0.0
 20
0.0
 30
0.0
 70
   128
 71
    21
 72
    98
 73
   100
  0
VERTEX
  5
10BC
330
E15
100
AcDbEntity
  8
0
 62
     7
100
AcDbFaceRecord
 10
0.0
 20
0.0
 30
0.0
 70
   128
 71
   104
 72
    96
 73
   102
  0
VERTEX
  5
10BD
330
E15
100
AcDbEntity
  8
0
 62
     7
100
AcDbFaceRecord
 10
0.0
 20
0.0
 30
0.0
 70
   128
 71
   104
 72
    36
 73
    96
  0
VERTEX
  5
10BE
330
E15
100
AcDbEntity
  8
0
 62
     7
100
AcDbFaceRecord
 10
0.0
 20
0.0
 30
0.0
 70
   128
 71
    26
 72
   111
 73
    24
  0
VERTEX
  5
10BF
330
E15
100
AcDbEntity
  8
0
 62
     7
100
AcDbFaceRecord
 10
0.0
 20
0.0
 30
0.0
 70
   128
 71
   112
 72
   113
 73
   111
  0
VERTEX
  5
10C0
330
E15
100
AcDbEntity
  8
0
 62
     7
100
AcDbFaceRecord
 10
0.0
 20
0.0
 30
0.0
 70
   128
 71
    97
 72
   100
 73
    99
  0
VERTEX
  5
10C1
330
E15
100
AcDbEntity
  8
0
 62
     7
100
AcDbFaceRecord
 10
0.0
 20
0.0
 30
0.0
 70
   128
 71
    97
 72
    20
 73
   100
  0
VERTEX
  5
10C2
330
E15
100
AcDbEntity
  8
0
 62
     7
100
AcDbFaceRecord
 10
0.0
 20
0.0
 30
0.0
 70
   128
 71
    20
 72
    97
 73
    18
  0
VERTEX
  5
10C3
330
E15
100
AcDbEntity
  8
0
 62
     7
100
AcDbFaceRecord
 10
0.0
 20
0.0
 30
0.0
 70
   128
 71
   114
 72
    93
 73
   115
  0
VERTEX
  5
10C4
330
E15
100
AcDbEntity
  8
0
 62
     7
100
AcDbFaceRecord
 10
0.0
 20
0.0
 30
0.0
 70
   128
 71
   114
 72
    17
 73
    93
  0
VERTEX
  5
10C5
330
E15
100
AcDbEntity
  8
0
 62
     7
100
AcDbFaceRecord
 10
0.0
 20
0.0
 30
0.0
 70
   128
 71
     7
 72
    17
 73
   114
  0
VERTEX
  5
10C6
330
E15
100
AcDbEntity
  8
0
 62
     7
100
AcDbFaceRecord
 10
0.0
 20
0.0
 30
0.0
 70
   128
 71
     6
 72
   109
 73
     3
  0
VERTEX
  5
10C7
330
E15
100
AcDbEntity
  8
0
 62
     7
100
AcDbFaceRecord
 10
0.0
 20
0.0
 30
0.0
 70
   128
 71
     1
 72
     3
 73
   107
  0
VERTEX
  5
10C8
330
E15
100
AcDbEntity
  8
0
 62
     7
100
AcDbFaceRecord
 10
0.0
 20
0.0
 30
0.0
 70
   128
 71
   116
 72
   111
 73
   113
  0
VERTEX
  5
10C9
330
E15
100
AcDbEntity
  8
0
 62
     7
100
AcDbFaceRecord
 10
0.0
 20
0.0
 30
0.0
 70
   128
 71
   116
 72
    24
 73
   111
  0
VERTEX
  5
10CA
330
E15
100
AcDbEntity
  8
0
 62
     7
100
AcDbFaceRecord
 10
0.0
 20
0.0
 30
0.0
 70
   128
 71
    25
 72
    22
 73
    95
  0
VERTEX
  5
10CB
330
E15
100
AcDbEntity
  8
0
 62
     7
100
AcDbFaceRecord
 10
0.0
 20
0.0
 30
0.0
 70
   128
 71
    25
 72
    95
 73
    36
  0
VERTEX
  5
10CC
330
E15
100
AcDbEntity
  8
0
 62
     7
100
AcDbFaceRecord
 10
0.0
 20
0.0
 30
0.0
 70
   128
 71
   117
 72
    35
 73
   104
  0
VERTEX
  5
10CD
330
E15
100
AcDbEntity
  8
0
 62
     7
100
AcDbFaceRecord
 10
0.0
 20
0.0
 30
0.0
 70
   128
 71
    34
 72
    98
 73
    21
  0
VERTEX
  5
10CE
330
E15
100
AcDbEntity
  8
0
 62
     7
100
AcDbFaceRecord
 10
0.0
 20
0.0
 30
0.0
 70
   128
 71
   118
 72
   114
 73
   115
  0
VERTEX
  5
10CF
330
E15
100
AcDbEntity
  8
0
 62
     7
100
AcDbFaceRecord
 10
0.0
 20
0.0
 30
0.0
 70
   128
 71
   118
 72
     7
 73
   114
  0
VERTEX
  5
10D0
330
E15
100
AcDbEntity
  8
0
 62
     7
100
AcDbFaceRecord
 10
0.0
 20
0.0
 30
0.0
 70
   128
 71
   118
 72
     6
 73
     7
  0
VERTEX
  5
10D1
330
E15
100
AcDbEntity
  8
0
 62
     7
100
AcDbFaceRecord
 10
0.0
 20
0.0
 30
0.0
 70
   128
 71
   118
 72
   109
 73
     6
  0
VERTEX
  5
10D2
330
E15
100
AcDbEntity
  8
0
 62
     7
100
AcDbFaceRecord
 10
0.0
 20
0.0
 30
0.0
 70
   128
 71
   118
 72
   110
 73
   109
  0
VERTEX
  5
10D3
330
E15
100
AcDbEntity
  8
0
 62
     7
100
AcDbFaceRecord
 10
0.0
 20
0.0
 30
0.0
 70
   128
 71
   110
 72
   118
 73
   115
  0
VERTEX
  5
10D4
330
E15
100
AcDbEntity
  8
0
 62
     7
100
AcDbFaceRecord
 10
0.0
 20
0.0
 30
0.0
 70
   128
 71
   115
 72
    93
 73
    94
  0
VERTEX
  5
10D5
330
E15
100
AcDbEntity
  8
0
 62
     7
100
AcDbFaceRecord
 10
0.0
 20
0.0
 30
0.0
 70
   128
 71
    94
 72
    97
 73
    99
  0
VERTEX
  5
10D6
330
E15
100
AcDbEntity
  8
0
 62
     7
100
AcDbFaceRecord
 10
0.0
 20
0.0
 30
0.0
 70
   128
 71
   119
 72
    35
 73
   117
  0
VERTEX
  5
10D7
330
E15
100
AcDbEntity
  8
0
 62
     7
100
AcDbFaceRecord
 10
0.0
 20
0.0
 30
0.0
 70
   128
 71
   119
 72
    34
 73
    35
  0
VERTEX
  5
10D8
330
E15
100
AcDbEntity
  8
0
 62
     7
100
AcDbFaceRecord
 10
0.0
 20
0.0
 30
0.0
 70
   128
 71
   119
 72
    98
 73
    34
  0
VERTEX
  5
10D9
330
E15
100
AcDbEntity
  8
0
 62
     7
100
AcDbFaceRecord
 10
0.0
 20
0.0
 30
0.0
 70
   128
 71
   119
 72
   101
 73
    98
  0
VERTEX
  5
10DA
330
E15
100
AcDbEntity
  8
0
 62
     7
100
AcDbFaceRecord
 10
0.0
 20
0.0
 30
0.0
 70
   128
 71
   101
 72
   119
 73
   117
  0
VERTEX
  5
10DB
330
E15
100
AcDbEntity
  8
0
 62
     7
100
AcDbFaceRecord
 10
0.0
 20
0.0
 30
0.0
 70
   128
 71
   117
 72
   104
 73
   102
  0
VERTEX
  5
10DC
330
E15
100
AcDbEntity
  8
0
 62
     7
100
AcDbFaceRecord
 10
0.0
 20
0.0
 30
0.0
 70
   128
 71
   120
 72
   116
 73
   113
  0
VERTEX
  5
10DD
330
E15
100
AcDbEntity
  8
0
 62
     7
100
AcDbFaceRecord
 10
0.0
 20
0.0
 30
0.0
 70
   128
 71
   120
 72
    24
 73
   116
  0
VERTEX
  5
10DE
330
E15
100
AcDbEntity
  8
0
 62
     7
100
AcDbFaceRecord
 10
0.0
 20
0.0
 30
0.0
 70
   128
 71
   120
 72
    22
 73
    24
  0
VERTEX
  5
10DF
330
E15
100
AcDbEntity
  8
0
 62
     7
100
AcDbFaceRecord
 10
0.0
 20
0.0
 30
0.0
 70
   128
 71
   120
 72
    95
 73
    22
  0
VERTEX
  5
10E0
330
E15
100
AcDbEntity
  8
0
 62
     7
100
AcDbFaceRecord
 10
0.0
 20
0.0
 30
0.0
 70
   128
 71
   120
 72
   103
 73
    95
  0
VERTEX
  5
10E1
330
E15
100
AcDbEntity
  8
0
 62
     7
100
AcDbFaceRecord
 10
0.0
 20
0.0
 30
0.0
 70
   128
 71
   103
 72
   120
 73
   113
  0
VERTEX
  5
10E2
330
E15
100
AcDbEntity
  8
0
 62
     7
100
AcDbFaceRecord
 10
0.0
 20
0.0
 30
0.0
 70
   128
 71
   121
 72
   107
 73
   106
  0
VERTEX
  5
10E3
330
E15
100
AcDbEntity
  8
0
 62
     7
100
AcDbFaceRecord
 10
0.0
 20
0.0
 30
0.0
 70
   128
 71
   121
 72
     1
 73
   107
  0
VERTEX
  5
10E4
330
E15
100
AcDbEntity
  8
0
 62
     7
100
AcDbFaceRecord
 10
0.0
 20
0.0
 30
0.0
 70
   128
 71
   121
 72
     4
 73
     1
  0
VERTEX
  5
10E5
330
E15
100
AcDbEntity
  8
0
 62
     7
100
AcDbFaceRecord
 10
0.0
 20
0.0
 30
0.0
 70
   128
 71
   121
 72
    26
 73
     4
  0
VERTEX
  5
10E6
330
E15
100
AcDbEntity
  8
0
 62
     7
100
AcDbFaceRecord
 10
0.0
 20
0.0
 30
0.0
 70
   128
 71
   121
 72
   111
 73
    26
  0
VERTEX
  5
10E7
330
E15
100
AcDbEntity
  8
0
 62
     7
100
AcDbFaceRecord
 10
0.0
 20
0.0
 30
0.0
 70
   128
 71
   121
 72
   112
 73
   111
  0
VERTEX
  5
10E8
330
E15
100
AcDbEntity
  8
0
 62
     7
100
AcDbFaceRecord
 10
0.0
 20
0.0
 30
0.0
 70
   128
 71
   112
 72
   121
 73
   106
  0
VERTEX
  5
10E9
330
E15
100
AcDbEntity
  8
0
 62
     7
100
AcDbFaceRecord
 10
0.0
 20
0.0
 30
0.0
 70
   128
 71
   106
 72
   105
 73
   108
  0
VERTEX
  5
10EA
330
E15
100
AcDbEntity
  8
0
 62
     7
100
AcDbFaceRecord
 10
0.0
 20
0.0
 30
0.0
 70
   128
 71
   122
 72
   123
 73
   124
  0
VERTEX
  5
10EB
330
E15
100
AcDbEntity
  8
0
 62
     7
100
AcDbFaceRecord
 10
0.0
 20
0.0
 30
0.0
 70
   128
 71
   125
 72
   123
 73
   122
  0
VERTEX
  5
10EC
330
E15
100
AcDbEntity
  8
0
 62
     7
100
AcDbFaceRecord
 10
0.0
 20
0.0
 30
0.0
 70
   128
 71
   126
 72
   125
 73
   122
  0
VERTEX
  5
10ED
330
E15
100
AcDbEntity
  8
0
 62
     7
100
AcDbFaceRecord
 10
0.0
 20
0.0
 30
0.0
 70
   128
 71
   127
 72
   124
 73
   123
  0
VERTEX
  5
10EE
330
E15
100
AcDbEntity
  8
0
 62
     7
100
AcDbFaceRecord
 10
0.0
 20
0.0
 30
0.0
 70
   128
 71
   128
 72
   124
 73
   127
  0
VERTEX
  5
10EF
330
E15
100
AcDbEntity
  8
0
 62
     7
100
AcDbFaceRecord
 10
0.0
 20
0.0
 30
0.0
 70
   128
 71
   129
 72
   130
 73
   128
  0
VERTEX
  5
10F0
330
E15
100
AcDbEntity
  8
0
 62
     7
100
AcDbFaceRecord
 10
0.0
 20
0.0
 30
0.0
 70
   128
 71
   131
 72
   129
 73
   128
  0
VERTEX
  5
10F1
330
E15
100
AcDbEntity
  8
0
 62
     7
100
AcDbFaceRecord
 10
0.0
 20
0.0
 30
0.0
 70
   128
 71
   132
 72
   131
 73
   128
  0
VERTEX
  5
10F2
330
E15
100
AcDbEntity
  8
0
 62
     7
100
AcDbFaceRecord
 10
0.0
 20
0.0
 30
0.0
 70
   128
 71
   133
 72
   132
 73
   128
  0
VERTEX
  5
10F3
330
E15
100
AcDbEntity
  8
0
 62
     7
100
AcDbFaceRecord
 10
0.0
 20
0.0
 30
0.0
 70
   128
 71
   133
 72
   128
 73
   127
  0
VERTEX
  5
10F4
330
E15
100
AcDbEntity
  8
0
 62
     7
100
AcDbFaceRecord
 10
0.0
 20
0.0
 30
0.0
 70
   128
 71
   127
 72
   123
 73
   134
  0
VERTEX
  5
10F5
330
E15
100
AcDbEntity
  8
0
 62
     7
100
AcDbFaceRecord
 10
0.0
 20
0.0
 30
0.0
 70
   128
 71
   135
 72
   136
 73
   137
  0
VERTEX
  5
10F6
330
E15
100
AcDbEntity
  8
0
 62
     7
100
AcDbFaceRecord
 10
0.0
 20
0.0
 30
0.0
 70
   128
 71
   138
 72
   139
 73
   140
  0
VERTEX
  5
10F7
330
E15
100
AcDbEntity
  8
0
 62
     7
100
AcDbFaceRecord
 10
0.0
 20
0.0
 30
0.0
 70
   128
 71
   138
 72
   136
 73
   139
  0
VERTEX
  5
10F8
330
E15
100
AcDbEntity
  8
0
 62
     7
100
AcDbFaceRecord
 10
0.0
 20
0.0
 30
0.0
 70
   128
 71
   141
 72
   142
 73
   143
  0
VERTEX
  5
10F9
330
E15
100
AcDbEntity
  8
0
 62
     7
100
AcDbFaceRecord
 10
0.0
 20
0.0
 30
0.0
 70
   128
 71
   144
 72
   145
 73
   146
  0
VERTEX
  5
10FA
330
E15
100
AcDbEntity
  8
0
 62
     7
100
AcDbFaceRecord
 10
0.0
 20
0.0
 30
0.0
 70
   128
 71
   144
 72
   142
 73
   145
  0
VERTEX
  5
10FB
330
E15
100
AcDbEntity
  8
0
 62
     7
100
AcDbFaceRecord
 10
0.0
 20
0.0
 30
0.0
 70
   128
 71
   147
 72
   148
 73
   149
  0
VERTEX
  5
10FC
330
E15
100
AcDbEntity
  8
0
 62
     7
100
AcDbFaceRecord
 10
0.0
 20
0.0
 30
0.0
 70
   128
 71
   140
 72
   149
 73
   148
  0
VERTEX
  5
10FD
330
E15
100
AcDbEntity
  8
0
 62
     7
100
AcDbFaceRecord
 10
0.0
 20
0.0
 30
0.0
 70
   128
 71
   140
 72
   150
 73
   149
  0
VERTEX
  5
10FE
330
E15
100
AcDbEntity
  8
0
 62
     7
100
AcDbFaceRecord
 10
0.0
 20
0.0
 30
0.0
 70
   128
 71
   151
 72
   134
 73
   123
  0
VERTEX
  5
10FF
330
E15
100
AcDbEntity
  8
0
 62
     7
100
AcDbFaceRecord
 10
0.0
 20
0.0
 30
0.0
 70
   128
 71
   151
 72
   152
 73
   134
  0
VERTEX
  5
1100
330
E15
100
AcDbEntity
  8
0
 62
     7
100
AcDbFaceRecord
 10
0.0
 20
0.0
 30
0.0
 70
   128
 71
   151
 72
   153
 73
   152
  0
VERTEX
  5
1101
330
E15
100
AcDbEntity
  8
0
 62
     7
100
AcDbFaceRecord
 10
0.0
 20
0.0
 30
0.0
 70
   128
 71
   150
 72
   152
 73
   153
  0
VERTEX
  5
1102
330
E15
100
AcDbEntity
  8
0
 62
     7
100
AcDbFaceRecord
 10
0.0
 20
0.0
 30
0.0
 70
   128
 71
   150
 72
   139
 73
   152
  0
VERTEX
  5
1103
330
E15
100
AcDbEntity
  8
0
 62
     7
100
AcDbFaceRecord
 10
0.0
 20
0.0
 30
0.0
 70
   128
 71
   150
 72
   140
 73
   139
  0
VERTEX
  5
1104
330
E15
100
AcDbEntity
  8
0
 62
     7
100
AcDbFaceRecord
 10
0.0
 20
0.0
 30
0.0
 70
   128
 71
   154
 72
   150
 73
   153
  0
VERTEX
  5
1105
330
E15
100
AcDbEntity
  8
0
 62
     7
100
AcDbFaceRecord
 10
0.0
 20
0.0
 30
0.0
 70
   128
 71
   154
 72
   149
 73
   150
  0
VERTEX
  5
1106
330
E15
100
AcDbEntity
  8
0
 62
     7
100
AcDbFaceRecord
 10
0.0
 20
0.0
 30
0.0
 70
   128
 71
   155
 72
   138
 73
   140
  0
VERTEX
  5
1107
330
E15
100
AcDbEntity
  8
0
 62
     7
100
AcDbFaceRecord
 10
0.0
 20
0.0
 30
0.0
 70
   128
 71
   155
 72
   145
 73
   138
  0
VERTEX
  5
1108
330
E15
100
AcDbEntity
  8
0
 62
     7
100
AcDbFaceRecord
 10
0.0
 20
0.0
 30
0.0
 70
   128
 71
   155
 72
   146
 73
   145
  0
VERTEX
  5
1109
330
E15
100
AcDbEntity
  8
0
 62
     7
100
AcDbFaceRecord
 10
0.0
 20
0.0
 30
0.0
 70
   128
 71
   155
 72
   140
 73
   148
  0
VERTEX
  5
110A
330
E15
100
AcDbEntity
  8
0
 62
     7
100
AcDbFaceRecord
 10
0.0
 20
0.0
 30
0.0
 70
   128
 71
   156
 72
   157
 73
   158
  0
VERTEX
  5
110B
330
E15
100
AcDbEntity
  8
0
 62
     7
100
AcDbFaceRecord
 10
0.0
 20
0.0
 30
0.0
 70
   128
 71
   159
 72
   158
 73
   157
  0
VERTEX
  5
110C
330
E15
100
AcDbEntity
  8
0
 62
     7
100
AcDbFaceRecord
 10
0.0
 20
0.0
 30
0.0
 70
   128
 71
   147
 72
   159
 73
   157
  0
VERTEX
  5
110D
330
E15
100
AcDbEntity
  8
0
 62
     7
100
AcDbFaceRecord
 10
0.0
 20
0.0
 30
0.0
 70
   128
 71
   147
 72
   160
 73
   159
  0
VERTEX
  5
110E
330
E15
100
AcDbEntity
  8
0
 62
     7
100
AcDbFaceRecord
 10
0.0
 20
0.0
 30
0.0
 70
   128
 71
   126
 72
   161
 73
   125
  0
VERTEX
  5
110F
330
E15
100
AcDbEntity
  8
0
 62
     7
100
AcDbFaceRecord
 10
0.0
 20
0.0
 30
0.0
 70
   128
 71
   162
 72
   163
 73
   164
  0
VERTEX
  5
1110
330
E15
100
AcDbEntity
  8
0
 62
     7
100
AcDbFaceRecord
 10
0.0
 20
0.0
 30
0.0
 70
   128
 71
   165
 72
   154
 73
   153
  0
VERTEX
  5
1111
330
E15
100
AcDbEntity
  8
0
 62
     7
100
AcDbFaceRecord
 10
0.0
 20
0.0
 30
0.0
 70
   128
 71
   165
 72
   163
 73
   154
  0
VERTEX
  5
1112
330
E15
100
AcDbEntity
  8
0
 62
     7
100
AcDbFaceRecord
 10
0.0
 20
0.0
 30
0.0
 70
   128
 71
   165
 72
   164
 73
   163
  0
VERTEX
  5
1113
330
E15
100
AcDbEntity
  8
0
 62
     7
100
AcDbFaceRecord
 10
0.0
 20
0.0
 30
0.0
 70
   128
 71
   160
 72
   154
 73
   163
  0
VERTEX
  5
1114
330
E15
100
AcDbEntity
  8
0
 62
     7
100
AcDbFaceRecord
 10
0.0
 20
0.0
 30
0.0
 70
   128
 71
   160
 72
   149
 73
   154
  0
VERTEX
  5
1115
330
E15
100
AcDbEntity
  8
0
 62
     7
100
AcDbFaceRecord
 10
0.0
 20
0.0
 30
0.0
 70
   128
 71
   160
 72
   147
 73
   149
  0
VERTEX
  5
1116
330
E15
100
AcDbEntity
  8
0
 62
     7
100
AcDbFaceRecord
 10
0.0
 20
0.0
 30
0.0
 70
   128
 71
   166
 72
   148
 73
   147
  0
VERTEX
  5
1117
330
E15
100
AcDbEntity
  8
0
 62
     7
100
AcDbFaceRecord
 10
0.0
 20
0.0
 30
0.0
 70
   128
 71
   167
 72
   162
 73
   168
  0
VERTEX
  5
1118
330
E15
100
AcDbEntity
  8
0
 62
     7
100
AcDbFaceRecord
 10
0.0
 20
0.0
 30
0.0
 70
   128
 71
   167
 72
   163
 73
   162
  0
VERTEX
  5
1119
330
E15
100
AcDbEntity
  8
0
 62
     7
100
AcDbFaceRecord
 10
0.0
 20
0.0
 30
0.0
 70
   128
 71
   167
 72
   160
 73
   163
  0
VERTEX
  5
111A
330
E15
100
AcDbEntity
  8
0
 62
     7
100
AcDbFaceRecord
 10
0.0
 20
0.0
 30
0.0
 70
   128
 71
   167
 72
   159
 73
   160
  0
VERTEX
  5
111B
330
E15
100
AcDbEntity
  8
0
 62
     7
100
AcDbFaceRecord
 10
0.0
 20
0.0
 30
0.0
 70
   128
 71
   166
 72
   157
 73
   169
  0
VERTEX
  5
111C
330
E15
100
AcDbEntity
  8
0
 62
     7
100
AcDbFaceRecord
 10
0.0
 20
0.0
 30
0.0
 70
   128
 71
   166
 72
   147
 73
   157
  0
VERTEX
  5
111D
330
E15
100
AcDbEntity
  8
0
 62
     7
100
AcDbFaceRecord
 10
0.0
 20
0.0
 30
0.0
 70
   128
 71
   170
 72
   156
 73
   158
  0
VERTEX
  5
111E
330
E15
100
AcDbEntity
  8
0
 62
     7
100
AcDbFaceRecord
 10
0.0
 20
0.0
 30
0.0
 70
   128
 71
   171
 72
   168
 73
   162
  0
VERTEX
  5
111F
330
E15
100
AcDbEntity
  8
0
 62
     7
100
AcDbFaceRecord
 10
0.0
 20
0.0
 30
0.0
 70
   128
 71
   172
 72
   164
 73
   173
  0
VERTEX
  5
1120
330
E15
100
AcDbEntity
  8
0
 62
     7
100
AcDbFaceRecord
 10
0.0
 20
0.0
 30
0.0
 70
   128
 71
   172
 72
   162
 73
   164
  0
VERTEX
  5
1121
330
E15
100
AcDbEntity
  8
0
 62
     7
100
AcDbFaceRecord
 10
0.0
 20
0.0
 30
0.0
 70
   128
 71
   172
 72
   171
 73
   162
  0
VERTEX
  5
1122
330
E15
100
AcDbEntity
  8
0
 62
     7
100
AcDbFaceRecord
 10
0.0
 20
0.0
 30
0.0
 70
   128
 71
   172
 72
   174
 73
   171
  0
VERTEX
  5
1123
330
E15
100
AcDbEntity
  8
0
 62
     7
100
AcDbFaceRecord
 10
0.0
 20
0.0
 30
0.0
 70
   128
 71
   175
 72
   168
 73
   171
  0
VERTEX
  5
1124
330
E15
100
AcDbEntity
  8
0
 62
     7
100
AcDbFaceRecord
 10
0.0
 20
0.0
 30
0.0
 70
   128
 71
   176
 72
   167
 73
   168
  0
VERTEX
  5
1125
330
E15
100
AcDbEntity
  8
0
 62
     7
100
AcDbFaceRecord
 10
0.0
 20
0.0
 30
0.0
 70
   128
 71
   176
 72
   159
 73
   167
  0
VERTEX
  5
1126
330
E15
100
AcDbEntity
  8
0
 62
     7
100
AcDbFaceRecord
 10
0.0
 20
0.0
 30
0.0
 70
   128
 71
   176
 72
   158
 73
   159
  0
VERTEX
  5
1127
330
E15
100
AcDbEntity
  8
0
 62
     7
100
AcDbFaceRecord
 10
0.0
 20
0.0
 30
0.0
 70
   128
 71
   176
 72
   170
 73
   158
  0
VERTEX
  5
1128
330
E15
100
AcDbEntity
  8
0
 62
     7
100
AcDbFaceRecord
 10
0.0
 20
0.0
 30
0.0
 70
   128
 71
   170
 72
   177
 73
   178
  0
VERTEX
  5
1129
330
E15
100
AcDbEntity
  8
0
 62
     7
100
AcDbFaceRecord
 10
0.0
 20
0.0
 30
0.0
 70
   128
 71
   170
 72
   179
 73
   177
  0
VERTEX
  5
112A
330
E15
100
AcDbEntity
  8
0
 62
     7
100
AcDbFaceRecord
 10
0.0
 20
0.0
 30
0.0
 70
   128
 71
   175
 72
   180
 73
   181
  0
VERTEX
  5
112B
330
E15
100
AcDbEntity
  8
0
 62
     7
100
AcDbFaceRecord
 10
0.0
 20
0.0
 30
0.0
 70
   128
 71
   182
 72
   183
 73
   174
  0
VERTEX
  5
112C
330
E15
100
AcDbEntity
  8
0
 62
     7
100
AcDbFaceRecord
 10
0.0
 20
0.0
 30
0.0
 70
   128
 71
   180
 72
   174
 73
   183
  0
VERTEX
  5
112D
330
E15
100
AcDbEntity
  8
0
 62
     7
100
AcDbFaceRecord
 10
0.0
 20
0.0
 30
0.0
 70
   128
 71
   180
 72
   171
 73
   174
  0
VERTEX
  5
112E
330
E15
100
AcDbEntity
  8
0
 62
     7
100
AcDbFaceRecord
 10
0.0
 20
0.0
 30
0.0
 70
   128
 71
   180
 72
   175
 73
   171
  0
VERTEX
  5
112F
330
E15
100
AcDbEntity
  8
0
 62
     7
100
AcDbFaceRecord
 10
0.0
 20
0.0
 30
0.0
 70
   128
 71
   184
 72
   185
 73
   186
  0
VERTEX
  5
1130
330
E15
100
AcDbEntity
  8
0
 62
     7
100
AcDbFaceRecord
 10
0.0
 20
0.0
 30
0.0
 70
   128
 71
   184
 72
   183
 73
   185
  0
VERTEX
  5
1131
330
E15
100
AcDbEntity
  8
0
 62
     7
100
AcDbFaceRecord
 10
0.0
 20
0.0
 30
0.0
 70
   128
 71
   184
 72
   180
 73
   183
  0
VERTEX
  5
1132
330
E15
100
AcDbEntity
  8
0
 62
     7
100
AcDbFaceRecord
 10
0.0
 20
0.0
 30
0.0
 70
   128
 71
   184
 72
   181
 73
   180
  0
VERTEX
  5
1133
330
E15
100
AcDbEntity
  8
0
 62
     7
100
AcDbFaceRecord
 10
0.0
 20
0.0
 30
0.0
 70
   128
 71
   179
 72
   168
 73
   175
  0
VERTEX
  5
1134
330
E15
100
AcDbEntity
  8
0
 62
     7
100
AcDbFaceRecord
 10
0.0
 20
0.0
 30
0.0
 70
   128
 71
   179
 72
   176
 73
   168
  0
VERTEX
  5
1135
330
E15
100
AcDbEntity
  8
0
 62
     7
100
AcDbFaceRecord
 10
0.0
 20
0.0
 30
0.0
 70
   128
 71
   179
 72
   170
 73
   176
  0
VERTEX
  5
1136
330
E15
100
AcDbEntity
  8
0
 62
     7
100
AcDbFaceRecord
 10
0.0
 20
0.0
 30
0.0
 70
   128
 71
   187
 72
   181
 73
   188
  0
VERTEX
  5
1137
330
E15
100
AcDbEntity
  8
0
 62
     7
100
AcDbFaceRecord
 10
0.0
 20
0.0
 30
0.0
 70
   128
 71
   187
 72
   175
 73
   181
  0
VERTEX
  5
1138
330
E15
100
AcDbEntity
  8
0
 62
     7
100
AcDbFaceRecord
 10
0.0
 20
0.0
 30
0.0
 70
   128
 71
   187
 72
   179
 73
   175
  0
VERTEX
  5
1139
330
E15
100
AcDbEntity
  8
0
 62
     7
100
AcDbFaceRecord
 10
0.0
 20
0.0
 30
0.0
 70
   128
 71
   187
 72
   177
 73
   179
  0
VERTEX
  5
113A
330
E15
100
AcDbEntity
  8
0
 62
     7
100
AcDbFaceRecord
 10
0.0
 20
0.0
 30
0.0
 70
   128
 71
   178
 72
   189
 73
   190
  0
VERTEX
  5
113B
330
E15
100
AcDbEntity
  8
0
 62
     7
100
AcDbFaceRecord
 10
0.0
 20
0.0
 30
0.0
 70
   128
 71
   191
 72
   182
 73
   122
  0
VERTEX
  5
113C
330
E15
100
AcDbEntity
  8
0
 62
     7
100
AcDbFaceRecord
 10
0.0
 20
0.0
 30
0.0
 70
   128
 71
   191
 72
   183
 73
   182
  0
VERTEX
  5
113D
330
E15
100
AcDbEntity
  8
0
 62
     7
100
AcDbFaceRecord
 10
0.0
 20
0.0
 30
0.0
 70
   128
 71
   191
 72
   185
 73
   183
  0
VERTEX
  5
113E
330
E15
100
AcDbEntity
  8
0
 62
     7
100
AcDbFaceRecord
 10
0.0
 20
0.0
 30
0.0
 70
   128
 71
   191
 72
   192
 73
   185
  0
VERTEX
  5
113F
330
E15
100
AcDbEntity
  8
0
 62
     7
100
AcDbFaceRecord
 10
0.0
 20
0.0
 30
0.0
 70
   128
 71
   191
 72
   124
 73
   192
  0
VERTEX
  5
1140
330
E15
100
AcDbEntity
  8
0
 62
     7
100
AcDbFaceRecord
 10
0.0
 20
0.0
 30
0.0
 70
   128
 71
   193
 72
   185
 73
   192
  0
VERTEX
  5
1141
330
E15
100
AcDbEntity
  8
0
 62
     7
100
AcDbFaceRecord
 10
0.0
 20
0.0
 30
0.0
 70
   128
 71
   193
 72
   186
 73
   185
  0
VERTEX
  5
1142
330
E15
100
AcDbEntity
  8
0
 62
     7
100
AcDbFaceRecord
 10
0.0
 20
0.0
 30
0.0
 70
   128
 71
   194
 72
   186
 73
   193
  0
VERTEX
  5
1143
330
E15
100
AcDbEntity
  8
0
 62
     7
100
AcDbFaceRecord
 10
0.0
 20
0.0
 30
0.0
 70
   128
 71
   195
 72
   184
 73
   186
  0
VERTEX
  5
1144
330
E15
100
AcDbEntity
  8
0
 62
     7
100
AcDbFaceRecord
 10
0.0
 20
0.0
 30
0.0
 70
   128
 71
   195
 72
   181
 73
   184
  0
VERTEX
  5
1145
330
E15
100
AcDbEntity
  8
0
 62
     7
100
AcDbFaceRecord
 10
0.0
 20
0.0
 30
0.0
 70
   128
 71
   195
 72
   188
 73
   181
  0
VERTEX
  5
1146
330
E15
100
AcDbEntity
  8
0
 62
     7
100
AcDbFaceRecord
 10
0.0
 20
0.0
 30
0.0
 70
   128
 71
   196
 72
   188
 73
   195
  0
VERTEX
  5
1147
330
E15
100
AcDbEntity
  8
0
 62
     7
100
AcDbFaceRecord
 10
0.0
 20
0.0
 30
0.0
 70
   128
 71
   197
 72
   198
 73
   199
  0
VERTEX
  5
1148
330
E15
100
AcDbEntity
  8
0
 62
     7
100
AcDbFaceRecord
 10
0.0
 20
0.0
 30
0.0
 70
   128
 71
   196
 72
   199
 73
   198
  0
VERTEX
  5
1149
330
E15
100
AcDbEntity
  8
0
 62
     7
100
AcDbFaceRecord
 10
0.0
 20
0.0
 30
0.0
 70
   128
 71
   196
 72
   200
 73
   199
  0
VERTEX
  5
114A
330
E15
100
AcDbEntity
  8
0
 62
     7
100
AcDbFaceRecord
 10
0.0
 20
0.0
 30
0.0
 70
   128
 71
   194
 72
   201
 73
   202
  0
VERTEX
  5
114B
330
E15
100
AcDbEntity
  8
0
 62
     7
100
AcDbFaceRecord
 10
0.0
 20
0.0
 30
0.0
 70
   128
 71
   201
 72
   194
 73
   193
  0
VERTEX
  5
114C
330
E15
100
AcDbEntity
  8
0
 62
     7
100
AcDbFaceRecord
 10
0.0
 20
0.0
 30
0.0
 70
   128
 71
   203
 72
   201
 73
   204
  0
VERTEX
  5
114D
330
E15
100
AcDbEntity
  8
0
 62
     7
100
AcDbFaceRecord
 10
0.0
 20
0.0
 30
0.0
 70
   128
 71
   203
 72
   202
 73
   201
  0
VERTEX
  5
114E
330
E15
100
AcDbEntity
  8
0
 62
     7
100
AcDbFaceRecord
 10
0.0
 20
0.0
 30
0.0
 70
   128
 71
   200
 72
   186
 73
   194
  0
VERTEX
  5
114F
330
E15
100
AcDbEntity
  8
0
 62
     7
100
AcDbFaceRecord
 10
0.0
 20
0.0
 30
0.0
 70
   128
 71
   200
 72
   195
 73
   186
  0
VERTEX
  5
1150
330
E15
100
AcDbEntity
  8
0
 62
     7
100
AcDbFaceRecord
 10
0.0
 20
0.0
 30
0.0
 70
   128
 71
   200
 72
   196
 73
   195
  0
VERTEX
  5
1151
330
E15
100
AcDbEntity
  8
0
 62
     7
100
AcDbFaceRecord
 10
0.0
 20
0.0
 30
0.0
 70
   128
 71
   205
 72
   202
 73
   206
  0
VERTEX
  5
1152
330
E15
100
AcDbEntity
  8
0
 62
     7
100
AcDbFaceRecord
 10
0.0
 20
0.0
 30
0.0
 70
   128
 71
   205
 72
   194
 73
   202
  0
VERTEX
  5
1153
330
E15
100
AcDbEntity
  8
0
 62
     7
100
AcDbFaceRecord
 10
0.0
 20
0.0
 30
0.0
 70
   128
 71
   205
 72
   200
 73
   194
  0
VERTEX
  5
1154
330
E15
100
AcDbEntity
  8
0
 62
     7
100
AcDbFaceRecord
 10
0.0
 20
0.0
 30
0.0
 70
   128
 71
   205
 72
   199
 73
   200
  0
VERTEX
  5
1155
330
E15
100
AcDbEntity
  8
0
 62
     7
100
AcDbFaceRecord
 10
0.0
 20
0.0
 30
0.0
 70
   128
 71
   207
 72
   208
 73
   209
  0
VERTEX
  5
1156
330
E15
100
AcDbEntity
  8
0
 62
     7
100
AcDbFaceRecord
 10
0.0
 20
0.0
 30
0.0
 70
   128
 71
   206
 72
   209
 73
   208
  0
VERTEX
  5
1157
330
E15
100
AcDbEntity
  8
0
 62
     7
100
AcDbFaceRecord
 10
0.0
 20
0.0
 30
0.0
 70
   128
 71
   206
 72
   210
 73
   209
  0
VERTEX
  5
1158
330
E15
100
AcDbEntity
  8
0
 62
     7
100
AcDbFaceRecord
 10
0.0
 20
0.0
 30
0.0
 70
   128
 71
   211
 72
   203
 73
   204
  0
VERTEX
  5
1159
330
E15
100
AcDbEntity
  8
0
 62
     7
100
AcDbFaceRecord
 10
0.0
 20
0.0
 30
0.0
 70
   128
 71
   211
 72
   212
 73
   203
  0
VERTEX
  5
115A
330
E15
100
AcDbEntity
  8
0
 62
     7
100
AcDbFaceRecord
 10
0.0
 20
0.0
 30
0.0
 70
   128
 71
   210
 72
   203
 73
   212
  0
VERTEX
  5
115B
330
E15
100
AcDbEntity
  8
0
 62
     7
100
AcDbFaceRecord
 10
0.0
 20
0.0
 30
0.0
 70
   128
 71
   210
 72
   202
 73
   203
  0
VERTEX
  5
115C
330
E15
100
AcDbEntity
  8
0
 62
     7
100
AcDbFaceRecord
 10
0.0
 20
0.0
 30
0.0
 70
   128
 71
   210
 72
   206
 73
   202
  0
VERTEX
  5
115D
330
E15
100
AcDbEntity
  8
0
 62
     7
100
AcDbFaceRecord
 10
0.0
 20
0.0
 30
0.0
 70
   128
 71
   213
 72
   210
 73
   212
  0
VERTEX
  5
115E
330
E15
100
AcDbEntity
  8
0
 62
     7
100
AcDbFaceRecord
 10
0.0
 20
0.0
 30
0.0
 70
   128
 71
   213
 72
   209
 73
   210
  0
VERTEX
  5
115F
330
E15
100
AcDbEntity
  8
0
 62
     7
100
AcDbFaceRecord
 10
0.0
 20
0.0
 30
0.0
 70
   128
 71
   214
 72
   205
 73
   206
  0
VERTEX
  5
1160
330
E15
100
AcDbEntity
  8
0
 62
     7
100
AcDbFaceRecord
 10
0.0
 20
0.0
 30
0.0
 70
   128
 71
   214
 72
   199
 73
   205
  0
VERTEX
  5
1161
330
E15
100
AcDbEntity
  8
0
 62
     7
100
AcDbFaceRecord
 10
0.0
 20
0.0
 30
0.0
 70
   128
 71
   214
 72
   197
 73
   199
  0
VERTEX
  5
1162
330
E15
100
AcDbEntity
  8
0
 62
     7
100
AcDbFaceRecord
 10
0.0
 20
0.0
 30
0.0
 70
   128
 71
   214
 72
   206
 73
   208
  0
VERTEX
  5
1163
330
E15
100
AcDbEntity
  8
0
 62
     7
100
AcDbFaceRecord
 10
0.0
 20
0.0
 30
0.0
 70
   128
 71
   131
 72
   215
 73
   129
  0
VERTEX
  5
1164
330
E15
100
AcDbEntity
  8
0
 62
     7
100
AcDbFaceRecord
 10
0.0
 20
0.0
 30
0.0
 70
   128
 71
   216
 72
   217
 73
   131
  0
VERTEX
  5
1165
330
E15
100
AcDbEntity
  8
0
 62
     7
100
AcDbFaceRecord
 10
0.0
 20
0.0
 30
0.0
 70
   128
 71
   216
 72
   218
 73
   217
  0
VERTEX
  5
1166
330
E15
100
AcDbEntity
  8
0
 62
     7
100
AcDbFaceRecord
 10
0.0
 20
0.0
 30
0.0
 70
   128
 71
   219
 72
   213
 73
   212
  0
VERTEX
  5
1167
330
E15
100
AcDbEntity
  8
0
 62
     7
100
AcDbFaceRecord
 10
0.0
 20
0.0
 30
0.0
 70
   128
 71
   219
 72
   220
 73
   213
  0
VERTEX
  5
1168
330
E15
100
AcDbEntity
  8
0
 62
     7
100
AcDbFaceRecord
 10
0.0
 20
0.0
 30
0.0
 70
   128
 71
   219
 72
   221
 73
   220
  0
VERTEX
  5
1169
330
E15
100
AcDbEntity
  8
0
 62
     7
100
AcDbFaceRecord
 10
0.0
 20
0.0
 30
0.0
 70
   128
 71
   222
 72
   213
 73
   220
  0
VERTEX
  5
116A
330
E15
100
AcDbEntity
  8
0
 62
     7
100
AcDbFaceRecord
 10
0.0
 20
0.0
 30
0.0
 70
   128
 71
   222
 72
   209
 73
   213
  0
VERTEX
  5
116B
330
E15
100
AcDbEntity
  8
0
 62
     7
100
AcDbFaceRecord
 10
0.0
 20
0.0
 30
0.0
 70
   128
 71
   222
 72
   207
 73
   209
  0
VERTEX
  5
116C
330
E15
100
AcDbEntity
  8
0
 62
     7
100
AcDbFaceRecord
 10
0.0
 20
0.0
 30
0.0
 70
   128
 71
   223
 72
   222
 73
   220
  0
VERTEX
  5
116D
330
E15
100
AcDbEntity
  8
0
 62
     7
100
AcDbFaceRecord
 10
0.0
 20
0.0
 30
0.0
 70
   128
 71
   224
 72
   207
 73
   225
  0
VERTEX
  5
116E
330
E15
100
AcDbEntity
  8
0
 62
     7
100
AcDbFaceRecord
 10
0.0
 20
0.0
 30
0.0
 70
   128
 71
   224
 72
   208
 73
   207
  0
VERTEX
  5
116F
330
E15
100
AcDbEntity
  8
0
 62
     7
100
AcDbFaceRecord
 10
0.0
 20
0.0
 30
0.0
 70
   128
 71
   226
 72
   224
 73
   225
  0
VERTEX
  5
1170
330
E15
100
AcDbEntity
  8
0
 62
     7
100
AcDbFaceRecord
 10
0.0
 20
0.0
 30
0.0
 70
   128
 71
   225
 72
   227
 73
   228
  0
VERTEX
  5
1171
330
E15
100
AcDbEntity
  8
0
 62
     7
100
AcDbFaceRecord
 10
0.0
 20
0.0
 30
0.0
 70
   128
 71
   225
 72
   229
 73
   227
  0
VERTEX
  5
1172
330
E15
100
AcDbEntity
  8
0
 62
     7
100
AcDbFaceRecord
 10
0.0
 20
0.0
 30
0.0
 70
   128
 71
   221
 72
   217
 73
   218
  0
VERTEX
  5
1173
330
E15
100
AcDbEntity
  8
0
 62
     7
100
AcDbFaceRecord
 10
0.0
 20
0.0
 30
0.0
 70
   128
 71
   230
 72
   221
 73
   218
  0
VERTEX
  5
1174
330
E15
100
AcDbEntity
  8
0
 62
     7
100
AcDbFaceRecord
 10
0.0
 20
0.0
 30
0.0
 70
   128
 71
   230
 72
   220
 73
   221
  0
VERTEX
  5
1175
330
E15
100
AcDbEntity
  8
0
 62
     7
100
AcDbFaceRecord
 10
0.0
 20
0.0
 30
0.0
 70
   128
 71
   230
 72
   223
 73
   220
  0
VERTEX
  5
1176
330
E15
100
AcDbEntity
  8
0
 62
     7
100
AcDbFaceRecord
 10
0.0
 20
0.0
 30
0.0
 70
   128
 71
   231
 72
   230
 73
   218
  0
VERTEX
  5
1177
330
E15
100
AcDbEntity
  8
0
 62
     7
100
AcDbFaceRecord
 10
0.0
 20
0.0
 30
0.0
 70
   128
 71
   229
 72
   222
 73
   223
  0
VERTEX
  5
1178
330
E15
100
AcDbEntity
  8
0
 62
     7
100
AcDbFaceRecord
 10
0.0
 20
0.0
 30
0.0
 70
   128
 71
   229
 72
   207
 73
   222
  0
VERTEX
  5
1179
330
E15
100
AcDbEntity
  8
0
 62
     7
100
AcDbFaceRecord
 10
0.0
 20
0.0
 30
0.0
 70
   128
 71
   229
 72
   225
 73
   207
  0
VERTEX
  5
117A
330
E15
100
AcDbEntity
  8
0
 62
     7
100
AcDbFaceRecord
 10
0.0
 20
0.0
 30
0.0
 70
   128
 71
   232
 72
   229
 73
   223
  0
VERTEX
  5
117B
330
E15
100
AcDbEntity
  8
0
 62
     7
100
AcDbFaceRecord
 10
0.0
 20
0.0
 30
0.0
 70
   128
 71
   232
 72
   227
 73
   229
  0
VERTEX
  5
117C
330
E15
100
AcDbEntity
  8
0
 62
     7
100
AcDbFaceRecord
 10
0.0
 20
0.0
 30
0.0
 70
   128
 71
   228
 72
   233
 73
   234
  0
VERTEX
  5
117D
330
E15
100
AcDbEntity
  8
0
 62
     7
100
AcDbFaceRecord
 10
0.0
 20
0.0
 30
0.0
 70
   128
 71
   132
 72
   235
 73
   236
  0
VERTEX
  5
117E
330
E15
100
AcDbEntity
  8
0
 62
     7
100
AcDbFaceRecord
 10
0.0
 20
0.0
 30
0.0
 70
   128
 71
   216
 72
   132
 73
   236
  0
VERTEX
  5
117F
330
E15
100
AcDbEntity
  8
0
 62
     7
100
AcDbFaceRecord
 10
0.0
 20
0.0
 30
0.0
 70
   128
 71
   237
 72
   216
 73
   236
  0
VERTEX
  5
1180
330
E15
100
AcDbEntity
  8
0
 62
     7
100
AcDbFaceRecord
 10
0.0
 20
0.0
 30
0.0
 70
   128
 71
   237
 72
   218
 73
   216
  0
VERTEX
  5
1181
330
E15
100
AcDbEntity
  8
0
 62
     7
100
AcDbFaceRecord
 10
0.0
 20
0.0
 30
0.0
 70
   128
 71
   237
 72
   231
 73
   218
  0
VERTEX
  5
1182
330
E15
100
AcDbEntity
  8
0
 62
     7
100
AcDbFaceRecord
 10
0.0
 20
0.0
 30
0.0
 70
   128
 71
   237
 72
   238
 73
   231
  0
VERTEX
  5
1183
330
E15
100
AcDbEntity
  8
0
 62
     7
100
AcDbFaceRecord
 10
0.0
 20
0.0
 30
0.0
 70
   128
 71
   239
 72
   230
 73
   231
  0
VERTEX
  5
1184
330
E15
100
AcDbEntity
  8
0
 62
     7
100
AcDbFaceRecord
 10
0.0
 20
0.0
 30
0.0
 70
   128
 71
   239
 72
   223
 73
   230
  0
VERTEX
  5
1185
330
E15
100
AcDbEntity
  8
0
 62
     7
100
AcDbFaceRecord
 10
0.0
 20
0.0
 30
0.0
 70
   128
 71
   239
 72
   232
 73
   223
  0
VERTEX
  5
1186
330
E15
100
AcDbEntity
  8
0
 62
     7
100
AcDbFaceRecord
 10
0.0
 20
0.0
 30
0.0
 70
   128
 71
   239
 72
   240
 73
   232
  0
VERTEX
  5
1187
330
E15
100
AcDbEntity
  8
0
 62
     7
100
AcDbFaceRecord
 10
0.0
 20
0.0
 30
0.0
 70
   128
 71
   127
 72
   241
 73
   242
  0
VERTEX
  5
1188
330
E15
100
AcDbEntity
  8
0
 62
     7
100
AcDbFaceRecord
 10
0.0
 20
0.0
 30
0.0
 70
   128
 71
   243
 72
   236
 73
   235
  0
VERTEX
  5
1189
330
E15
100
AcDbEntity
  8
0
 62
     7
100
AcDbFaceRecord
 10
0.0
 20
0.0
 30
0.0
 70
   128
 71
   243
 72
   237
 73
   236
  0
VERTEX
  5
118A
330
E15
100
AcDbEntity
  8
0
 62
     7
100
AcDbFaceRecord
 10
0.0
 20
0.0
 30
0.0
 70
   128
 71
   243
 72
   238
 73
   237
  0
VERTEX
  5
118B
330
E15
100
AcDbEntity
  8
0
 62
     7
100
AcDbFaceRecord
 10
0.0
 20
0.0
 30
0.0
 70
   128
 71
   243
 72
   244
 73
   238
  0
VERTEX
  5
118C
330
E15
100
AcDbEntity
  8
0
 62
     7
100
AcDbFaceRecord
 10
0.0
 20
0.0
 30
0.0
 70
   128
 71
   135
 72
   137
 73
   244
  0
VERTEX
  5
118D
330
E15
100
AcDbEntity
  8
0
 62
     7
100
AcDbFaceRecord
 10
0.0
 20
0.0
 30
0.0
 70
   128
 71
   245
 72
   231
 73
   238
  0
VERTEX
  5
118E
330
E15
100
AcDbEntity
  8
0
 62
     7
100
AcDbFaceRecord
 10
0.0
 20
0.0
 30
0.0
 70
   128
 71
   245
 72
   239
 73
   231
  0
VERTEX
  5
118F
330
E15
100
AcDbEntity
  8
0
 62
     7
100
AcDbFaceRecord
 10
0.0
 20
0.0
 30
0.0
 70
   128
 71
   245
 72
   240
 73
   239
  0
VERTEX
  5
1190
330
E15
100
AcDbEntity
  8
0
 62
     7
100
AcDbFaceRecord
 10
0.0
 20
0.0
 30
0.0
 70
   128
 71
   245
 72
   246
 73
   240
  0
VERTEX
  5
1191
330
E15
100
AcDbEntity
  8
0
 62
     7
100
AcDbFaceRecord
 10
0.0
 20
0.0
 30
0.0
 70
   128
 71
   141
 72
   143
 73
   246
  0
VERTEX
  5
1192
330
E15
100
AcDbEntity
  8
0
 62
     7
100
AcDbFaceRecord
 10
0.0
 20
0.0
 30
0.0
 70
   128
 71
   233
 72
   232
 73
   240
  0
VERTEX
  5
1193
330
E15
100
AcDbEntity
  8
0
 62
     7
100
AcDbFaceRecord
 10
0.0
 20
0.0
 30
0.0
 70
   128
 71
   233
 72
   227
 73
   232
  0
VERTEX
  5
1194
330
E15
100
AcDbEntity
  8
0
 62
     7
100
AcDbFaceRecord
 10
0.0
 20
0.0
 30
0.0
 70
   128
 71
   233
 72
   228
 73
   227
  0
VERTEX
  5
1195
330
E15
100
AcDbEntity
  8
0
 62
     7
100
AcDbFaceRecord
 10
0.0
 20
0.0
 30
0.0
 70
   128
 71
   215
 72
   221
 73
   219
  0
VERTEX
  5
1196
330
E15
100
AcDbEntity
  8
0
 62
     7
100
AcDbFaceRecord
 10
0.0
 20
0.0
 30
0.0
 70
   128
 71
   215
 72
   217
 73
   221
  0
VERTEX
  5
1197
330
E15
100
AcDbEntity
  8
0
 62
     7
100
AcDbFaceRecord
 10
0.0
 20
0.0
 30
0.0
 70
   128
 71
   215
 72
   131
 73
   217
  0
VERTEX
  5
1198
330
E15
100
AcDbEntity
  8
0
 62
     7
100
AcDbFaceRecord
 10
0.0
 20
0.0
 30
0.0
 70
   128
 71
   130
 72
   204
 73
   128
  0
VERTEX
  5
1199
330
E15
100
AcDbEntity
  8
0
 62
     7
100
AcDbFaceRecord
 10
0.0
 20
0.0
 30
0.0
 70
   128
 71
   130
 72
   211
 73
   204
  0
VERTEX
  5
119A
330
E15
100
AcDbEntity
  8
0
 62
     7
100
AcDbFaceRecord
 10
0.0
 20
0.0
 30
0.0
 70
   128
 71
   247
 72
   197
 73
   248
  0
VERTEX
  5
119B
330
E15
100
AcDbEntity
  8
0
 62
     7
100
AcDbFaceRecord
 10
0.0
 20
0.0
 30
0.0
 70
   128
 71
   247
 72
   198
 73
   197
  0
VERTEX
  5
119C
330
E15
100
AcDbEntity
  8
0
 62
     7
100
AcDbFaceRecord
 10
0.0
 20
0.0
 30
0.0
 70
   128
 71
   189
 72
   187
 73
   188
  0
VERTEX
  5
119D
330
E15
100
AcDbEntity
  8
0
 62
     7
100
AcDbFaceRecord
 10
0.0
 20
0.0
 30
0.0
 70
   128
 71
   189
 72
   177
 73
   187
  0
VERTEX
  5
119E
330
E15
100
AcDbEntity
  8
0
 62
     7
100
AcDbFaceRecord
 10
0.0
 20
0.0
 30
0.0
 70
   128
 71
   189
 72
   178
 73
   177
  0
VERTEX
  5
119F
330
E15
100
AcDbEntity
  8
0
 62
     7
100
AcDbFaceRecord
 10
0.0
 20
0.0
 30
0.0
 70
   128
 71
   249
 72
   173
 73
   126
  0
VERTEX
  5
11A0
330
E15
100
AcDbEntity
  8
0
 62
     7
100
AcDbFaceRecord
 10
0.0
 20
0.0
 30
0.0
 70
   128
 71
   249
 72
   172
 73
   173
  0
VERTEX
  5
11A1
330
E15
100
AcDbEntity
  8
0
 62
     7
100
AcDbFaceRecord
 10
0.0
 20
0.0
 30
0.0
 70
   128
 71
   249
 72
   174
 73
   172
  0
VERTEX
  5
11A2
330
E15
100
AcDbEntity
  8
0
 62
     7
100
AcDbFaceRecord
 10
0.0
 20
0.0
 30
0.0
 70
   128
 71
   249
 72
   182
 73
   174
  0
VERTEX
  5
11A3
330
E15
100
AcDbEntity
  8
0
 62
     7
100
AcDbFaceRecord
 10
0.0
 20
0.0
 30
0.0
 70
   128
 71
   249
 72
   122
 73
   182
  0
VERTEX
  5
11A4
330
E15
100
AcDbEntity
  8
0
 62
     7
100
AcDbFaceRecord
 10
0.0
 20
0.0
 30
0.0
 70
   128
 71
   161
 72
   164
 73
   165
  0
VERTEX
  5
11A5
330
E15
100
AcDbEntity
  8
0
 62
     7
100
AcDbFaceRecord
 10
0.0
 20
0.0
 30
0.0
 70
   128
 71
   161
 72
   173
 73
   164
  0
VERTEX
  5
11A6
330
E15
100
AcDbEntity
  8
0
 62
     7
100
AcDbFaceRecord
 10
0.0
 20
0.0
 30
0.0
 70
   128
 71
   161
 72
   126
 73
   173
  0
VERTEX
  5
11A7
330
E15
100
AcDbEntity
  8
0
 62
     7
100
AcDbFaceRecord
 10
0.0
 20
0.0
 30
0.0
 70
   128
 71
   250
 72
   146
 73
   251
  0
VERTEX
  5
11A8
330
E15
100
AcDbEntity
  8
0
 62
     7
100
AcDbFaceRecord
 10
0.0
 20
0.0
 30
0.0
 70
   128
 71
   250
 72
   144
 73
   146
  0
VERTEX
  5
11A9
330
E15
100
AcDbEntity
  8
0
 62
     7
100
AcDbFaceRecord
 10
0.0
 20
0.0
 30
0.0
 70
   128
 71
   132
 72
   216
 73
   131
  0
VERTEX
  5
11AA
330
E15
100
AcDbEntity
  8
0
 62
     7
100
AcDbFaceRecord
 10
0.0
 20
0.0
 30
0.0
 70
   128
 71
   252
 72
   211
 73
   130
  0
VERTEX
  5
11AB
330
E15
100
AcDbEntity
  8
0
 62
     7
100
AcDbFaceRecord
 10
0.0
 20
0.0
 30
0.0
 70
   128
 71
   252
 72
   212
 73
   211
  0
VERTEX
  5
11AC
330
E15
100
AcDbEntity
  8
0
 62
     7
100
AcDbFaceRecord
 10
0.0
 20
0.0
 30
0.0
 70
   128
 71
   252
 72
   219
 73
   212
  0
VERTEX
  5
11AD
330
E15
100
AcDbEntity
  8
0
 62
     7
100
AcDbFaceRecord
 10
0.0
 20
0.0
 30
0.0
 70
   128
 71
   252
 72
   215
 73
   219
  0
VERTEX
  5
11AE
330
E15
100
AcDbEntity
  8
0
 62
     7
100
AcDbFaceRecord
 10
0.0
 20
0.0
 30
0.0
 70
   128
 71
   252
 72
   129
 73
   215
  0
VERTEX
  5
11AF
330
E15
100
AcDbEntity
  8
0
 62
     7
100
AcDbFaceRecord
 10
0.0
 20
0.0
 30
0.0
 70
   128
 71
   129
 72
   252
 73
   130
  0
VERTEX
  5
11B0
330
E15
100
AcDbEntity
  8
0
 62
     7
100
AcDbFaceRecord
 10
0.0
 20
0.0
 30
0.0
 70
   128
 71
   253
 72
   192
 73
   124
  0
VERTEX
  5
11B1
330
E15
100
AcDbEntity
  8
0
 62
     7
100
AcDbFaceRecord
 10
0.0
 20
0.0
 30
0.0
 70
   128
 71
   253
 72
   193
 73
   192
  0
VERTEX
  5
11B2
330
E15
100
AcDbEntity
  8
0
 62
     7
100
AcDbFaceRecord
 10
0.0
 20
0.0
 30
0.0
 70
   128
 71
   253
 72
   201
 73
   193
  0
VERTEX
  5
11B3
330
E15
100
AcDbEntity
  8
0
 62
     7
100
AcDbFaceRecord
 10
0.0
 20
0.0
 30
0.0
 70
   128
 71
   253
 72
   204
 73
   201
  0
VERTEX
  5
11B4
330
E15
100
AcDbEntity
  8
0
 62
     7
100
AcDbFaceRecord
 10
0.0
 20
0.0
 30
0.0
 70
   128
 71
   253
 72
   128
 73
   204
  0
VERTEX
  5
11B5
330
E15
100
AcDbEntity
  8
0
 62
     7
100
AcDbFaceRecord
 10
0.0
 20
0.0
 30
0.0
 70
   128
 71
   128
 72
   253
 73
   124
  0
VERTEX
  5
11B6
330
E15
100
AcDbEntity
  8
0
 62
     7
100
AcDbFaceRecord
 10
0.0
 20
0.0
 30
0.0
 70
   128
 71
   124
 72
   191
 73
   122
  0
VERTEX
  5
11B7
330
E15
100
AcDbEntity
  8
0
 62
     7
100
AcDbFaceRecord
 10
0.0
 20
0.0
 30
0.0
 70
   128
 71
   122
 72
   249
 73
   126
  0
VERTEX
  5
11B8
330
E15
100
AcDbEntity
  8
0
 62
     7
100
AcDbFaceRecord
 10
0.0
 20
0.0
 30
0.0
 70
   128
 71
   254
 72
   151
 73
   123
  0
VERTEX
  5
11B9
330
E15
100
AcDbEntity
  8
0
 62
     7
100
AcDbFaceRecord
 10
0.0
 20
0.0
 30
0.0
 70
   128
 71
   254
 72
   153
 73
   151
  0
VERTEX
  5
11BA
330
E15
100
AcDbEntity
  8
0
 62
     7
100
AcDbFaceRecord
 10
0.0
 20
0.0
 30
0.0
 70
   128
 71
   254
 72
   165
 73
   153
  0
VERTEX
  5
11BB
330
E15
100
AcDbEntity
  8
0
 62
     7
100
AcDbFaceRecord
 10
0.0
 20
0.0
 30
0.0
 70
   128
 71
   254
 72
   161
 73
   165
  0
VERTEX
  5
11BC
330
E15
100
AcDbEntity
  8
0
 62
     7
100
AcDbFaceRecord
 10
0.0
 20
0.0
 30
0.0
 70
   128
 71
   254
 72
   125
 73
   161
  0
VERTEX
  5
11BD
330
E15
100
AcDbEntity
  8
0
 62
     7
100
AcDbFaceRecord
 10
0.0
 20
0.0
 30
0.0
 70
   128
 71
   125
 72
   254
 73
   123
  0
VERTEX
  5
11BE
330
E15
100
AcDbEntity
  8
0
 62
     7
100
AcDbFaceRecord
 10
0.0
 20
0.0
 30
0.0
 70
   128
 71
   241
 72
   127
 73
   134
  0
VERTEX
  5
11BF
330
E15
100
AcDbEntity
  8
0
 62
     7
100
AcDbFaceRecord
 10
0.0
 20
0.0
 30
0.0
 70
   128
 71
   255
 72
   136
 73
   135
  0
VERTEX
  5
11C0
330
E15
100
AcDbEntity
  8
0
 62
     7
100
AcDbFaceRecord
 10
0.0
 20
0.0
 30
0.0
 70
   128
 71
   255
 72
   139
 73
   136
  0
VERTEX
  5
11C1
330
E15
100
AcDbEntity
  8
0
 62
     7
100
AcDbFaceRecord
 10
0.0
 20
0.0
 30
0.0
 70
   128
 71
   255
 72
   152
 73
   139
  0
VERTEX
  5
11C2
330
E15
100
AcDbEntity
  8
0
 62
     7
100
AcDbFaceRecord
 10
0.0
 20
0.0
 30
0.0
 70
   128
 71
   255
 72
   134
 73
   152
  0
VERTEX
  5
11C3
330
E15
100
AcDbEntity
  8
0
 62
     7
100
AcDbFaceRecord
 10
0.0
 20
0.0
 30
0.0
 70
   128
 71
   255
 72
   241
 73
   134
  0
VERTEX
  5
11C4
330
E15
100
AcDbEntity
  8
0
 62
     7
100
AcDbFaceRecord
 10
0.0
 20
0.0
 30
0.0
 70
   128
 71
   241
 72
   255
 73
   135
  0
VERTEX
  5
11C5
330
E15
100
AcDbEntity
  8
0
 62
     7
100
AcDbFaceRecord
 10
0.0
 20
0.0
 30
0.0
 70
   128
 71
   256
 72
   142
 73
   141
  0
VERTEX
  5
11C6
330
E15
100
AcDbEntity
  8
0
 62
     7
100
AcDbFaceRecord
 10
0.0
 20
0.0
 30
0.0
 70
   128
 71
   256
 72
   145
 73
   142
  0
VERTEX
  5
11C7
330
E15
100
AcDbEntity
  8
0
 62
     7
100
AcDbFaceRecord
 10
0.0
 20
0.0
 30
0.0
 70
   128
 71
   256
 72
   138
 73
   145
  0
VERTEX
  5
11C8
330
E15
100
AcDbEntity
  8
0
 62
     7
100
AcDbFaceRecord
 10
0.0
 20
0.0
 30
0.0
 70
   128
 71
   256
 72
   136
 73
   138
  0
VERTEX
  5
11C9
330
E15
100
AcDbEntity
  8
0
 62
     7
100
AcDbFaceRecord
 10
0.0
 20
0.0
 30
0.0
 70
   128
 71
   256
 72
   137
 73
   136
  0
VERTEX
  5
11CA
330
E15
100
AcDbEntity
  8
0
 62
     7
100
AcDbFaceRecord
 10
0.0
 20
0.0
 30
0.0
 70
   128
 71
   137
 72
   256
 73
   141
  0
VERTEX
  5
11CB
330
E15
100
AcDbEntity
  8
0
 62
     7
100
AcDbFaceRecord
 10
0.0
 20
0.0
 30
0.0
 70
   128
 71
   257
 72
   144
 73
   250
  0
VERTEX
  5
11CC
330
E15
100
AcDbEntity
  8
0
 62
     7
100
AcDbFaceRecord
 10
0.0
 20
0.0
 30
0.0
 70
   128
 71
   257
 72
   142
 73
   144
  0
VERTEX
  5
11CD
330
E15
100
AcDbEntity
  8
0
 62
     7
100
AcDbFaceRecord
 10
0.0
 20
0.0
 30
0.0
 70
   128
 71
   257
 72
   143
 73
   142
  0
VERTEX
  5
11CE
330
E15
100
AcDbEntity
  8
0
 62
     7
100
AcDbFaceRecord
 10
0.0
 20
0.0
 30
0.0
 70
   128
 71
   143
 72
   257
 73
   250
  0
VERTEX
  5
11CF
330
E15
100
AcDbEntity
  8
0
 62
     7
100
AcDbFaceRecord
 10
0.0
 20
0.0
 30
0.0
 70
   128
 71
   258
 72
   166
 73
   169
  0
VERTEX
  5
11D0
330
E15
100
AcDbEntity
  8
0
 62
     7
100
AcDbFaceRecord
 10
0.0
 20
0.0
 30
0.0
 70
   128
 71
   258
 72
   148
 73
   166
  0
VERTEX
  5
11D1
330
E15
100
AcDbEntity
  8
0
 62
     7
100
AcDbFaceRecord
 10
0.0
 20
0.0
 30
0.0
 70
   128
 71
   258
 72
   155
 73
   148
  0
VERTEX
  5
11D2
330
E15
100
AcDbEntity
  8
0
 62
     7
100
AcDbFaceRecord
 10
0.0
 20
0.0
 30
0.0
 70
   128
 71
   258
 72
   146
 73
   155
  0
VERTEX
  5
11D3
330
E15
100
AcDbEntity
  8
0
 62
     7
100
AcDbFaceRecord
 10
0.0
 20
0.0
 30
0.0
 70
   128
 71
   258
 72
   251
 73
   146
  0
VERTEX
  5
11D4
330
E15
100
AcDbEntity
  8
0
 62
     7
100
AcDbFaceRecord
 10
0.0
 20
0.0
 30
0.0
 70
   128
 71
   251
 72
   258
 73
   169
  0
VERTEX
  5
11D5
330
E15
100
AcDbEntity
  8
0
 62
     7
100
AcDbFaceRecord
 10
0.0
 20
0.0
 30
0.0
 70
   128
 71
   169
 72
   157
 73
   156
  0
VERTEX
  5
11D6
330
E15
100
AcDbEntity
  8
0
 62
     7
100
AcDbFaceRecord
 10
0.0
 20
0.0
 30
0.0
 70
   128
 71
   156
 72
   170
 73
   178
  0
VERTEX
  5
11D7
330
E15
100
AcDbEntity
  8
0
 62
     7
100
AcDbFaceRecord
 10
0.0
 20
0.0
 30
0.0
 70
   128
 71
   259
 72
   198
 73
   247
  0
VERTEX
  5
11D8
330
E15
100
AcDbEntity
  8
0
 62
     7
100
AcDbFaceRecord
 10
0.0
 20
0.0
 30
0.0
 70
   128
 71
   259
 72
   196
 73
   198
  0
VERTEX
  5
11D9
330
E15
100
AcDbEntity
  8
0
 62
     7
100
AcDbFaceRecord
 10
0.0
 20
0.0
 30
0.0
 70
   128
 71
   259
 72
   188
 73
   196
  0
VERTEX
  5
11DA
330
E15
100
AcDbEntity
  8
0
 62
     7
100
AcDbFaceRecord
 10
0.0
 20
0.0
 30
0.0
 70
   128
 71
   259
 72
   189
 73
   188
  0
VERTEX
  5
11DB
330
E15
100
AcDbEntity
  8
0
 62
     7
100
AcDbFaceRecord
 10
0.0
 20
0.0
 30
0.0
 70
   128
 71
   259
 72
   190
 73
   189
  0
VERTEX
  5
11DC
330
E15
100
AcDbEntity
  8
0
 62
     7
100
AcDbFaceRecord
 10
0.0
 20
0.0
 30
0.0
 70
   128
 71
   190
 72
   259
 73
   247
  0
VERTEX
  5
11DD
330
E15
100
AcDbEntity
  8
0
 62
     7
100
AcDbFaceRecord
 10
0.0
 20
0.0
 30
0.0
 70
   128
 71
   260
 72
   224
 73
   226
  0
VERTEX
  5
11DE
330
E15
100
AcDbEntity
  8
0
 62
     7
100
AcDbFaceRecord
 10
0.0
 20
0.0
 30
0.0
 70
   128
 71
   260
 72
   208
 73
   224
  0
VERTEX
  5
11DF
330
E15
100
AcDbEntity
  8
0
 62
     7
100
AcDbFaceRecord
 10
0.0
 20
0.0
 30
0.0
 70
   128
 71
   260
 72
   214
 73
   208
  0
VERTEX
  5
11E0
330
E15
100
AcDbEntity
  8
0
 62
     7
100
AcDbFaceRecord
 10
0.0
 20
0.0
 30
0.0
 70
   128
 71
   260
 72
   197
 73
   214
  0
VERTEX
  5
11E1
330
E15
100
AcDbEntity
  8
0
 62
     7
100
AcDbFaceRecord
 10
0.0
 20
0.0
 30
0.0
 70
   128
 71
   260
 72
   248
 73
   197
  0
VERTEX
  5
11E2
330
E15
100
AcDbEntity
  8
0
 62
     7
100
AcDbFaceRecord
 10
0.0
 20
0.0
 30
0.0
 70
   128
 71
   248
 72
   260
 73
   226
  0
VERTEX
  5
11E3
330
E15
100
AcDbEntity
  8
0
 62
     7
100
AcDbFaceRecord
 10
0.0
 20
0.0
 30
0.0
 70
   128
 71
   226
 72
   225
 73
   228
  0
VERTEX
  5
11E4
330
E15
100
AcDbEntity
  8
0
 62
     7
100
AcDbFaceRecord
 10
0.0
 20
0.0
 30
0.0
 70
   128
 71
   261
 72
   246
 73
   143
  0
VERTEX
  5
11E5
330
E15
100
AcDbEntity
  8
0
 62
     7
100
AcDbFaceRecord
 10
0.0
 20
0.0
 30
0.0
 70
   128
 71
   261
 72
   240
 73
   246
  0
VERTEX
  5
11E6
330
E15
100
AcDbEntity
  8
0
 62
     7
100
AcDbFaceRecord
 10
0.0
 20
0.0
 30
0.0
 70
   128
 71
   261
 72
   233
 73
   240
  0
VERTEX
  5
11E7
330
E15
100
AcDbEntity
  8
0
 62
     7
100
AcDbFaceRecord
 10
0.0
 20
0.0
 30
0.0
 70
   128
 71
   261
 72
   234
 73
   233
  0
VERTEX
  5
11E8
330
E15
100
AcDbEntity
  8
0
 62
     7
100
AcDbFaceRecord
 10
0.0
 20
0.0
 30
0.0
 70
   128
 71
   234
 72
   261
 73
   143
  0
VERTEX
  5
11E9
330
E15
100
AcDbEntity
  8
0
 62
     7
100
AcDbFaceRecord
 10
0.0
 20
0.0
 30
0.0
 70
   128
 71
   262
 72
   244
 73
   137
  0
VERTEX
  5
11EA
330
E15
100
AcDbEntity
  8
0
 62
     7
100
AcDbFaceRecord
 10
0.0
 20
0.0
 30
0.0
 70
   128
 71
   262
 72
   238
 73
   244
  0
VERTEX
  5
11EB
330
E15
100
AcDbEntity
  8
0
 62
     7
100
AcDbFaceRecord
 10
0.0
 20
0.0
 30
0.0
 70
   128
 71
   262
 72
   245
 73
   238
  0
VERTEX
  5
11EC
330
E15
100
AcDbEntity
  8
0
 62
     7
100
AcDbFaceRecord
 10
0.0
 20
0.0
 30
0.0
 70
   128
 71
   262
 72
   246
 73
   245
  0
VERTEX
  5
11ED
330
E15
100
AcDbEntity
  8
0
 62
     7
100
AcDbFaceRecord
 10
0.0
 20
0.0
 30
0.0
 70
   128
 71
   262
 72
   141
 73
   246
  0
VERTEX
  5
11EE
330
E15
100
AcDbEntity
  8
0
 62
     7
100
AcDbFaceRecord
 10
0.0
 20
0.0
 30
0.0
 70
   128
 71
   141
 72
   262
 73
   137
  0
VERTEX
  5
11EF
330
E15
100
AcDbEntity
  8
0
 62
     7
100
AcDbFaceRecord
 10
0.0
 20
0.0
 30
0.0
 70
   128
 71
   263
 72
   242
 73
   241
  0
VERTEX
  5
11F0
330
E15
100
AcDbEntity
  8
0
 62
     7
100
AcDbFaceRecord
 10
0.0
 20
0.0
 30
0.0
 70
   128
 71
   263
 72
   235
 73
   242
  0
VERTEX
  5
11F1
330
E15
100
AcDbEntity
  8
0
 62
     7
100
AcDbFaceRecord
 10
0.0
 20
0.0
 30
0.0
 70
   128
 71
   263
 72
   243
 73
   235
  0
VERTEX
  5
11F2
330
E15
100
AcDbEntity
  8
0
 62
     7
100
AcDbFaceRecord
 10
0.0
 20
0.0
 30
0.0
 70
   128
 71
   263
 72
   244
 73
   243
  0
VERTEX
  5
11F3
330
E15
100
AcDbEntity
  8
0
 62
     7
100
AcDbFaceRecord
 10
0.0
 20
0.0
 30
0.0
 70
   128
 71
   263
 72
   135
 73
   244
  0
VERTEX
  5
11F4
330
E15
100
AcDbEntity
  8
0
 62
     7
100
AcDbFaceRecord
 10
0.0
 20
0.0
 30
0.0
 70
   128
 71
   135
 72
   263
 73
   241
  0
VERTEX
  5
11F5
330
E15
100
AcDbEntity
  8
0
 62
     7
100
AcDbFaceRecord
 10
0.0
 20
0.0
 30
0.0
 70
   128
 71
   133
 72
   235
 73
   132
  0
VERTEX
  5
11F6
330
E15
100
AcDbEntity
  8
0
 62
     7
100
AcDbFaceRecord
 10
0.0
 20
0.0
 30
0.0
 70
   128
 71
   133
 72
   242
 73
   235
  0
VERTEX
  5
11F7
330
E15
100
AcDbEntity
  8
0
 62
     7
100
AcDbFaceRecord
 10
0.0
 20
0.0
 30
0.0
 70
   128
 71
   133
 72
   127
 73
   242
  0
VERTEX
  5
11F8
330
E15
100
AcDbEntity
  8
0
 62
     7
100
AcDbFaceRecord
 10
0.0
 20
0.0
 30
0.0
 70
   128
 71
    68
 72
   143
 73
    64
  0
VERTEX
  5
11F9
330
E15
100
AcDbEntity
  8
0
 62
     7
100
AcDbFaceRecord
 10
0.0
 20
0.0
 30
0.0
 70
   128
 71
   234
 72
   143
 73
    68
  0
VERTEX
  5
11FA
330
E15
100
AcDbEntity
  8
0
 62
     7
100
AcDbFaceRecord
 10
0.0
 20
0.0
 30
0.0
 70
   128
 71
    58
 72
   228
 73
    50
  0
VERTEX
  5
11FB
330
E15
100
AcDbEntity
  8
0
 62
     7
100
AcDbFaceRecord
 10
0.0
 20
0.0
 30
0.0
 70
   128
 71
   226
 72
   228
 73
    58
  0
VERTEX
  5
11FC
330
E15
100
AcDbEntity
  8
0
 62
     7
100
AcDbFaceRecord
 10
0.0
 20
0.0
 30
0.0
 70
   128
 71
    59
 72
   248
 73
    66
  0
VERTEX
  5
11FD
330
E15
100
AcDbEntity
  8
0
 62
     7
100
AcDbFaceRecord
 10
0.0
 20
0.0
 30
0.0
 70
   128
 71
   247
 72
   248
 73
    59
  0
VERTEX
  5
11FE
330
E15
100
AcDbEntity
  8
0
 62
     7
100
AcDbFaceRecord
 10
0.0
 20
0.0
 30
0.0
 70
   128
 71
    72
 72
   190
 73
    62
  0
VERTEX
  5
11FF
330
E15
100
AcDbEntity
  8
0
 62
     7
100
AcDbFaceRecord
 10
0.0
 20
0.0
 30
0.0
 70
   128
 71
   178
 72
   190
 73
    72
  0
VERTEX
  5
1200
330
E15
100
AcDbEntity
  8
0
 62
     7
100
AcDbFaceRecord
 10
0.0
 20
0.0
 30
0.0
 70
   128
 71
    63
 72
   156
 73
    53
  0
VERTEX
  5
1201
330
E15
100
AcDbEntity
  8
0
 62
     7
100
AcDbFaceRecord
 10
0.0
 20
0.0
 30
0.0
 70
   128
 71
   169
 72
   156
 73
    63
  0
VERTEX
  5
1202
330
E15
100
AcDbEntity
  8
0
 62
     7
100
AcDbFaceRecord
 10
0.0
 20
0.0
 30
0.0
 70
   128
 71
    56
 72
   251
 73
    70
  0
VERTEX
  5
1203
330
E15
100
AcDbEntity
  8
0
 62
     7
100
AcDbFaceRecord
 10
0.0
 20
0.0
 30
0.0
 70
   128
 71
   250
 72
   251
 73
    56
  0
VERTEX
  5
1204
330
E15
100
AcDbEntity
  8
0
 62
     7
100
AcDbFaceRecord
 10
0.0
 20
0.0
 30
0.0
 70
   128
 71
   250
 72
    64
 73
   143
  0
VERTEX
  5
1205
330
E15
100
AcDbEntity
  8
0
 62
     7
100
AcDbFaceRecord
 10
0.0
 20
0.0
 30
0.0
 70
   128
 71
    64
 72
   250
 73
    56
  0
VERTEX
  5
1206
330
E15
100
AcDbEntity
  8
0
 62
     7
100
AcDbFaceRecord
 10
0.0
 20
0.0
 30
0.0
 70
   128
 71
   169
 72
    70
 73
   251
  0
VERTEX
  5
1207
330
E15
100
AcDbEntity
  8
0
 62
     7
100
AcDbFaceRecord
 10
0.0
 20
0.0
 30
0.0
 70
   128
 71
    70
 72
   169
 73
    63
  0
VERTEX
  5
1208
330
E15
100
AcDbEntity
  8
0
 62
     7
100
AcDbFaceRecord
 10
0.0
 20
0.0
 30
0.0
 70
   128
 71
   178
 72
    53
 73
   156
  0
VERTEX
  5
1209
330
E15
100
AcDbEntity
  8
0
 62
     7
100
AcDbFaceRecord
 10
0.0
 20
0.0
 30
0.0
 70
   128
 71
    53
 72
   178
 73
    72
  0
VERTEX
  5
120A
330
E15
100
AcDbEntity
  8
0
 62
     7
100
AcDbFaceRecord
 10
0.0
 20
0.0
 30
0.0
 70
   128
 71
   247
 72
    62
 73
   190
  0
VERTEX
  5
120B
330
E15
100
AcDbEntity
  8
0
 62
     7
100
AcDbFaceRecord
 10
0.0
 20
0.0
 30
0.0
 70
   128
 71
    62
 72
   247
 73
    59
  0
VERTEX
  5
120C
330
E15
100
AcDbEntity
  8
0
 62
     7
100
AcDbFaceRecord
 10
0.0
 20
0.0
 30
0.0
 70
   128
 71
   226
 72
    66
 73
   248
  0
VERTEX
  5
120D
330
E15
100
AcDbEntity
  8
0
 62
     7
100
AcDbFaceRecord
 10
0.0
 20
0.0
 30
0.0
 70
   128
 71
    66
 72
   226
 73
    58
  0
VERTEX
  5
120E
330
E15
100
AcDbEntity
  8
0
 62
     7
100
AcDbFaceRecord
 10
0.0
 20
0.0
 30
0.0
 70
   128
 71
   234
 72
    50
 73
   228
  0
VERTEX
  5
120F
330
E15
100
AcDbEntity
  8
0
 62
     7
100
AcDbFaceRecord
 10
0.0
 20
0.0
 30
0.0
 70
   128
 71
    50
 72
   234
 73
    68
  0
VERTEX
  5
1210
330
E15
100
AcDbEntity
  8
0
 62
     7
100
AcDbFaceRecord
 10
0.0
 20
0.0
 30
0.0
 70
   128
 71
   264
 72
   265
 73
   266
  0
VERTEX
  5
1211
330
E15
100
AcDbEntity
  8
0
 62
     7
100
AcDbFaceRecord
 10
0.0
 20
0.0
 30
0.0
 70
   128
 71
   267
 72
   268
 73
   269
  0
VERTEX
  5
1212
330
E15
100
AcDbEntity
  8
0
 62
     7
100
AcDbFaceRecord
 10
0.0
 20
0.0
 30
0.0
 70
   128
 71
   270
 72
   271
 73
   272
  0
VERTEX
  5
1213
330
E15
100
AcDbEntity
  8
0
 62
     7
100
AcDbFaceRecord
 10
0.0
 20
0.0
 30
0.0
 70
   128
 71
   273
 72
   274
 73
   275
  0
VERTEX
  5
1214
330
E15
100
AcDbEntity
  8
0
 62
     7
100
AcDbFaceRecord
 10
0.0
 20
0.0
 30
0.0
 70
   128
 71
   276
 72
   277
 73
   278
  0
VERTEX
  5
1215
330
E15
100
AcDbEntity
  8
0
 62
     7
100
AcDbFaceRecord
 10
0.0
 20
0.0
 30
0.0
 70
   128
 71
   279
 72
   280
 73
   281
  0
VERTEX
  5
1216
330
E15
100
AcDbEntity
  8
0
 62
     7
100
AcDbFaceRecord
 10
0.0
 20
0.0
 30
0.0
 70
   128
 71
   282
 72
   283
 73
   284
  0
VERTEX
  5
1217
330
E15
100
AcDbEntity
  8
0
 62
     7
100
AcDbFaceRecord
 10
0.0
 20
0.0
 30
0.0
 70
   128
 71
   285
 72
   286
 73
   287
  0
VERTEX
  5
1218
330
E15
100
AcDbEntity
  8
0
 62
     7
100
AcDbFaceRecord
 10
0.0
 20
0.0
 30
0.0
 70
   128
 71
   288
 72
   289
 73
   290
  0
VERTEX
  5
1219
330
E15
100
AcDbEntity
  8
0
 62
     7
100
AcDbFaceRecord
 10
0.0
 20
0.0
 30
0.0
 70
   128
 71
   291
 72
   292
 73
   293
  0
VERTEX
  5
121A
330
E15
100
AcDbEntity
  8
0
 62
     7
100
AcDbFaceRecord
 10
0.0
 20
0.0
 30
0.0
 70
   128
 71
   294
 72
   295
 73
   296
  0
VERTEX
  5
121B
330
E15
100
AcDbEntity
  8
0
 62
     7
100
AcDbFaceRecord
 10
0.0
 20
0.0
 30
0.0
 70
   128
 71
   297
 72
   298
 73
   268
  0
VERTEX
  5
121C
330
E15
100
AcDbEntity
  8
0
 62
     7
100
AcDbFaceRecord
 10
0.0
 20
0.0
 30
0.0
 70
   128
 71
   299
 72
   300
 73
   265
  0
VERTEX
  5
121D
330
E15
100
AcDbEntity
  8
0
 62
     7
100
AcDbFaceRecord
 10
0.0
 20
0.0
 30
0.0
 70
   128
 71
   301
 72
   302
 73
   295
  0
VERTEX
  5
121E
330
E15
100
AcDbEntity
  8
0
 62
     7
100
AcDbFaceRecord
 10
0.0
 20
0.0
 30
0.0
 70
   128
 71
   303
 72
   304
 73
   292
  0
VERTEX
  5
121F
330
E15
100
AcDbEntity
  8
0
 62
     7
100
AcDbFaceRecord
 10
0.0
 20
0.0
 30
0.0
 70
   128
 71
   305
 72
   306
 73
   289
  0
VERTEX
  5
1220
330
E15
100
AcDbEntity
  8
0
 62
     7
100
AcDbFaceRecord
 10
0.0
 20
0.0
 30
0.0
 70
   128
 71
   307
 72
   308
 73
   286
  0
VERTEX
  5
1221
330
E15
100
AcDbEntity
  8
0
 62
     7
100
AcDbFaceRecord
 10
0.0
 20
0.0
 30
0.0
 70
   128
 71
   309
 72
   310
 73
   283
  0
VERTEX
  5
1222
330
E15
100
AcDbEntity
  8
0
 62
     7
100
AcDbFaceRecord
 10
0.0
 20
0.0
 30
0.0
 70
   128
 71
   311
 72
   312
 73
   277
  0
VERTEX
  5
1223
330
E15
100
AcDbEntity
  8
0
 62
     7
100
AcDbFaceRecord
 10
0.0
 20
0.0
 30
0.0
 70
   128
 71
   313
 72
   314
 73
   274
  0
VERTEX
  5
1224
330
E15
100
AcDbEntity
  8
0
 62
     7
100
AcDbFaceRecord
 10
0.0
 20
0.0
 30
0.0
 70
   128
 71
   315
 72
   316
 73
   271
  0
VERTEX
  5
1225
330
E15
100
AcDbEntity
  8
0
 62
     7
100
AcDbFaceRecord
 10
0.0
 20
0.0
 30
0.0
 70
   128
 71
   317
 72
    79
 73
   318
  0
VERTEX
  5
1226
330
E15
100
AcDbEntity
  8
0
 62
     7
100
AcDbFaceRecord
 10
0.0
 20
0.0
 30
0.0
 70
   128
 71
   317
 72
   319
 73
    79
  0
VERTEX
  5
1227
330
E15
100
AcDbEntity
  8
0
 62
     7
100
AcDbFaceRecord
 10
0.0
 20
0.0
 30
0.0
 70
   128
 71
   317
 72
   320
 73
   319
  0
VERTEX
  5
1228
330
E15
100
AcDbEntity
  8
0
 62
     7
100
AcDbFaceRecord
 10
0.0
 20
0.0
 30
0.0
 70
   128
 71
   321
 72
   265
 73
   300
  0
VERTEX
  5
1229
330
E15
100
AcDbEntity
  8
0
 62
     7
100
AcDbFaceRecord
 10
0.0
 20
0.0
 30
0.0
 70
   128
 71
   321
 72
   266
 73
   265
  0
VERTEX
  5
122A
330
E15
100
AcDbEntity
  8
0
 62
     7
100
AcDbFaceRecord
 10
0.0
 20
0.0
 30
0.0
 70
   128
 71
   267
 72
   299
 73
   265
  0
VERTEX
  5
122B
330
E15
100
AcDbEntity
  8
0
 62
     7
100
AcDbFaceRecord
 10
0.0
 20
0.0
 30
0.0
 70
   128
 71
   322
 72
    79
 73
   319
  0
VERTEX
  5
122C
330
E15
100
AcDbEntity
  8
0
 62
     7
100
AcDbFaceRecord
 10
0.0
 20
0.0
 30
0.0
 70
   128
 71
   322
 72
   323
 73
    79
  0
VERTEX
  5
122D
330
E15
100
AcDbEntity
  8
0
 62
     7
100
AcDbFaceRecord
 10
0.0
 20
0.0
 30
0.0
 70
   128
 71
   322
 72
   324
 73
   323
  0
VERTEX
  5
122E
330
E15
100
AcDbEntity
  8
0
 62
     7
100
AcDbFaceRecord
 10
0.0
 20
0.0
 30
0.0
 70
   128
 71
    77
 72
   325
 73
   326
  0
VERTEX
  5
122F
330
E15
100
AcDbEntity
  8
0
 62
     7
100
AcDbFaceRecord
 10
0.0
 20
0.0
 30
0.0
 70
   128
 71
   327
 72
    77
 73
   323
  0
VERTEX
  5
1230
330
E15
100
AcDbEntity
  8
0
 62
     7
100
AcDbFaceRecord
 10
0.0
 20
0.0
 30
0.0
 70
   128
 71
   327
 72
   328
 73
    77
  0
VERTEX
  5
1231
330
E15
100
AcDbEntity
  8
0
 62
     7
100
AcDbFaceRecord
 10
0.0
 20
0.0
 30
0.0
 70
   128
 71
   327
 72
   329
 73
   328
  0
VERTEX
  5
1232
330
E15
100
AcDbEntity
  8
0
 62
     7
100
AcDbFaceRecord
 10
0.0
 20
0.0
 30
0.0
 70
   128
 71
   330
 72
   268
 73
   298
  0
VERTEX
  5
1233
330
E15
100
AcDbEntity
  8
0
 62
     7
100
AcDbFaceRecord
 10
0.0
 20
0.0
 30
0.0
 70
   128
 71
   330
 72
   269
 73
   268
  0
VERTEX
  5
1234
330
E15
100
AcDbEntity
  8
0
 62
     7
100
AcDbFaceRecord
 10
0.0
 20
0.0
 30
0.0
 70
   128
 71
   331
 72
    77
 73
   328
  0
VERTEX
  5
1235
330
E15
100
AcDbEntity
  8
0
 62
     7
100
AcDbFaceRecord
 10
0.0
 20
0.0
 30
0.0
 70
   128
 71
   331
 72
   325
 73
    77
  0
VERTEX
  5
1236
330
E15
100
AcDbEntity
  8
0
 62
     7
100
AcDbFaceRecord
 10
0.0
 20
0.0
 30
0.0
 70
   128
 71
   331
 72
   332
 73
   325
  0
VERTEX
  5
1237
330
E15
100
AcDbEntity
  8
0
 62
     7
100
AcDbFaceRecord
 10
0.0
 20
0.0
 30
0.0
 70
   128
 71
   270
 72
   297
 73
   268
  0
VERTEX
  5
1238
330
E15
100
AcDbEntity
  8
0
 62
     7
100
AcDbFaceRecord
 10
0.0
 20
0.0
 30
0.0
 70
   128
 71
   326
 72
   333
 73
    85
  0
VERTEX
  5
1239
330
E15
100
AcDbEntity
  8
0
 62
     7
100
AcDbFaceRecord
 10
0.0
 20
0.0
 30
0.0
 70
   128
 71
   326
 72
   334
 73
   333
  0
VERTEX
  5
123A
330
E15
100
AcDbEntity
  8
0
 62
     7
100
AcDbFaceRecord
 10
0.0
 20
0.0
 30
0.0
 70
   128
 71
   335
 72
    85
 73
   333
  0
VERTEX
  5
123B
330
E15
100
AcDbEntity
  8
0
 62
     7
100
AcDbFaceRecord
 10
0.0
 20
0.0
 30
0.0
 70
   128
 71
   335
 72
   336
 73
    85
  0
VERTEX
  5
123C
330
E15
100
AcDbEntity
  8
0
 62
     7
100
AcDbFaceRecord
 10
0.0
 20
0.0
 30
0.0
 70
   128
 71
   335
 72
   337
 73
   336
  0
VERTEX
  5
123D
330
E15
100
AcDbEntity
  8
0
 62
     7
100
AcDbFaceRecord
 10
0.0
 20
0.0
 30
0.0
 70
   128
 71
   338
 72
   271
 73
   316
  0
VERTEX
  5
123E
330
E15
100
AcDbEntity
  8
0
 62
     7
100
AcDbFaceRecord
 10
0.0
 20
0.0
 30
0.0
 70
   128
 71
   338
 72
   272
 73
   271
  0
VERTEX
  5
123F
330
E15
100
AcDbEntity
  8
0
 62
     7
100
AcDbFaceRecord
 10
0.0
 20
0.0
 30
0.0
 70
   128
 71
   273
 72
   315
 73
   271
  0
VERTEX
  5
1240
330
E15
100
AcDbEntity
  8
0
 62
     7
100
AcDbFaceRecord
 10
0.0
 20
0.0
 30
0.0
 70
   128
 71
   339
 72
    85
 73
   336
  0
VERTEX
  5
1241
330
E15
100
AcDbEntity
  8
0
 62
     7
100
AcDbFaceRecord
 10
0.0
 20
0.0
 30
0.0
 70
   128
 71
   339
 72
   340
 73
    85
  0
VERTEX
  5
1242
330
E15
100
AcDbEntity
  8
0
 62
     7
100
AcDbFaceRecord
 10
0.0
 20
0.0
 30
0.0
 70
   128
 71
   339
 72
   341
 73
   340
  0
VERTEX
  5
1243
330
E15
100
AcDbEntity
  8
0
 62
     7
100
AcDbFaceRecord
 10
0.0
 20
0.0
 30
0.0
 70
   128
 71
    86
 72
   342
 73
   343
  0
VERTEX
  5
1244
330
E15
100
AcDbEntity
  8
0
 62
     7
100
AcDbFaceRecord
 10
0.0
 20
0.0
 30
0.0
 70
   128
 71
   344
 72
    86
 73
   340
  0
VERTEX
  5
1245
330
E15
100
AcDbEntity
  8
0
 62
     7
100
AcDbFaceRecord
 10
0.0
 20
0.0
 30
0.0
 70
   128
 71
   344
 72
   345
 73
    86
  0
VERTEX
  5
1246
330
E15
100
AcDbEntity
  8
0
 62
     7
100
AcDbFaceRecord
 10
0.0
 20
0.0
 30
0.0
 70
   128
 71
   344
 72
   346
 73
   345
  0
VERTEX
  5
1247
330
E15
100
AcDbEntity
  8
0
 62
     7
100
AcDbFaceRecord
 10
0.0
 20
0.0
 30
0.0
 70
   128
 71
   347
 72
   274
 73
   314
  0
VERTEX
  5
1248
330
E15
100
AcDbEntity
  8
0
 62
     7
100
AcDbFaceRecord
 10
0.0
 20
0.0
 30
0.0
 70
   128
 71
   347
 72
   275
 73
   274
  0
VERTEX
  5
1249
330
E15
100
AcDbEntity
  8
0
 62
     7
100
AcDbFaceRecord
 10
0.0
 20
0.0
 30
0.0
 70
   128
 71
   348
 72
    86
 73
   345
  0
VERTEX
  5
124A
330
E15
100
AcDbEntity
  8
0
 62
     7
100
AcDbFaceRecord
 10
0.0
 20
0.0
 30
0.0
 70
   128
 71
   348
 72
   342
 73
    86
  0
VERTEX
  5
124B
330
E15
100
AcDbEntity
  8
0
 62
     7
100
AcDbFaceRecord
 10
0.0
 20
0.0
 30
0.0
 70
   128
 71
   348
 72
   349
 73
   342
  0
VERTEX
  5
124C
330
E15
100
AcDbEntity
  8
0
 62
     7
100
AcDbFaceRecord
 10
0.0
 20
0.0
 30
0.0
 70
   128
 71
   276
 72
   313
 73
   274
  0
VERTEX
  5
124D
330
E15
100
AcDbEntity
  8
0
 62
     7
100
AcDbFaceRecord
 10
0.0
 20
0.0
 30
0.0
 70
   128
 71
   343
 72
   350
 73
    89
  0
VERTEX
  5
124E
330
E15
100
AcDbEntity
  8
0
 62
     7
100
AcDbFaceRecord
 10
0.0
 20
0.0
 30
0.0
 70
   128
 71
   343
 72
   351
 73
   350
  0
VERTEX
  5
124F
330
E15
100
AcDbEntity
  8
0
 62
     7
100
AcDbFaceRecord
 10
0.0
 20
0.0
 30
0.0
 70
   128
 71
   352
 72
    89
 73
   350
  0
VERTEX
  5
1250
330
E15
100
AcDbEntity
  8
0
 62
     7
100
AcDbFaceRecord
 10
0.0
 20
0.0
 30
0.0
 70
   128
 71
   352
 72
   353
 73
    89
  0
VERTEX
  5
1251
330
E15
100
AcDbEntity
  8
0
 62
     7
100
AcDbFaceRecord
 10
0.0
 20
0.0
 30
0.0
 70
   128
 71
   352
 72
   354
 73
   353
  0
VERTEX
  5
1252
330
E15
100
AcDbEntity
  8
0
 62
     7
100
AcDbFaceRecord
 10
0.0
 20
0.0
 30
0.0
 70
   128
 71
   355
 72
   277
 73
   312
  0
VERTEX
  5
1253
330
E15
100
AcDbEntity
  8
0
 62
     7
100
AcDbFaceRecord
 10
0.0
 20
0.0
 30
0.0
 70
   128
 71
   355
 72
   278
 73
   277
  0
VERTEX
  5
1254
330
E15
100
AcDbEntity
  8
0
 62
     7
100
AcDbFaceRecord
 10
0.0
 20
0.0
 30
0.0
 70
   128
 71
   279
 72
   311
 73
   277
  0
VERTEX
  5
1255
330
E15
100
AcDbEntity
  8
0
 62
     7
100
AcDbFaceRecord
 10
0.0
 20
0.0
 30
0.0
 70
   128
 71
   356
 72
    89
 73
   353
  0
VERTEX
  5
1256
330
E15
100
AcDbEntity
  8
0
 62
     7
100
AcDbFaceRecord
 10
0.0
 20
0.0
 30
0.0
 70
   128
 71
   356
 72
   357
 73
    89
  0
VERTEX
  5
1257
330
E15
100
AcDbEntity
  8
0
 62
     7
100
AcDbFaceRecord
 10
0.0
 20
0.0
 30
0.0
 70
   128
 71
   356
 72
   358
 73
   357
  0
VERTEX
  5
1258
330
E15
100
AcDbEntity
  8
0
 62
     7
100
AcDbFaceRecord
 10
0.0
 20
0.0
 30
0.0
 70
   128
 71
    88
 72
   359
 73
   360
  0
VERTEX
  5
1259
330
E15
100
AcDbEntity
  8
0
 62
     7
100
AcDbFaceRecord
 10
0.0
 20
0.0
 30
0.0
 70
   128
 71
   361
 72
    88
 73
   357
  0
VERTEX
  5
125A
330
E15
100
AcDbEntity
  8
0
 62
     7
100
AcDbFaceRecord
 10
0.0
 20
0.0
 30
0.0
 70
   128
 71
   361
 72
   362
 73
    88
  0
VERTEX
  5
125B
330
E15
100
AcDbEntity
  8
0
 62
     7
100
AcDbFaceRecord
 10
0.0
 20
0.0
 30
0.0
 70
   128
 71
   361
 72
   363
 73
   362
  0
VERTEX
  5
125C
330
E15
100
AcDbEntity
  8
0
 62
     7
100
AcDbFaceRecord
 10
0.0
 20
0.0
 30
0.0
 70
   128
 71
   364
 72
   280
 73
   365
  0
VERTEX
  5
125D
330
E15
100
AcDbEntity
  8
0
 62
     7
100
AcDbFaceRecord
 10
0.0
 20
0.0
 30
0.0
 70
   128
 71
   364
 72
   281
 73
   280
  0
VERTEX
  5
125E
330
E15
100
AcDbEntity
  8
0
 62
     7
100
AcDbFaceRecord
 10
0.0
 20
0.0
 30
0.0
 70
   128
 71
   366
 72
    88
 73
   362
  0
VERTEX
  5
125F
330
E15
100
AcDbEntity
  8
0
 62
     7
100
AcDbFaceRecord
 10
0.0
 20
0.0
 30
0.0
 70
   128
 71
   366
 72
   359
 73
    88
  0
VERTEX
  5
1260
330
E15
100
AcDbEntity
  8
0
 62
     7
100
AcDbFaceRecord
 10
0.0
 20
0.0
 30
0.0
 70
   128
 71
   366
 72
   367
 73
   359
  0
VERTEX
  5
1261
330
E15
100
AcDbEntity
  8
0
 62
     7
100
AcDbFaceRecord
 10
0.0
 20
0.0
 30
0.0
 70
   128
 71
   368
 72
   365
 73
   280
  0
VERTEX
  5
1262
330
E15
100
AcDbEntity
  8
0
 62
     7
100
AcDbFaceRecord
 10
0.0
 20
0.0
 30
0.0
 70
   128
 71
   369
 72
   280
 73
   282
  0
VERTEX
  5
1263
330
E15
100
AcDbEntity
  8
0
 62
     7
100
AcDbFaceRecord
 10
0.0
 20
0.0
 30
0.0
 70
   128
 71
   369
 72
   368
 73
   280
  0
VERTEX
  5
1264
330
E15
100
AcDbEntity
  8
0
 62
     7
100
AcDbFaceRecord
 10
0.0
 20
0.0
 30
0.0
 70
   128
 71
   360
 72
   370
 73
    91
  0
VERTEX
  5
1265
330
E15
100
AcDbEntity
  8
0
 62
     7
100
AcDbFaceRecord
 10
0.0
 20
0.0
 30
0.0
 70
   128
 71
   360
 72
   371
 73
   370
  0
VERTEX
  5
1266
330
E15
100
AcDbEntity
  8
0
 62
     7
100
AcDbFaceRecord
 10
0.0
 20
0.0
 30
0.0
 70
   128
 71
    91
 72
   372
 73
   373
  0
VERTEX
  5
1267
330
E15
100
AcDbEntity
  8
0
 62
     7
100
AcDbFaceRecord
 10
0.0
 20
0.0
 30
0.0
 70
   128
 71
   374
 72
    91
 73
   370
  0
VERTEX
  5
1268
330
E15
100
AcDbEntity
  8
0
 62
     7
100
AcDbFaceRecord
 10
0.0
 20
0.0
 30
0.0
 70
   128
 71
   374
 72
   375
 73
    91
  0
VERTEX
  5
1269
330
E15
100
AcDbEntity
  8
0
 62
     7
100
AcDbFaceRecord
 10
0.0
 20
0.0
 30
0.0
 70
   128
 71
   374
 72
   376
 73
   375
  0
VERTEX
  5
126A
330
E15
100
AcDbEntity
  8
0
 62
     7
100
AcDbFaceRecord
 10
0.0
 20
0.0
 30
0.0
 70
   128
 71
   377
 72
   283
 73
   310
  0
VERTEX
  5
126B
330
E15
100
AcDbEntity
  8
0
 62
     7
100
AcDbFaceRecord
 10
0.0
 20
0.0
 30
0.0
 70
   128
 71
   377
 72
   284
 73
   283
  0
VERTEX
  5
126C
330
E15
100
AcDbEntity
  8
0
 62
     7
100
AcDbFaceRecord
 10
0.0
 20
0.0
 30
0.0
 70
   128
 71
   378
 72
    91
 73
   375
  0
VERTEX
  5
126D
330
E15
100
AcDbEntity
  8
0
 62
     7
100
AcDbFaceRecord
 10
0.0
 20
0.0
 30
0.0
 70
   128
 71
   378
 72
   372
 73
    91
  0
VERTEX
  5
126E
330
E15
100
AcDbEntity
  8
0
 62
     7
100
AcDbFaceRecord
 10
0.0
 20
0.0
 30
0.0
 70
   128
 71
   378
 72
   379
 73
   372
  0
VERTEX
  5
126F
330
E15
100
AcDbEntity
  8
0
 62
     7
100
AcDbFaceRecord
 10
0.0
 20
0.0
 30
0.0
 70
   128
 71
   285
 72
   309
 73
   283
  0
VERTEX
  5
1270
330
E15
100
AcDbEntity
  8
0
 62
     7
100
AcDbFaceRecord
 10
0.0
 20
0.0
 30
0.0
 70
   128
 71
   373
 72
   380
 73
    90
  0
VERTEX
  5
1271
330
E15
100
AcDbEntity
  8
0
 62
     7
100
AcDbFaceRecord
 10
0.0
 20
0.0
 30
0.0
 70
   128
 71
   373
 72
   381
 73
   380
  0
VERTEX
  5
1272
330
E15
100
AcDbEntity
  8
0
 62
     7
100
AcDbFaceRecord
 10
0.0
 20
0.0
 30
0.0
 70
   128
 71
   382
 72
    90
 73
   380
  0
VERTEX
  5
1273
330
E15
100
AcDbEntity
  8
0
 62
     7
100
AcDbFaceRecord
 10
0.0
 20
0.0
 30
0.0
 70
   128
 71
   382
 72
   383
 73
    90
  0
VERTEX
  5
1274
330
E15
100
AcDbEntity
  8
0
 62
     7
100
AcDbFaceRecord
 10
0.0
 20
0.0
 30
0.0
 70
   128
 71
   382
 72
   384
 73
   383
  0
VERTEX
  5
1275
330
E15
100
AcDbEntity
  8
0
 62
     7
100
AcDbFaceRecord
 10
0.0
 20
0.0
 30
0.0
 70
   128
 71
   385
 72
   286
 73
   308
  0
VERTEX
  5
1276
330
E15
100
AcDbEntity
  8
0
 62
     7
100
AcDbFaceRecord
 10
0.0
 20
0.0
 30
0.0
 70
   128
 71
   385
 72
   287
 73
   286
  0
VERTEX
  5
1277
330
E15
100
AcDbEntity
  8
0
 62
     7
100
AcDbFaceRecord
 10
0.0
 20
0.0
 30
0.0
 70
   128
 71
   288
 72
   307
 73
   286
  0
VERTEX
  5
1278
330
E15
100
AcDbEntity
  8
0
 62
     7
100
AcDbFaceRecord
 10
0.0
 20
0.0
 30
0.0
 70
   128
 71
   386
 72
    90
 73
   383
  0
VERTEX
  5
1279
330
E15
100
AcDbEntity
  8
0
 62
     7
100
AcDbFaceRecord
 10
0.0
 20
0.0
 30
0.0
 70
   128
 71
   386
 72
   387
 73
    90
  0
VERTEX
  5
127A
330
E15
100
AcDbEntity
  8
0
 62
     7
100
AcDbFaceRecord
 10
0.0
 20
0.0
 30
0.0
 70
   128
 71
   386
 72
   388
 73
   387
  0
VERTEX
  5
127B
330
E15
100
AcDbEntity
  8
0
 62
     7
100
AcDbFaceRecord
 10
0.0
 20
0.0
 30
0.0
 70
   128
 71
    84
 72
   389
 73
   390
  0
VERTEX
  5
127C
330
E15
100
AcDbEntity
  8
0
 62
     7
100
AcDbFaceRecord
 10
0.0
 20
0.0
 30
0.0
 70
   128
 71
   391
 72
    84
 73
   387
  0
VERTEX
  5
127D
330
E15
100
AcDbEntity
  8
0
 62
     7
100
AcDbFaceRecord
 10
0.0
 20
0.0
 30
0.0
 70
   128
 71
   391
 72
   392
 73
    84
  0
VERTEX
  5
127E
330
E15
100
AcDbEntity
  8
0
 62
     7
100
AcDbFaceRecord
 10
0.0
 20
0.0
 30
0.0
 70
   128
 71
   391
 72
   393
 73
   392
  0
VERTEX
  5
127F
330
E15
100
AcDbEntity
  8
0
 62
     7
100
AcDbFaceRecord
 10
0.0
 20
0.0
 30
0.0
 70
   128
 71
   394
 72
   289
 73
   306
  0
VERTEX
  5
1280
330
E15
100
AcDbEntity
  8
0
 62
     7
100
AcDbFaceRecord
 10
0.0
 20
0.0
 30
0.0
 70
   128
 71
   394
 72
   290
 73
   289
  0
VERTEX
  5
1281
330
E15
100
AcDbEntity
  8
0
 62
     7
100
AcDbFaceRecord
 10
0.0
 20
0.0
 30
0.0
 70
   128
 71
   395
 72
    84
 73
   392
  0
VERTEX
  5
1282
330
E15
100
AcDbEntity
  8
0
 62
     7
100
AcDbFaceRecord
 10
0.0
 20
0.0
 30
0.0
 70
   128
 71
   395
 72
   389
 73
    84
  0
VERTEX
  5
1283
330
E15
100
AcDbEntity
  8
0
 62
     7
100
AcDbFaceRecord
 10
0.0
 20
0.0
 30
0.0
 70
   128
 71
   395
 72
   396
 73
   389
  0
VERTEX
  5
1284
330
E15
100
AcDbEntity
  8
0
 62
     7
100
AcDbFaceRecord
 10
0.0
 20
0.0
 30
0.0
 70
   128
 71
   291
 72
   305
 73
   289
  0
VERTEX
  5
1285
330
E15
100
AcDbEntity
  8
0
 62
     7
100
AcDbFaceRecord
 10
0.0
 20
0.0
 30
0.0
 70
   128
 71
   390
 72
   397
 73
    83
  0
VERTEX
  5
1286
330
E15
100
AcDbEntity
  8
0
 62
     7
100
AcDbFaceRecord
 10
0.0
 20
0.0
 30
0.0
 70
   128
 71
   390
 72
   398
 73
   397
  0
VERTEX
  5
1287
330
E15
100
AcDbEntity
  8
0
 62
     7
100
AcDbFaceRecord
 10
0.0
 20
0.0
 30
0.0
 70
   128
 71
   399
 72
    83
 73
   397
  0
VERTEX
  5
1288
330
E15
100
AcDbEntity
  8
0
 62
     7
100
AcDbFaceRecord
 10
0.0
 20
0.0
 30
0.0
 70
   128
 71
   399
 72
   400
 73
    83
  0
VERTEX
  5
1289
330
E15
100
AcDbEntity
  8
0
 62
     7
100
AcDbFaceRecord
 10
0.0
 20
0.0
 30
0.0
 70
   128
 71
   399
 72
   401
 73
   400
  0
VERTEX
  5
128A
330
E15
100
AcDbEntity
  8
0
 62
     7
100
AcDbFaceRecord
 10
0.0
 20
0.0
 30
0.0
 70
   128
 71
   402
 72
   292
 73
   304
  0
VERTEX
  5
128B
330
E15
100
AcDbEntity
  8
0
 62
     7
100
AcDbFaceRecord
 10
0.0
 20
0.0
 30
0.0
 70
   128
 71
   402
 72
   293
 73
   292
  0
VERTEX
  5
128C
330
E15
100
AcDbEntity
  8
0
 62
     7
100
AcDbFaceRecord
 10
0.0
 20
0.0
 30
0.0
 70
   128
 71
   294
 72
   303
 73
   292
  0
VERTEX
  5
128D
330
E15
100
AcDbEntity
  8
0
 62
     7
100
AcDbFaceRecord
 10
0.0
 20
0.0
 30
0.0
 70
   128
 71
   403
 72
    83
 73
   400
  0
VERTEX
  5
128E
330
E15
100
AcDbEntity
  8
0
 62
     7
100
AcDbFaceRecord
 10
0.0
 20
0.0
 30
0.0
 70
   128
 71
   403
 72
   404
 73
    83
  0
VERTEX
  5
128F
330
E15
100
AcDbEntity
  8
0
 62
     7
100
AcDbFaceRecord
 10
0.0
 20
0.0
 30
0.0
 70
   128
 71
   403
 72
   405
 73
   404
  0
VERTEX
  5
1290
330
E15
100
AcDbEntity
  8
0
 62
     7
100
AcDbFaceRecord
 10
0.0
 20
0.0
 30
0.0
 70
   128
 71
    82
 72
   406
 73
   407
  0
VERTEX
  5
1291
330
E15
100
AcDbEntity
  8
0
 62
     7
100
AcDbFaceRecord
 10
0.0
 20
0.0
 30
0.0
 70
   128
 71
   408
 72
    82
 73
   404
  0
VERTEX
  5
1292
330
E15
100
AcDbEntity
  8
0
 62
     7
100
AcDbFaceRecord
 10
0.0
 20
0.0
 30
0.0
 70
   128
 71
   408
 72
   409
 73
    82
  0
VERTEX
  5
1293
330
E15
100
AcDbEntity
  8
0
 62
     7
100
AcDbFaceRecord
 10
0.0
 20
0.0
 30
0.0
 70
   128
 71
   408
 72
   410
 73
   409
  0
VERTEX
  5
1294
330
E15
100
AcDbEntity
  8
0
 62
     7
100
AcDbFaceRecord
 10
0.0
 20
0.0
 30
0.0
 70
   128
 71
   411
 72
   295
 73
   302
  0
VERTEX
  5
1295
330
E15
100
AcDbEntity
  8
0
 62
     7
100
AcDbFaceRecord
 10
0.0
 20
0.0
 30
0.0
 70
   128
 71
   411
 72
   296
 73
   295
  0
VERTEX
  5
1296
330
E15
100
AcDbEntity
  8
0
 62
     7
100
AcDbFaceRecord
 10
0.0
 20
0.0
 30
0.0
 70
   128
 71
   412
 72
    82
 73
   409
  0
VERTEX
  5
1297
330
E15
100
AcDbEntity
  8
0
 62
     7
100
AcDbFaceRecord
 10
0.0
 20
0.0
 30
0.0
 70
   128
 71
   412
 72
   406
 73
    82
  0
VERTEX
  5
1298
330
E15
100
AcDbEntity
  8
0
 62
     7
100
AcDbFaceRecord
 10
0.0
 20
0.0
 30
0.0
 70
   128
 71
   412
 72
   413
 73
   406
  0
VERTEX
  5
1299
330
E15
100
AcDbEntity
  8
0
 62
     7
100
AcDbFaceRecord
 10
0.0
 20
0.0
 30
0.0
 70
   128
 71
   414
 72
   301
 73
   295
  0
VERTEX
  5
129A
330
E15
100
AcDbEntity
  8
0
 62
     7
100
AcDbFaceRecord
 10
0.0
 20
0.0
 30
0.0
 70
   128
 71
   407
 72
   415
 73
    80
  0
VERTEX
  5
129B
330
E15
100
AcDbEntity
  8
0
 62
     7
100
AcDbFaceRecord
 10
0.0
 20
0.0
 30
0.0
 70
   128
 71
   407
 72
   416
 73
   415
  0
VERTEX
  5
129C
330
E15
100
AcDbEntity
  8
0
 62
     7
100
AcDbFaceRecord
 10
0.0
 20
0.0
 30
0.0
 70
   128
 71
   417
 72
    80
 73
   415
  0
VERTEX
  5
129D
330
E15
100
AcDbEntity
  8
0
 62
     7
100
AcDbFaceRecord
 10
0.0
 20
0.0
 30
0.0
 70
   128
 71
   417
 72
   418
 73
    80
  0
VERTEX
  5
129E
330
E15
100
AcDbEntity
  8
0
 62
     7
100
AcDbFaceRecord
 10
0.0
 20
0.0
 30
0.0
 70
   128
 71
   417
 72
   419
 73
   418
  0
VERTEX
  5
129F
330
E15
100
AcDbEntity
  8
0
 62
     7
100
AcDbFaceRecord
 10
0.0
 20
0.0
 30
0.0
 70
   128
 71
   420
 72
   421
 73
   422
  0
VERTEX
  5
12A0
330
E15
100
AcDbEntity
  8
0
 62
     7
100
AcDbFaceRecord
 10
0.0
 20
0.0
 30
0.0
 70
   128
 71
   423
 72
    80
 73
   418
  0
VERTEX
  5
12A1
330
E15
100
AcDbEntity
  8
0
 62
     7
100
AcDbFaceRecord
 10
0.0
 20
0.0
 30
0.0
 70
   128
 71
   423
 72
   424
 73
    80
  0
VERTEX
  5
12A2
330
E15
100
AcDbEntity
  8
0
 62
     7
100
AcDbFaceRecord
 10
0.0
 20
0.0
 30
0.0
 70
   128
 71
   423
 72
   421
 73
   424
  0
VERTEX
  5
12A3
330
E15
100
AcDbEntity
  8
0
 62
     7
100
AcDbFaceRecord
 10
0.0
 20
0.0
 30
0.0
 70
   128
 71
   425
 72
   317
 73
   318
  0
VERTEX
  5
12A4
330
E15
100
AcDbEntity
  8
0
 62
     7
100
AcDbFaceRecord
 10
0.0
 20
0.0
 30
0.0
 70
   128
 71
   425
 72
   320
 73
   317
  0
VERTEX
  5
12A5
330
E15
100
AcDbEntity
  8
0
 62
     7
100
AcDbFaceRecord
 10
0.0
 20
0.0
 30
0.0
 70
   128
 71
   264
 72
   426
 73
   427
  0
VERTEX
  5
12A6
330
E15
100
AcDbEntity
  8
0
 62
     7
100
AcDbFaceRecord
 10
0.0
 20
0.0
 30
0.0
 70
   128
 71
   264
 72
   425
 73
   426
  0
VERTEX
  5
12A7
330
E15
100
AcDbEntity
  8
0
 62
     7
100
AcDbFaceRecord
 10
0.0
 20
0.0
 30
0.0
 70
   128
 71
   320
 72
   264
 73
   266
  0
VERTEX
  5
12A8
330
E15
100
AcDbEntity
  8
0
 62
     7
100
AcDbFaceRecord
 10
0.0
 20
0.0
 30
0.0
 70
   128
 71
   320
 72
   425
 73
   264
  0
VERTEX
  5
12A9
330
E15
100
AcDbEntity
  8
0
 62
     7
100
AcDbFaceRecord
 10
0.0
 20
0.0
 30
0.0
 70
   128
 71
   428
 72
   319
 73
   320
  0
VERTEX
  5
12AA
330
E15
100
AcDbEntity
  8
0
 62
     7
100
AcDbFaceRecord
 10
0.0
 20
0.0
 30
0.0
 70
   128
 71
   428
 72
   322
 73
   319
  0
VERTEX
  5
12AB
330
E15
100
AcDbEntity
  8
0
 62
     7
100
AcDbFaceRecord
 10
0.0
 20
0.0
 30
0.0
 70
   128
 71
   428
 72
   324
 73
   322
  0
VERTEX
  5
12AC
330
E15
100
AcDbEntity
  8
0
 62
     7
100
AcDbFaceRecord
 10
0.0
 20
0.0
 30
0.0
 70
   128
 71
   428
 72
   266
 73
   321
  0
VERTEX
  5
12AD
330
E15
100
AcDbEntity
  8
0
 62
     7
100
AcDbFaceRecord
 10
0.0
 20
0.0
 30
0.0
 70
   128
 71
   428
 72
   320
 73
   266
  0
VERTEX
  5
12AE
330
E15
100
AcDbEntity
  8
0
 62
     7
100
AcDbFaceRecord
 10
0.0
 20
0.0
 30
0.0
 70
   128
 71
   324
 72
   321
 73
   300
  0
VERTEX
  5
12AF
330
E15
100
AcDbEntity
  8
0
 62
     7
100
AcDbFaceRecord
 10
0.0
 20
0.0
 30
0.0
 70
   128
 71
   324
 72
   428
 73
   321
  0
VERTEX
  5
12B0
330
E15
100
AcDbEntity
  8
0
 62
     7
100
AcDbFaceRecord
 10
0.0
 20
0.0
 30
0.0
 70
   128
 71
   429
 72
   323
 73
   324
  0
VERTEX
  5
12B1
330
E15
100
AcDbEntity
  8
0
 62
     7
100
AcDbFaceRecord
 10
0.0
 20
0.0
 30
0.0
 70
   128
 71
   429
 72
   327
 73
   323
  0
VERTEX
  5
12B2
330
E15
100
AcDbEntity
  8
0
 62
     7
100
AcDbFaceRecord
 10
0.0
 20
0.0
 30
0.0
 70
   128
 71
   429
 72
   329
 73
   327
  0
VERTEX
  5
12B3
330
E15
100
AcDbEntity
  8
0
 62
     7
100
AcDbFaceRecord
 10
0.0
 20
0.0
 30
0.0
 70
   128
 71
   429
 72
   300
 73
   299
  0
VERTEX
  5
12B4
330
E15
100
AcDbEntity
  8
0
 62
     7
100
AcDbFaceRecord
 10
0.0
 20
0.0
 30
0.0
 70
   128
 71
   429
 72
   324
 73
   300
  0
VERTEX
  5
12B5
330
E15
100
AcDbEntity
  8
0
 62
     7
100
AcDbFaceRecord
 10
0.0
 20
0.0
 30
0.0
 70
   128
 71
   329
 72
   299
 73
   267
  0
VERTEX
  5
12B6
330
E15
100
AcDbEntity
  8
0
 62
     7
100
AcDbFaceRecord
 10
0.0
 20
0.0
 30
0.0
 70
   128
 71
   329
 72
   429
 73
   299
  0
VERTEX
  5
12B7
330
E15
100
AcDbEntity
  8
0
 62
     7
100
AcDbFaceRecord
 10
0.0
 20
0.0
 30
0.0
 70
   128
 71
   430
 72
   328
 73
   329
  0
VERTEX
  5
12B8
330
E15
100
AcDbEntity
  8
0
 62
     7
100
AcDbFaceRecord
 10
0.0
 20
0.0
 30
0.0
 70
   128
 71
   430
 72
   331
 73
   328
  0
VERTEX
  5
12B9
330
E15
100
AcDbEntity
  8
0
 62
     7
100
AcDbFaceRecord
 10
0.0
 20
0.0
 30
0.0
 70
   128
 71
   430
 72
   332
 73
   331
  0
VERTEX
  5
12BA
330
E15
100
AcDbEntity
  8
0
 62
     7
100
AcDbFaceRecord
 10
0.0
 20
0.0
 30
0.0
 70
   128
 71
   430
 72
   267
 73
   269
  0
VERTEX
  5
12BB
330
E15
100
AcDbEntity
  8
0
 62
     7
100
AcDbFaceRecord
 10
0.0
 20
0.0
 30
0.0
 70
   128
 71
   430
 72
   329
 73
   267
  0
VERTEX
  5
12BC
330
E15
100
AcDbEntity
  8
0
 62
     7
100
AcDbFaceRecord
 10
0.0
 20
0.0
 30
0.0
 70
   128
 71
   332
 72
   269
 73
   330
  0
VERTEX
  5
12BD
330
E15
100
AcDbEntity
  8
0
 62
     7
100
AcDbFaceRecord
 10
0.0
 20
0.0
 30
0.0
 70
   128
 71
   332
 72
   430
 73
   269
  0
VERTEX
  5
12BE
330
E15
100
AcDbEntity
  8
0
 62
     7
100
AcDbFaceRecord
 10
0.0
 20
0.0
 30
0.0
 70
   128
 71
   431
 72
   325
 73
   332
  0
VERTEX
  5
12BF
330
E15
100
AcDbEntity
  8
0
 62
     7
100
AcDbFaceRecord
 10
0.0
 20
0.0
 30
0.0
 70
   128
 71
   431
 72
   326
 73
   325
  0
VERTEX
  5
12C0
330
E15
100
AcDbEntity
  8
0
 62
     7
100
AcDbFaceRecord
 10
0.0
 20
0.0
 30
0.0
 70
   128
 71
   431
 72
   334
 73
   326
  0
VERTEX
  5
12C1
330
E15
100
AcDbEntity
  8
0
 62
     7
100
AcDbFaceRecord
 10
0.0
 20
0.0
 30
0.0
 70
   128
 71
   431
 72
   330
 73
   298
  0
VERTEX
  5
12C2
330
E15
100
AcDbEntity
  8
0
 62
     7
100
AcDbFaceRecord
 10
0.0
 20
0.0
 30
0.0
 70
   128
 71
   431
 72
   332
 73
   330
  0
VERTEX
  5
12C3
330
E15
100
AcDbEntity
  8
0
 62
     7
100
AcDbFaceRecord
 10
0.0
 20
0.0
 30
0.0
 70
   128
 71
   334
 72
   298
 73
   297
  0
VERTEX
  5
12C4
330
E15
100
AcDbEntity
  8
0
 62
     7
100
AcDbFaceRecord
 10
0.0
 20
0.0
 30
0.0
 70
   128
 71
   334
 72
   431
 73
   298
  0
VERTEX
  5
12C5
330
E15
100
AcDbEntity
  8
0
 62
     7
100
AcDbFaceRecord
 10
0.0
 20
0.0
 30
0.0
 70
   128
 71
   432
 72
   333
 73
   334
  0
VERTEX
  5
12C6
330
E15
100
AcDbEntity
  8
0
 62
     7
100
AcDbFaceRecord
 10
0.0
 20
0.0
 30
0.0
 70
   128
 71
   432
 72
   335
 73
   333
  0
VERTEX
  5
12C7
330
E15
100
AcDbEntity
  8
0
 62
     7
100
AcDbFaceRecord
 10
0.0
 20
0.0
 30
0.0
 70
   128
 71
   432
 72
   337
 73
   335
  0
VERTEX
  5
12C8
330
E15
100
AcDbEntity
  8
0
 62
     7
100
AcDbFaceRecord
 10
0.0
 20
0.0
 30
0.0
 70
   128
 71
   432
 72
   297
 73
   270
  0
VERTEX
  5
12C9
330
E15
100
AcDbEntity
  8
0
 62
     7
100
AcDbFaceRecord
 10
0.0
 20
0.0
 30
0.0
 70
   128
 71
   432
 72
   334
 73
   297
  0
VERTEX
  5
12CA
330
E15
100
AcDbEntity
  8
0
 62
     7
100
AcDbFaceRecord
 10
0.0
 20
0.0
 30
0.0
 70
   128
 71
   337
 72
   270
 73
   272
  0
VERTEX
  5
12CB
330
E15
100
AcDbEntity
  8
0
 62
     7
100
AcDbFaceRecord
 10
0.0
 20
0.0
 30
0.0
 70
   128
 71
   337
 72
   432
 73
   270
  0
VERTEX
  5
12CC
330
E15
100
AcDbEntity
  8
0
 62
     7
100
AcDbFaceRecord
 10
0.0
 20
0.0
 30
0.0
 70
   128
 71
   433
 72
   336
 73
   337
  0
VERTEX
  5
12CD
330
E15
100
AcDbEntity
  8
0
 62
     7
100
AcDbFaceRecord
 10
0.0
 20
0.0
 30
0.0
 70
   128
 71
   433
 72
   339
 73
   336
  0
VERTEX
  5
12CE
330
E15
100
AcDbEntity
  8
0
 62
     7
100
AcDbFaceRecord
 10
0.0
 20
0.0
 30
0.0
 70
   128
 71
   433
 72
   341
 73
   339
  0
VERTEX
  5
12CF
330
E15
100
AcDbEntity
  8
0
 62
     7
100
AcDbFaceRecord
 10
0.0
 20
0.0
 30
0.0
 70
   128
 71
   433
 72
   272
 73
   338
  0
VERTEX
  5
12D0
330
E15
100
AcDbEntity
  8
0
 62
     7
100
AcDbFaceRecord
 10
0.0
 20
0.0
 30
0.0
 70
   128
 71
   433
 72
   337
 73
   272
  0
VERTEX
  5
12D1
330
E15
100
AcDbEntity
  8
0
 62
     7
100
AcDbFaceRecord
 10
0.0
 20
0.0
 30
0.0
 70
   128
 71
   341
 72
   338
 73
   316
  0
VERTEX
  5
12D2
330
E15
100
AcDbEntity
  8
0
 62
     7
100
AcDbFaceRecord
 10
0.0
 20
0.0
 30
0.0
 70
   128
 71
   341
 72
   433
 73
   338
  0
VERTEX
  5
12D3
330
E15
100
AcDbEntity
  8
0
 62
     7
100
AcDbFaceRecord
 10
0.0
 20
0.0
 30
0.0
 70
   128
 71
   434
 72
   340
 73
   341
  0
VERTEX
  5
12D4
330
E15
100
AcDbEntity
  8
0
 62
     7
100
AcDbFaceRecord
 10
0.0
 20
0.0
 30
0.0
 70
   128
 71
   434
 72
   344
 73
   340
  0
VERTEX
  5
12D5
330
E15
100
AcDbEntity
  8
0
 62
     7
100
AcDbFaceRecord
 10
0.0
 20
0.0
 30
0.0
 70
   128
 71
   434
 72
   346
 73
   344
  0
VERTEX
  5
12D6
330
E15
100
AcDbEntity
  8
0
 62
     7
100
AcDbFaceRecord
 10
0.0
 20
0.0
 30
0.0
 70
   128
 71
   434
 72
   316
 73
   315
  0
VERTEX
  5
12D7
330
E15
100
AcDbEntity
  8
0
 62
     7
100
AcDbFaceRecord
 10
0.0
 20
0.0
 30
0.0
 70
   128
 71
   434
 72
   341
 73
   316
  0
VERTEX
  5
12D8
330
E15
100
AcDbEntity
  8
0
 62
     7
100
AcDbFaceRecord
 10
0.0
 20
0.0
 30
0.0
 70
   128
 71
   346
 72
   315
 73
   273
  0
VERTEX
  5
12D9
330
E15
100
AcDbEntity
  8
0
 62
     7
100
AcDbFaceRecord
 10
0.0
 20
0.0
 30
0.0
 70
   128
 71
   346
 72
   434
 73
   315
  0
VERTEX
  5
12DA
330
E15
100
AcDbEntity
  8
0
 62
     7
100
AcDbFaceRecord
 10
0.0
 20
0.0
 30
0.0
 70
   128
 71
   435
 72
   345
 73
   346
  0
VERTEX
  5
12DB
330
E15
100
AcDbEntity
  8
0
 62
     7
100
AcDbFaceRecord
 10
0.0
 20
0.0
 30
0.0
 70
   128
 71
   435
 72
   348
 73
   345
  0
VERTEX
  5
12DC
330
E15
100
AcDbEntity
  8
0
 62
     7
100
AcDbFaceRecord
 10
0.0
 20
0.0
 30
0.0
 70
   128
 71
   435
 72
   349
 73
   348
  0
VERTEX
  5
12DD
330
E15
100
AcDbEntity
  8
0
 62
     7
100
AcDbFaceRecord
 10
0.0
 20
0.0
 30
0.0
 70
   128
 71
   435
 72
   273
 73
   275
  0
VERTEX
  5
12DE
330
E15
100
AcDbEntity
  8
0
 62
     7
100
AcDbFaceRecord
 10
0.0
 20
0.0
 30
0.0
 70
   128
 71
   435
 72
   346
 73
   273
  0
VERTEX
  5
12DF
330
E15
100
AcDbEntity
  8
0
 62
     7
100
AcDbFaceRecord
 10
0.0
 20
0.0
 30
0.0
 70
   128
 71
   349
 72
   275
 73
   347
  0
VERTEX
  5
12E0
330
E15
100
AcDbEntity
  8
0
 62
     7
100
AcDbFaceRecord
 10
0.0
 20
0.0
 30
0.0
 70
   128
 71
   349
 72
   435
 73
   275
  0
VERTEX
  5
12E1
330
E15
100
AcDbEntity
  8
0
 62
     7
100
AcDbFaceRecord
 10
0.0
 20
0.0
 30
0.0
 70
   128
 71
   436
 72
   342
 73
   349
  0
VERTEX
  5
12E2
330
E15
100
AcDbEntity
  8
0
 62
     7
100
AcDbFaceRecord
 10
0.0
 20
0.0
 30
0.0
 70
   128
 71
   436
 72
   343
 73
   342
  0
VERTEX
  5
12E3
330
E15
100
AcDbEntity
  8
0
 62
     7
100
AcDbFaceRecord
 10
0.0
 20
0.0
 30
0.0
 70
   128
 71
   436
 72
   351
 73
   343
  0
VERTEX
  5
12E4
330
E15
100
AcDbEntity
  8
0
 62
     7
100
AcDbFaceRecord
 10
0.0
 20
0.0
 30
0.0
 70
   128
 71
   436
 72
   347
 73
   314
  0
VERTEX
  5
12E5
330
E15
100
AcDbEntity
  8
0
 62
     7
100
AcDbFaceRecord
 10
0.0
 20
0.0
 30
0.0
 70
   128
 71
   436
 72
   349
 73
   347
  0
VERTEX
  5
12E6
330
E15
100
AcDbEntity
  8
0
 62
     7
100
AcDbFaceRecord
 10
0.0
 20
0.0
 30
0.0
 70
   128
 71
   351
 72
   314
 73
   313
  0
VERTEX
  5
12E7
330
E15
100
AcDbEntity
  8
0
 62
     7
100
AcDbFaceRecord
 10
0.0
 20
0.0
 30
0.0
 70
   128
 71
   351
 72
   436
 73
   314
  0
VERTEX
  5
12E8
330
E15
100
AcDbEntity
  8
0
 62
     7
100
AcDbFaceRecord
 10
0.0
 20
0.0
 30
0.0
 70
   128
 71
   437
 72
   350
 73
   351
  0
VERTEX
  5
12E9
330
E15
100
AcDbEntity
  8
0
 62
     7
100
AcDbFaceRecord
 10
0.0
 20
0.0
 30
0.0
 70
   128
 71
   437
 72
   352
 73
   350
  0
VERTEX
  5
12EA
330
E15
100
AcDbEntity
  8
0
 62
     7
100
AcDbFaceRecord
 10
0.0
 20
0.0
 30
0.0
 70
   128
 71
   437
 72
   354
 73
   352
  0
VERTEX
  5
12EB
330
E15
100
AcDbEntity
  8
0
 62
     7
100
AcDbFaceRecord
 10
0.0
 20
0.0
 30
0.0
 70
   128
 71
   437
 72
   313
 73
   276
  0
VERTEX
  5
12EC
330
E15
100
AcDbEntity
  8
0
 62
     7
100
AcDbFaceRecord
 10
0.0
 20
0.0
 30
0.0
 70
   128
 71
   437
 72
   351
 73
   313
  0
VERTEX
  5
12ED
330
E15
100
AcDbEntity
  8
0
 62
     7
100
AcDbFaceRecord
 10
0.0
 20
0.0
 30
0.0
 70
   128
 71
   354
 72
   276
 73
   278
  0
VERTEX
  5
12EE
330
E15
100
AcDbEntity
  8
0
 62
     7
100
AcDbFaceRecord
 10
0.0
 20
0.0
 30
0.0
 70
   128
 71
   354
 72
   437
 73
   276
  0
VERTEX
  5
12EF
330
E15
100
AcDbEntity
  8
0
 62
     7
100
AcDbFaceRecord
 10
0.0
 20
0.0
 30
0.0
 70
   128
 71
   438
 72
   353
 73
   354
  0
VERTEX
  5
12F0
330
E15
100
AcDbEntity
  8
0
 62
     7
100
AcDbFaceRecord
 10
0.0
 20
0.0
 30
0.0
 70
   128
 71
   438
 72
   356
 73
   353
  0
VERTEX
  5
12F1
330
E15
100
AcDbEntity
  8
0
 62
     7
100
AcDbFaceRecord
 10
0.0
 20
0.0
 30
0.0
 70
   128
 71
   438
 72
   358
 73
   356
  0
VERTEX
  5
12F2
330
E15
100
AcDbEntity
  8
0
 62
     7
100
AcDbFaceRecord
 10
0.0
 20
0.0
 30
0.0
 70
   128
 71
   438
 72
   278
 73
   355
  0
VERTEX
  5
12F3
330
E15
100
AcDbEntity
  8
0
 62
     7
100
AcDbFaceRecord
 10
0.0
 20
0.0
 30
0.0
 70
   128
 71
   438
 72
   354
 73
   278
  0
VERTEX
  5
12F4
330
E15
100
AcDbEntity
  8
0
 62
     7
100
AcDbFaceRecord
 10
0.0
 20
0.0
 30
0.0
 70
   128
 71
   358
 72
   355
 73
   312
  0
VERTEX
  5
12F5
330
E15
100
AcDbEntity
  8
0
 62
     7
100
AcDbFaceRecord
 10
0.0
 20
0.0
 30
0.0
 70
   128
 71
   358
 72
   438
 73
   355
  0
VERTEX
  5
12F6
330
E15
100
AcDbEntity
  8
0
 62
     7
100
AcDbFaceRecord
 10
0.0
 20
0.0
 30
0.0
 70
   128
 71
   439
 72
   357
 73
   358
  0
VERTEX
  5
12F7
330
E15
100
AcDbEntity
  8
0
 62
     7
100
AcDbFaceRecord
 10
0.0
 20
0.0
 30
0.0
 70
   128
 71
   439
 72
   361
 73
   357
  0
VERTEX
  5
12F8
330
E15
100
AcDbEntity
  8
0
 62
     7
100
AcDbFaceRecord
 10
0.0
 20
0.0
 30
0.0
 70
   128
 71
   439
 72
   363
 73
   361
  0
VERTEX
  5
12F9
330
E15
100
AcDbEntity
  8
0
 62
     7
100
AcDbFaceRecord
 10
0.0
 20
0.0
 30
0.0
 70
   128
 71
   439
 72
   312
 73
   311
  0
VERTEX
  5
12FA
330
E15
100
AcDbEntity
  8
0
 62
     7
100
AcDbFaceRecord
 10
0.0
 20
0.0
 30
0.0
 70
   128
 71
   439
 72
   358
 73
   312
  0
VERTEX
  5
12FB
330
E15
100
AcDbEntity
  8
0
 62
     7
100
AcDbFaceRecord
 10
0.0
 20
0.0
 30
0.0
 70
   128
 71
   363
 72
   311
 73
   279
  0
VERTEX
  5
12FC
330
E15
100
AcDbEntity
  8
0
 62
     7
100
AcDbFaceRecord
 10
0.0
 20
0.0
 30
0.0
 70
   128
 71
   363
 72
   439
 73
   311
  0
VERTEX
  5
12FD
330
E15
100
AcDbEntity
  8
0
 62
     7
100
AcDbFaceRecord
 10
0.0
 20
0.0
 30
0.0
 70
   128
 71
   440
 72
   362
 73
   363
  0
VERTEX
  5
12FE
330
E15
100
AcDbEntity
  8
0
 62
     7
100
AcDbFaceRecord
 10
0.0
 20
0.0
 30
0.0
 70
   128
 71
   440
 72
   366
 73
   362
  0
VERTEX
  5
12FF
330
E15
100
AcDbEntity
  8
0
 62
     7
100
AcDbFaceRecord
 10
0.0
 20
0.0
 30
0.0
 70
   128
 71
   440
 72
   367
 73
   366
  0
VERTEX
  5
1300
330
E15
100
AcDbEntity
  8
0
 62
     7
100
AcDbFaceRecord
 10
0.0
 20
0.0
 30
0.0
 70
   128
 71
   440
 72
   279
 73
   281
  0
VERTEX
  5
1301
330
E15
100
AcDbEntity
  8
0
 62
     7
100
AcDbFaceRecord
 10
0.0
 20
0.0
 30
0.0
 70
   128
 71
   440
 72
   363
 73
   279
  0
VERTEX
  5
1302
330
E15
100
AcDbEntity
  8
0
 62
     7
100
AcDbFaceRecord
 10
0.0
 20
0.0
 30
0.0
 70
   128
 71
   367
 72
   281
 73
   364
  0
VERTEX
  5
1303
330
E15
100
AcDbEntity
  8
0
 62
     7
100
AcDbFaceRecord
 10
0.0
 20
0.0
 30
0.0
 70
   128
 71
   367
 72
   440
 73
   281
  0
VERTEX
  5
1304
330
E15
100
AcDbEntity
  8
0
 62
     7
100
AcDbFaceRecord
 10
0.0
 20
0.0
 30
0.0
 70
   128
 71
   441
 72
   359
 73
   367
  0
VERTEX
  5
1305
330
E15
100
AcDbEntity
  8
0
 62
     7
100
AcDbFaceRecord
 10
0.0
 20
0.0
 30
0.0
 70
   128
 71
   441
 72
   360
 73
   359
  0
VERTEX
  5
1306
330
E15
100
AcDbEntity
  8
0
 62
     7
100
AcDbFaceRecord
 10
0.0
 20
0.0
 30
0.0
 70
   128
 71
   441
 72
   371
 73
   360
  0
VERTEX
  5
1307
330
E15
100
AcDbEntity
  8
0
 62
     7
100
AcDbFaceRecord
 10
0.0
 20
0.0
 30
0.0
 70
   128
 71
   441
 72
   364
 73
   365
  0
VERTEX
  5
1308
330
E15
100
AcDbEntity
  8
0
 62
     7
100
AcDbFaceRecord
 10
0.0
 20
0.0
 30
0.0
 70
   128
 71
   441
 72
   367
 73
   364
  0
VERTEX
  5
1309
330
E15
100
AcDbEntity
  8
0
 62
     7
100
AcDbFaceRecord
 10
0.0
 20
0.0
 30
0.0
 70
   128
 71
   371
 72
   365
 73
   368
  0
VERTEX
  5
130A
330
E15
100
AcDbEntity
  8
0
 62
     7
100
AcDbFaceRecord
 10
0.0
 20
0.0
 30
0.0
 70
   128
 71
   371
 72
   441
 73
   365
  0
VERTEX
  5
130B
330
E15
100
AcDbEntity
  8
0
 62
     7
100
AcDbFaceRecord
 10
0.0
 20
0.0
 30
0.0
 70
   128
 71
   442
 72
   370
 73
   371
  0
VERTEX
  5
130C
330
E15
100
AcDbEntity
  8
0
 62
     7
100
AcDbFaceRecord
 10
0.0
 20
0.0
 30
0.0
 70
   128
 71
   442
 72
   374
 73
   370
  0
VERTEX
  5
130D
330
E15
100
AcDbEntity
  8
0
 62
     7
100
AcDbFaceRecord
 10
0.0
 20
0.0
 30
0.0
 70
   128
 71
   442
 72
   376
 73
   374
  0
VERTEX
  5
130E
330
E15
100
AcDbEntity
  8
0
 62
     7
100
AcDbFaceRecord
 10
0.0
 20
0.0
 30
0.0
 70
   128
 71
   442
 72
   368
 73
   369
  0
VERTEX
  5
130F
330
E15
100
AcDbEntity
  8
0
 62
     7
100
AcDbFaceRecord
 10
0.0
 20
0.0
 30
0.0
 70
   128
 71
   442
 72
   371
 73
   368
  0
VERTEX
  5
1310
330
E15
100
AcDbEntity
  8
0
 62
     7
100
AcDbFaceRecord
 10
0.0
 20
0.0
 30
0.0
 70
   128
 71
   376
 72
   369
 73
   282
  0
VERTEX
  5
1311
330
E15
100
AcDbEntity
  8
0
 62
     7
100
AcDbFaceRecord
 10
0.0
 20
0.0
 30
0.0
 70
   128
 71
   376
 72
   442
 73
   369
  0
VERTEX
  5
1312
330
E15
100
AcDbEntity
  8
0
 62
     7
100
AcDbFaceRecord
 10
0.0
 20
0.0
 30
0.0
 70
   128
 71
   443
 72
   375
 73
   376
  0
VERTEX
  5
1313
330
E15
100
AcDbEntity
  8
0
 62
     7
100
AcDbFaceRecord
 10
0.0
 20
0.0
 30
0.0
 70
   128
 71
   443
 72
   378
 73
   375
  0
VERTEX
  5
1314
330
E15
100
AcDbEntity
  8
0
 62
     7
100
AcDbFaceRecord
 10
0.0
 20
0.0
 30
0.0
 70
   128
 71
   443
 72
   379
 73
   378
  0
VERTEX
  5
1315
330
E15
100
AcDbEntity
  8
0
 62
     7
100
AcDbFaceRecord
 10
0.0
 20
0.0
 30
0.0
 70
   128
 71
   443
 72
   282
 73
   284
  0
VERTEX
  5
1316
330
E15
100
AcDbEntity
  8
0
 62
     7
100
AcDbFaceRecord
 10
0.0
 20
0.0
 30
0.0
 70
   128
 71
   443
 72
   376
 73
   282
  0
VERTEX
  5
1317
330
E15
100
AcDbEntity
  8
0
 62
     7
100
AcDbFaceRecord
 10
0.0
 20
0.0
 30
0.0
 70
   128
 71
   379
 72
   284
 73
   377
  0
VERTEX
  5
1318
330
E15
100
AcDbEntity
  8
0
 62
     7
100
AcDbFaceRecord
 10
0.0
 20
0.0
 30
0.0
 70
   128
 71
   379
 72
   443
 73
   284
  0
VERTEX
  5
1319
330
E15
100
AcDbEntity
  8
0
 62
     7
100
AcDbFaceRecord
 10
0.0
 20
0.0
 30
0.0
 70
   128
 71
   444
 72
   372
 73
   379
  0
VERTEX
  5
131A
330
E15
100
AcDbEntity
  8
0
 62
     7
100
AcDbFaceRecord
 10
0.0
 20
0.0
 30
0.0
 70
   128
 71
   444
 72
   373
 73
   372
  0
VERTEX
  5
131B
330
E15
100
AcDbEntity
  8
0
 62
     7
100
AcDbFaceRecord
 10
0.0
 20
0.0
 30
0.0
 70
   128
 71
   444
 72
   381
 73
   373
  0
VERTEX
  5
131C
330
E15
100
AcDbEntity
  8
0
 62
     7
100
AcDbFaceRecord
 10
0.0
 20
0.0
 30
0.0
 70
   128
 71
   444
 72
   377
 73
   310
  0
VERTEX
  5
131D
330
E15
100
AcDbEntity
  8
0
 62
     7
100
AcDbFaceRecord
 10
0.0
 20
0.0
 30
0.0
 70
   128
 71
   444
 72
   379
 73
   377
  0
VERTEX
  5
131E
330
E15
100
AcDbEntity
  8
0
 62
     7
100
AcDbFaceRecord
 10
0.0
 20
0.0
 30
0.0
 70
   128
 71
   381
 72
   310
 73
   309
  0
VERTEX
  5
131F
330
E15
100
AcDbEntity
  8
0
 62
     7
100
AcDbFaceRecord
 10
0.0
 20
0.0
 30
0.0
 70
   128
 71
   381
 72
   444
 73
   310
  0
VERTEX
  5
1320
330
E15
100
AcDbEntity
  8
0
 62
     7
100
AcDbFaceRecord
 10
0.0
 20
0.0
 30
0.0
 70
   128
 71
   445
 72
   380
 73
   381
  0
VERTEX
  5
1321
330
E15
100
AcDbEntity
  8
0
 62
     7
100
AcDbFaceRecord
 10
0.0
 20
0.0
 30
0.0
 70
   128
 71
   445
 72
   382
 73
   380
  0
VERTEX
  5
1322
330
E15
100
AcDbEntity
  8
0
 62
     7
100
AcDbFaceRecord
 10
0.0
 20
0.0
 30
0.0
 70
   128
 71
   445
 72
   384
 73
   382
  0
VERTEX
  5
1323
330
E15
100
AcDbEntity
  8
0
 62
     7
100
AcDbFaceRecord
 10
0.0
 20
0.0
 30
0.0
 70
   128
 71
   445
 72
   309
 73
   285
  0
VERTEX
  5
1324
330
E15
100
AcDbEntity
  8
0
 62
     7
100
AcDbFaceRecord
 10
0.0
 20
0.0
 30
0.0
 70
   128
 71
   445
 72
   381
 73
   309
  0
VERTEX
  5
1325
330
E15
100
AcDbEntity
  8
0
 62
     7
100
AcDbFaceRecord
 10
0.0
 20
0.0
 30
0.0
 70
   128
 71
   384
 72
   285
 73
   287
  0
VERTEX
  5
1326
330
E15
100
AcDbEntity
  8
0
 62
     7
100
AcDbFaceRecord
 10
0.0
 20
0.0
 30
0.0
 70
   128
 71
   384
 72
   445
 73
   285
  0
VERTEX
  5
1327
330
E15
100
AcDbEntity
  8
0
 62
     7
100
AcDbFaceRecord
 10
0.0
 20
0.0
 30
0.0
 70
   128
 71
   446
 72
   383
 73
   384
  0
VERTEX
  5
1328
330
E15
100
AcDbEntity
  8
0
 62
     7
100
AcDbFaceRecord
 10
0.0
 20
0.0
 30
0.0
 70
   128
 71
   446
 72
   386
 73
   383
  0
VERTEX
  5
1329
330
E15
100
AcDbEntity
  8
0
 62
     7
100
AcDbFaceRecord
 10
0.0
 20
0.0
 30
0.0
 70
   128
 71
   446
 72
   388
 73
   386
  0
VERTEX
  5
132A
330
E15
100
AcDbEntity
  8
0
 62
     7
100
AcDbFaceRecord
 10
0.0
 20
0.0
 30
0.0
 70
   128
 71
   446
 72
   287
 73
   385
  0
VERTEX
  5
132B
330
E15
100
AcDbEntity
  8
0
 62
     7
100
AcDbFaceRecord
 10
0.0
 20
0.0
 30
0.0
 70
   128
 71
   446
 72
   384
 73
   287
  0
VERTEX
  5
132C
330
E15
100
AcDbEntity
  8
0
 62
     7
100
AcDbFaceRecord
 10
0.0
 20
0.0
 30
0.0
 70
   128
 71
   388
 72
   385
 73
   308
  0
VERTEX
  5
132D
330
E15
100
AcDbEntity
  8
0
 62
     7
100
AcDbFaceRecord
 10
0.0
 20
0.0
 30
0.0
 70
   128
 71
   388
 72
   446
 73
   385
  0
VERTEX
  5
132E
330
E15
100
AcDbEntity
  8
0
 62
     7
100
AcDbFaceRecord
 10
0.0
 20
0.0
 30
0.0
 70
   128
 71
   447
 72
   387
 73
   388
  0
VERTEX
  5
132F
330
E15
100
AcDbEntity
  8
0
 62
     7
100
AcDbFaceRecord
 10
0.0
 20
0.0
 30
0.0
 70
   128
 71
   447
 72
   391
 73
   387
  0
VERTEX
  5
1330
330
E15
100
AcDbEntity
  8
0
 62
     7
100
AcDbFaceRecord
 10
0.0
 20
0.0
 30
0.0
 70
   128
 71
   447
 72
   393
 73
   391
  0
VERTEX
  5
1331
330
E15
100
AcDbEntity
  8
0
 62
     7
100
AcDbFaceRecord
 10
0.0
 20
0.0
 30
0.0
 70
   128
 71
   447
 72
   308
 73
   307
  0
VERTEX
  5
1332
330
E15
100
AcDbEntity
  8
0
 62
     7
100
AcDbFaceRecord
 10
0.0
 20
0.0
 30
0.0
 70
   128
 71
   447
 72
   388
 73
   308
  0
VERTEX
  5
1333
330
E15
100
AcDbEntity
  8
0
 62
     7
100
AcDbFaceRecord
 10
0.0
 20
0.0
 30
0.0
 70
   128
 71
   393
 72
   307
 73
   288
  0
VERTEX
  5
1334
330
E15
100
AcDbEntity
  8
0
 62
     7
100
AcDbFaceRecord
 10
0.0
 20
0.0
 30
0.0
 70
   128
 71
   393
 72
   447
 73
   307
  0
VERTEX
  5
1335
330
E15
100
AcDbEntity
  8
0
 62
     7
100
AcDbFaceRecord
 10
0.0
 20
0.0
 30
0.0
 70
   128
 71
   448
 72
   392
 73
   393
  0
VERTEX
  5
1336
330
E15
100
AcDbEntity
  8
0
 62
     7
100
AcDbFaceRecord
 10
0.0
 20
0.0
 30
0.0
 70
   128
 71
   448
 72
   395
 73
   392
  0
VERTEX
  5
1337
330
E15
100
AcDbEntity
  8
0
 62
     7
100
AcDbFaceRecord
 10
0.0
 20
0.0
 30
0.0
 70
   128
 71
   448
 72
   396
 73
   395
  0
VERTEX
  5
1338
330
E15
100
AcDbEntity
  8
0
 62
     7
100
AcDbFaceRecord
 10
0.0
 20
0.0
 30
0.0
 70
   128
 71
   448
 72
   288
 73
   290
  0
VERTEX
  5
1339
330
E15
100
AcDbEntity
  8
0
 62
     7
100
AcDbFaceRecord
 10
0.0
 20
0.0
 30
0.0
 70
   128
 71
   448
 72
   393
 73
   288
  0
VERTEX
  5
133A
330
E15
100
AcDbEntity
  8
0
 62
     7
100
AcDbFaceRecord
 10
0.0
 20
0.0
 30
0.0
 70
   128
 71
   396
 72
   290
 73
   394
  0
VERTEX
  5
133B
330
E15
100
AcDbEntity
  8
0
 62
     7
100
AcDbFaceRecord
 10
0.0
 20
0.0
 30
0.0
 70
   128
 71
   396
 72
   448
 73
   290
  0
VERTEX
  5
133C
330
E15
100
AcDbEntity
  8
0
 62
     7
100
AcDbFaceRecord
 10
0.0
 20
0.0
 30
0.0
 70
   128
 71
   449
 72
   389
 73
   396
  0
VERTEX
  5
133D
330
E15
100
AcDbEntity
  8
0
 62
     7
100
AcDbFaceRecord
 10
0.0
 20
0.0
 30
0.0
 70
   128
 71
   449
 72
   390
 73
   389
  0
VERTEX
  5
133E
330
E15
100
AcDbEntity
  8
0
 62
     7
100
AcDbFaceRecord
 10
0.0
 20
0.0
 30
0.0
 70
   128
 71
   449
 72
   398
 73
   390
  0
VERTEX
  5
133F
330
E15
100
AcDbEntity
  8
0
 62
     7
100
AcDbFaceRecord
 10
0.0
 20
0.0
 30
0.0
 70
   128
 71
   449
 72
   394
 73
   306
  0
VERTEX
  5
1340
330
E15
100
AcDbEntity
  8
0
 62
     7
100
AcDbFaceRecord
 10
0.0
 20
0.0
 30
0.0
 70
   128
 71
   449
 72
   396
 73
   394
  0
VERTEX
  5
1341
330
E15
100
AcDbEntity
  8
0
 62
     7
100
AcDbFaceRecord
 10
0.0
 20
0.0
 30
0.0
 70
   128
 71
   398
 72
   306
 73
   305
  0
VERTEX
  5
1342
330
E15
100
AcDbEntity
  8
0
 62
     7
100
AcDbFaceRecord
 10
0.0
 20
0.0
 30
0.0
 70
   128
 71
   398
 72
   449
 73
   306
  0
VERTEX
  5
1343
330
E15
100
AcDbEntity
  8
0
 62
     7
100
AcDbFaceRecord
 10
0.0
 20
0.0
 30
0.0
 70
   128
 71
   450
 72
   397
 73
   398
  0
VERTEX
  5
1344
330
E15
100
AcDbEntity
  8
0
 62
     7
100
AcDbFaceRecord
 10
0.0
 20
0.0
 30
0.0
 70
   128
 71
   450
 72
   399
 73
   397
  0
VERTEX
  5
1345
330
E15
100
AcDbEntity
  8
0
 62
     7
100
AcDbFaceRecord
 10
0.0
 20
0.0
 30
0.0
 70
   128
 71
   450
 72
   401
 73
   399
  0
VERTEX
  5
1346
330
E15
100
AcDbEntity
  8
0
 62
     7
100
AcDbFaceRecord
 10
0.0
 20
0.0
 30
0.0
 70
   128
 71
   450
 72
   305
 73
   291
  0
VERTEX
  5
1347
330
E15
100
AcDbEntity
  8
0
 62
     7
100
AcDbFaceRecord
 10
0.0
 20
0.0
 30
0.0
 70
   128
 71
   450
 72
   398
 73
   305
  0
VERTEX
  5
1348
330
E15
100
AcDbEntity
  8
0
 62
     7
100
AcDbFaceRecord
 10
0.0
 20
0.0
 30
0.0
 70
   128
 71
   401
 72
   291
 73
   293
  0
VERTEX
  5
1349
330
E15
100
AcDbEntity
  8
0
 62
     7
100
AcDbFaceRecord
 10
0.0
 20
0.0
 30
0.0
 70
   128
 71
   401
 72
   450
 73
   291
  0
VERTEX
  5
134A
330
E15
100
AcDbEntity
  8
0
 62
     7
100
AcDbFaceRecord
 10
0.0
 20
0.0
 30
0.0
 70
   128
 71
   451
 72
   400
 73
   401
  0
VERTEX
  5
134B
330
E15
100
AcDbEntity
  8
0
 62
     7
100
AcDbFaceRecord
 10
0.0
 20
0.0
 30
0.0
 70
   128
 71
   451
 72
   403
 73
   400
  0
VERTEX
  5
134C
330
E15
100
AcDbEntity
  8
0
 62
     7
100
AcDbFaceRecord
 10
0.0
 20
0.0
 30
0.0
 70
   128
 71
   451
 72
   405
 73
   403
  0
VERTEX
  5
134D
330
E15
100
AcDbEntity
  8
0
 62
     7
100
AcDbFaceRecord
 10
0.0
 20
0.0
 30
0.0
 70
   128
 71
   451
 72
   293
 73
   402
  0
VERTEX
  5
134E
330
E15
100
AcDbEntity
  8
0
 62
     7
100
AcDbFaceRecord
 10
0.0
 20
0.0
 30
0.0
 70
   128
 71
   451
 72
   401
 73
   293
  0
VERTEX
  5
134F
330
E15
100
AcDbEntity
  8
0
 62
     7
100
AcDbFaceRecord
 10
0.0
 20
0.0
 30
0.0
 70
   128
 71
   405
 72
   402
 73
   304
  0
VERTEX
  5
1350
330
E15
100
AcDbEntity
  8
0
 62
     7
100
AcDbFaceRecord
 10
0.0
 20
0.0
 30
0.0
 70
   128
 71
   405
 72
   451
 73
   402
  0
VERTEX
  5
1351
330
E15
100
AcDbEntity
  8
0
 62
     7
100
AcDbFaceRecord
 10
0.0
 20
0.0
 30
0.0
 70
   128
 71
   452
 72
   404
 73
   405
  0
VERTEX
  5
1352
330
E15
100
AcDbEntity
  8
0
 62
     7
100
AcDbFaceRecord
 10
0.0
 20
0.0
 30
0.0
 70
   128
 71
   452
 72
   408
 73
   404
  0
VERTEX
  5
1353
330
E15
100
AcDbEntity
  8
0
 62
     7
100
AcDbFaceRecord
 10
0.0
 20
0.0
 30
0.0
 70
   128
 71
   452
 72
   410
 73
   408
  0
VERTEX
  5
1354
330
E15
100
AcDbEntity
  8
0
 62
     7
100
AcDbFaceRecord
 10
0.0
 20
0.0
 30
0.0
 70
   128
 71
   452
 72
   304
 73
   303
  0
VERTEX
  5
1355
330
E15
100
AcDbEntity
  8
0
 62
     7
100
AcDbFaceRecord
 10
0.0
 20
0.0
 30
0.0
 70
   128
 71
   452
 72
   405
 73
   304
  0
VERTEX
  5
1356
330
E15
100
AcDbEntity
  8
0
 62
     7
100
AcDbFaceRecord
 10
0.0
 20
0.0
 30
0.0
 70
   128
 71
   410
 72
   303
 73
   294
  0
VERTEX
  5
1357
330
E15
100
AcDbEntity
  8
0
 62
     7
100
AcDbFaceRecord
 10
0.0
 20
0.0
 30
0.0
 70
   128
 71
   410
 72
   452
 73
   303
  0
VERTEX
  5
1358
330
E15
100
AcDbEntity
  8
0
 62
     7
100
AcDbFaceRecord
 10
0.0
 20
0.0
 30
0.0
 70
   128
 71
   453
 72
   409
 73
   410
  0
VERTEX
  5
1359
330
E15
100
AcDbEntity
  8
0
 62
     7
100
AcDbFaceRecord
 10
0.0
 20
0.0
 30
0.0
 70
   128
 71
   453
 72
   412
 73
   409
  0
VERTEX
  5
135A
330
E15
100
AcDbEntity
  8
0
 62
     7
100
AcDbFaceRecord
 10
0.0
 20
0.0
 30
0.0
 70
   128
 71
   453
 72
   413
 73
   412
  0
VERTEX
  5
135B
330
E15
100
AcDbEntity
  8
0
 62
     7
100
AcDbFaceRecord
 10
0.0
 20
0.0
 30
0.0
 70
   128
 71
   453
 72
   294
 73
   296
  0
VERTEX
  5
135C
330
E15
100
AcDbEntity
  8
0
 62
     7
100
AcDbFaceRecord
 10
0.0
 20
0.0
 30
0.0
 70
   128
 71
   453
 72
   410
 73
   294
  0
VERTEX
  5
135D
330
E15
100
AcDbEntity
  8
0
 62
     7
100
AcDbFaceRecord
 10
0.0
 20
0.0
 30
0.0
 70
   128
 71
   413
 72
   296
 73
   411
  0
VERTEX
  5
135E
330
E15
100
AcDbEntity
  8
0
 62
     7
100
AcDbFaceRecord
 10
0.0
 20
0.0
 30
0.0
 70
   128
 71
   413
 72
   453
 73
   296
  0
VERTEX
  5
135F
330
E15
100
AcDbEntity
  8
0
 62
     7
100
AcDbFaceRecord
 10
0.0
 20
0.0
 30
0.0
 70
   128
 71
   454
 72
   406
 73
   413
  0
VERTEX
  5
1360
330
E15
100
AcDbEntity
  8
0
 62
     7
100
AcDbFaceRecord
 10
0.0
 20
0.0
 30
0.0
 70
   128
 71
   454
 72
   407
 73
   406
  0
VERTEX
  5
1361
330
E15
100
AcDbEntity
  8
0
 62
     7
100
AcDbFaceRecord
 10
0.0
 20
0.0
 30
0.0
 70
   128
 71
   454
 72
   416
 73
   407
  0
VERTEX
  5
1362
330
E15
100
AcDbEntity
  8
0
 62
     7
100
AcDbFaceRecord
 10
0.0
 20
0.0
 30
0.0
 70
   128
 71
   454
 72
   411
 73
   302
  0
VERTEX
  5
1363
330
E15
100
AcDbEntity
  8
0
 62
     7
100
AcDbFaceRecord
 10
0.0
 20
0.0
 30
0.0
 70
   128
 71
   454
 72
   413
 73
   411
  0
VERTEX
  5
1364
330
E15
100
AcDbEntity
  8
0
 62
     7
100
AcDbFaceRecord
 10
0.0
 20
0.0
 30
0.0
 70
   128
 71
   416
 72
   302
 73
   301
  0
VERTEX
  5
1365
330
E15
100
AcDbEntity
  8
0
 62
     7
100
AcDbFaceRecord
 10
0.0
 20
0.0
 30
0.0
 70
   128
 71
   416
 72
   454
 73
   302
  0
VERTEX
  5
1366
330
E15
100
AcDbEntity
  8
0
 62
     7
100
AcDbFaceRecord
 10
0.0
 20
0.0
 30
0.0
 70
   128
 71
   455
 72
   415
 73
   416
  0
VERTEX
  5
1367
330
E15
100
AcDbEntity
  8
0
 62
     7
100
AcDbFaceRecord
 10
0.0
 20
0.0
 30
0.0
 70
   128
 71
   455
 72
   417
 73
   415
  0
VERTEX
  5
1368
330
E15
100
AcDbEntity
  8
0
 62
     7
100
AcDbFaceRecord
 10
0.0
 20
0.0
 30
0.0
 70
   128
 71
   455
 72
   419
 73
   417
  0
VERTEX
  5
1369
330
E15
100
AcDbEntity
  8
0
 62
     7
100
AcDbFaceRecord
 10
0.0
 20
0.0
 30
0.0
 70
   128
 71
   455
 72
   301
 73
   414
  0
VERTEX
  5
136A
330
E15
100
AcDbEntity
  8
0
 62
     7
100
AcDbFaceRecord
 10
0.0
 20
0.0
 30
0.0
 70
   128
 71
   455
 72
   416
 73
   301
  0
VERTEX
  5
136B
330
E15
100
AcDbEntity
  8
0
 62
     7
100
AcDbFaceRecord
 10
0.0
 20
0.0
 30
0.0
 70
   128
 71
   419
 72
   455
 73
   414
  0
VERTEX
  5
136C
330
E15
100
AcDbEntity
  8
0
 62
     7
100
AcDbFaceRecord
 10
0.0
 20
0.0
 30
0.0
 70
   128
 71
   422
 72
   418
 73
   419
  0
VERTEX
  5
136D
330
E15
100
AcDbEntity
  8
0
 62
     7
100
AcDbFaceRecord
 10
0.0
 20
0.0
 30
0.0
 70
   128
 71
   422
 72
   423
 73
   418
  0
VERTEX
  5
136E
330
E15
100
AcDbEntity
  8
0
 62
     7
100
AcDbFaceRecord
 10
0.0
 20
0.0
 30
0.0
 70
   128
 71
   422
 72
   421
 73
   423
  0
VERTEX
  5
136F
330
E15
100
AcDbEntity
  8
0
 62
     7
100
AcDbFaceRecord
 10
0.0
 20
0.0
 30
0.0
 70
   128
 71
   456
 72
   424
 73
   421
  0
VERTEX
  5
1370
330
E15
100
AcDbEntity
  8
0
 62
     7
100
AcDbFaceRecord
 10
0.0
 20
0.0
 30
0.0
 70
   128
 71
   457
 72
   419
 73
   414
  0
VERTEX
  5
1371
330
E15
100
AcDbEntity
  8
0
 62
     7
100
AcDbFaceRecord
 10
0.0
 20
0.0
 30
0.0
 70
   128
 71
   457
 72
   422
 73
   419
  0
VERTEX
  5
1372
330
E15
100
AcDbEntity
  8
0
 62
     7
100
AcDbFaceRecord
 10
0.0
 20
0.0
 30
0.0
 70
   128
 71
   457
 72
   420
 73
   422
  0
VERTEX
  5
1373
330
E15
100
AcDbEntity
  8
0
 62
     7
100
AcDbFaceRecord
 10
0.0
 20
0.0
 30
0.0
 70
   128
 71
   458
 72
   421
 73
   420
  0
VERTEX
  5
1374
330
E15
100
AcDbEntity
  8
0
 62
     7
100
AcDbFaceRecord
 10
0.0
 20
0.0
 30
0.0
 70
   128
 71
   458
 72
   456
 73
   421
  0
VERTEX
  5
1375
330
E15
100
AcDbEntity
  8
0
 62
     7
100
AcDbFaceRecord
 10
0.0
 20
0.0
 30
0.0
 70
   128
 71
   458
 72
   459
 73
   456
  0
VERTEX
  5
1376
330
E15
100
AcDbEntity
  8
0
 62
     7
100
AcDbFaceRecord
 10
0.0
 20
0.0
 30
0.0
 70
   128
 71
   460
 72
   424
 73
   456
  0
VERTEX
  5
1377
330
E15
100
AcDbEntity
  8
0
 62
     7
100
AcDbFaceRecord
 10
0.0
 20
0.0
 30
0.0
 70
   128
 71
   460
 72
    79
 73
   424
  0
VERTEX
  5
1378
330
E15
100
AcDbEntity
  8
0
 62
     7
100
AcDbFaceRecord
 10
0.0
 20
0.0
 30
0.0
 70
   128
 71
   460
 72
   318
 73
    79
  0
VERTEX
  5
1379
330
E15
100
AcDbEntity
  8
0
 62
     7
100
AcDbFaceRecord
 10
0.0
 20
0.0
 30
0.0
 70
   128
 71
   461
 72
   459
 73
   426
  0
VERTEX
  5
137A
330
E15
100
AcDbEntity
  8
0
 62
     7
100
AcDbFaceRecord
 10
0.0
 20
0.0
 30
0.0
 70
   128
 71
   461
 72
   456
 73
   459
  0
VERTEX
  5
137B
330
E15
100
AcDbEntity
  8
0
 62
     7
100
AcDbFaceRecord
 10
0.0
 20
0.0
 30
0.0
 70
   128
 71
   461
 72
   460
 73
   456
  0
VERTEX
  5
137C
330
E15
100
AcDbEntity
  8
0
 62
     7
100
AcDbFaceRecord
 10
0.0
 20
0.0
 30
0.0
 70
   128
 71
   461
 72
   318
 73
   460
  0
VERTEX
  5
137D
330
E15
100
AcDbEntity
  8
0
 62
     7
100
AcDbFaceRecord
 10
0.0
 20
0.0
 30
0.0
 70
   128
 71
   461
 72
   425
 73
   318
  0
VERTEX
  5
137E
330
E15
100
AcDbEntity
  8
0
 62
     7
100
AcDbFaceRecord
 10
0.0
 20
0.0
 30
0.0
 70
   128
 71
   461
 72
   426
 73
   425
  0
VERTEX
  5
137F
330
E15
100
AcDbEntity
  8
0
 62
     7
100
AcDbFaceRecord
 10
0.0
 20
0.0
 30
0.0
 70
   128
 71
   427
 72
   457
 73
   414
  0
VERTEX
  5
1380
330
E15
100
AcDbEntity
  8
0
 62
     7
100
AcDbFaceRecord
 10
0.0
 20
0.0
 30
0.0
 70
   128
 71
   427
 72
   420
 73
   457
  0
VERTEX
  5
1381
330
E15
100
AcDbEntity
  8
0
 62
     7
100
AcDbFaceRecord
 10
0.0
 20
0.0
 30
0.0
 70
   128
 71
   427
 72
   458
 73
   420
  0
VERTEX
  5
1382
330
E15
100
AcDbEntity
  8
0
 62
     7
100
AcDbFaceRecord
 10
0.0
 20
0.0
 30
0.0
 70
   128
 71
   427
 72
   459
 73
   458
  0
VERTEX
  5
1383
330
E15
100
AcDbEntity
  8
0
 62
     7
100
AcDbFaceRecord
 10
0.0
 20
0.0
 30
0.0
 70
   128
 71
   427
 72
   426
 73
   459
  0
VERTEX
  5
1384
330
E15
100
AcDbEntity
  8
0
 62
     7
100
AcDbFaceRecord
 10
0.0
 20
0.0
 30
0.0
 70
   128
 71
    86
 72
   343
 73
    89
  0
VERTEX
  5
1385
330
E15
100
AcDbEntity
  8
0
 62
     7
100
AcDbFaceRecord
 10
0.0
 20
0.0
 30
0.0
 70
   128
 71
    89
 72
   357
 73
    88
  0
VERTEX
  5
1386
330
E15
100
AcDbEntity
  8
0
 62
     7
100
AcDbFaceRecord
 10
0.0
 20
0.0
 30
0.0
 70
   128
 71
    88
 72
   360
 73
    91
  0
VERTEX
  5
1387
330
E15
100
AcDbEntity
  8
0
 62
     7
100
AcDbFaceRecord
 10
0.0
 20
0.0
 30
0.0
 70
   128
 71
    91
 72
   373
 73
    90
  0
VERTEX
  5
1388
330
E15
100
AcDbEntity
  8
0
 62
     7
100
AcDbFaceRecord
 10
0.0
 20
0.0
 30
0.0
 70
   128
 71
    90
 72
   387
 73
    84
  0
VERTEX
  5
1389
330
E15
100
AcDbEntity
  8
0
 62
     7
100
AcDbFaceRecord
 10
0.0
 20
0.0
 30
0.0
 70
   128
 71
    84
 72
   390
 73
    83
  0
VERTEX
  5
138A
330
E15
100
AcDbEntity
  8
0
 62
     7
100
AcDbFaceRecord
 10
0.0
 20
0.0
 30
0.0
 70
   128
 71
    83
 72
   404
 73
    82
  0
VERTEX
  5
138B
330
E15
100
AcDbEntity
  8
0
 62
     7
100
AcDbFaceRecord
 10
0.0
 20
0.0
 30
0.0
 70
   128
 71
    82
 72
   407
 73
    80
  0
VERTEX
  5
138C
330
E15
100
AcDbEntity
  8
0
 62
     7
100
AcDbFaceRecord
 10
0.0
 20
0.0
 30
0.0
 70
   128
 71
    80
 72
   424
 73
    79
  0
VERTEX
  5
138D
330
E15
100
AcDbEntity
  8
0
 62
     7
100
AcDbFaceRecord
 10
0.0
 20
0.0
 30
0.0
 70
   128
 71
    79
 72
   323
 73
    77
  0
VERTEX
  5
138E
330
E15
100
AcDbEntity
  8
0
 62
     7
100
AcDbFaceRecord
 10
0.0
 20
0.0
 30
0.0
 70
   128
 71
    77
 72
   326
 73
    85
  0
VERTEX
  5
138F
330
E15
100
AcDbEntity
  8
0
 62
     7
100
AcDbFaceRecord
 10
0.0
 20
0.0
 30
0.0
 70
   128
 71
    85
 72
   340
 73
    86
  0
VERTEX
  5
1390
330
E15
100
AcDbEntity
  8
0
 62
     7
100
AcDbFaceRecord
 10
0.0
 20
0.0
 30
0.0
 70
   128
 71
   271
 72
   270
 73
   268
  0
VERTEX
  5
1391
330
E15
100
AcDbEntity
  8
0
 62
     7
100
AcDbFaceRecord
 10
0.0
 20
0.0
 30
0.0
 70
   128
 71
   268
 72
   267
 73
   265
  0
VERTEX
  5
1392
330
E15
100
AcDbEntity
  8
0
 62
     7
100
AcDbFaceRecord
 10
0.0
 20
0.0
 30
0.0
 70
   128
 71
   265
 72
   264
 73
   427
  0
VERTEX
  5
1393
330
E15
100
AcDbEntity
  8
0
 62
     7
100
AcDbFaceRecord
 10
0.0
 20
0.0
 30
0.0
 70
   128
 71
   427
 72
   414
 73
   295
  0
VERTEX
  5
1394
330
E15
100
AcDbEntity
  8
0
 62
     7
100
AcDbFaceRecord
 10
0.0
 20
0.0
 30
0.0
 70
   128
 71
   295
 72
   294
 73
   292
  0
VERTEX
  5
1395
330
E15
100
AcDbEntity
  8
0
 62
     7
100
AcDbFaceRecord
 10
0.0
 20
0.0
 30
0.0
 70
   128
 71
   292
 72
   291
 73
   289
  0
VERTEX
  5
1396
330
E15
100
AcDbEntity
  8
0
 62
     7
100
AcDbFaceRecord
 10
0.0
 20
0.0
 30
0.0
 70
   128
 71
   289
 72
   288
 73
   286
  0
VERTEX
  5
1397
330
E15
100
AcDbEntity
  8
0
 62
     7
100
AcDbFaceRecord
 10
0.0
 20
0.0
 30
0.0
 70
   128
 71
   286
 72
   285
 73
   283
  0
VERTEX
  5
1398
330
E15
100
AcDbEntity
  8
0
 62
     7
100
AcDbFaceRecord
 10
0.0
 20
0.0
 30
0.0
 70
   128
 71
   283
 72
   282
 73
   280
  0
VERTEX
  5
1399
330
E15
100
AcDbEntity
  8
0
 62
     7
100
AcDbFaceRecord
 10
0.0
 20
0.0
 30
0.0
 70
   128
 71
   280
 72
   279
 73
   277
  0
VERTEX
  5
139A
330
E15
100
AcDbEntity
  8
0
 62
     7
100
AcDbFaceRecord
 10
0.0
 20
0.0
 30
0.0
 70
   128
 71
   277
 72
   276
 73
   274
  0
VERTEX
  5
139B
330
E15
100
AcDbEntity
  8
0
 62
     7
100
AcDbFaceRecord
 10
0.0
 20
0.0
 30
0.0
 70
   128
 71
   274
 72
   273
 73
   271
  0
VERTEX
  5
139C
330
E15
100
AcDbEntity
  8
0
 62
     7
100
AcDbFaceRecord
 10
0.0
 20
0.0
 30
0.0
 70
   128
 71
   462
 72
   463
 73
   464
  0
VERTEX
  5
139D
330
E15
100
AcDbEntity
  8
0
 62
     7
100
AcDbFaceRecord
 10
0.0
 20
0.0
 30
0.0
 70
   128
 71
   465
 72
   466
 73
   467
  0
VERTEX
  5
139E
330
E15
100
AcDbEntity
  8
0
 62
     7
100
AcDbFaceRecord
 10
0.0
 20
0.0
 30
0.0
 70
   128
 71
   465
 72
   463
 73
   466
  0
VERTEX
  5
139F
330
E15
100
AcDbEntity
  8
0
 62
     7
100
AcDbFaceRecord
 10
0.0
 20
0.0
 30
0.0
 70
   128
 71
   468
 72
   463
 73
   462
  0
VERTEX
  5
13A0
330
E15
100
AcDbEntity
  8
0
 62
     7
100
AcDbFaceRecord
 10
0.0
 20
0.0
 30
0.0
 70
   128
 71
   468
 72
   466
 73
   463
  0
VERTEX
  5
13A1
330
E15
100
AcDbEntity
  8
0
 62
     7
100
AcDbFaceRecord
 10
0.0
 20
0.0
 30
0.0
 70
   128
 71
   468
 72
   469
 73
   466
  0
VERTEX
  5
13A2
330
E15
100
AcDbEntity
  8
0
 62
     7
100
AcDbFaceRecord
 10
0.0
 20
0.0
 30
0.0
 70
   128
 71
   468
 72
   268
 73
   469
  0
VERTEX
  5
13A3
330
E15
100
AcDbEntity
  8
0
 62
     7
100
AcDbFaceRecord
 10
0.0
 20
0.0
 30
0.0
 70
   128
 71
   470
 72
   466
 73
   469
  0
VERTEX
  5
13A4
330
E15
100
AcDbEntity
  8
0
 62
     7
100
AcDbFaceRecord
 10
0.0
 20
0.0
 30
0.0
 70
   128
 71
   470
 72
   467
 73
   466
  0
VERTEX
  5
13A5
330
E15
100
AcDbEntity
  8
0
 62
     7
100
AcDbFaceRecord
 10
0.0
 20
0.0
 30
0.0
 70
   128
 71
   471
 72
   472
 73
   473
  0
VERTEX
  5
13A6
330
E15
100
AcDbEntity
  8
0
 62
     7
100
AcDbFaceRecord
 10
0.0
 20
0.0
 30
0.0
 70
   128
 71
   427
 72
   474
 73
   265
  0
VERTEX
  5
13A7
330
E15
100
AcDbEntity
  8
0
 62
     7
100
AcDbFaceRecord
 10
0.0
 20
0.0
 30
0.0
 70
   128
 71
   472
 72
   475
 73
   476
  0
VERTEX
  5
13A8
330
E15
100
AcDbEntity
  8
0
 62
     7
100
AcDbFaceRecord
 10
0.0
 20
0.0
 30
0.0
 70
   128
 71
   477
 72
   478
 73
   103
  0
VERTEX
  5
13A9
330
E15
100
AcDbEntity
  8
0
 62
     7
100
AcDbFaceRecord
 10
0.0
 20
0.0
 30
0.0
 70
   128
 71
   477
 72
   471
 73
   478
  0
VERTEX
  5
13AA
330
E15
100
AcDbEntity
  8
0
 62
     7
100
AcDbFaceRecord
 10
0.0
 20
0.0
 30
0.0
 70
   128
 71
   477
 72
   472
 73
   471
  0
VERTEX
  5
13AB
330
E15
100
AcDbEntity
  8
0
 62
     7
100
AcDbFaceRecord
 10
0.0
 20
0.0
 30
0.0
 70
   128
 71
   475
 72
   477
 73
   113
  0
VERTEX
  5
13AC
330
E15
100
AcDbEntity
  8
0
 62
     7
100
AcDbFaceRecord
 10
0.0
 20
0.0
 30
0.0
 70
   128
 71
   475
 72
   472
 73
   477
  0
VERTEX
  5
13AD
330
E15
100
AcDbEntity
  8
0
 62
     7
100
AcDbFaceRecord
 10
0.0
 20
0.0
 30
0.0
 70
   128
 71
   479
 72
   103
 73
   478
  0
VERTEX
  5
13AE
330
E15
100
AcDbEntity
  8
0
 62
     7
100
AcDbFaceRecord
 10
0.0
 20
0.0
 30
0.0
 70
   128
 71
   480
 72
   478
 73
   471
  0
VERTEX
  5
13AF
330
E15
100
AcDbEntity
  8
0
 62
     7
100
AcDbFaceRecord
 10
0.0
 20
0.0
 30
0.0
 70
   128
 71
   480
 72
   479
 73
   478
  0
VERTEX
  5
13B0
330
E15
100
AcDbEntity
  8
0
 62
     7
100
AcDbFaceRecord
 10
0.0
 20
0.0
 30
0.0
 70
   128
 71
   479
 72
   481
 73
   102
  0
VERTEX
  5
13B1
330
E15
100
AcDbEntity
  8
0
 62
     7
100
AcDbFaceRecord
 10
0.0
 20
0.0
 30
0.0
 70
   128
 71
   479
 72
   482
 73
   481
  0
VERTEX
  5
13B2
330
E15
100
AcDbEntity
  8
0
 62
     7
100
AcDbFaceRecord
 10
0.0
 20
0.0
 30
0.0
 70
   128
 71
   295
 72
   483
 73
   484
  0
VERTEX
  5
13B3
330
E15
100
AcDbEntity
  8
0
 62
     7
100
AcDbFaceRecord
 10
0.0
 20
0.0
 30
0.0
 70
   128
 71
   482
 72
   484
 73
   483
  0
VERTEX
  5
13B4
330
E15
100
AcDbEntity
  8
0
 62
     7
100
AcDbFaceRecord
 10
0.0
 20
0.0
 30
0.0
 70
   128
 71
   482
 72
   480
 73
   484
  0
VERTEX
  5
13B5
330
E15
100
AcDbEntity
  8
0
 62
     7
100
AcDbFaceRecord
 10
0.0
 20
0.0
 30
0.0
 70
   128
 71
   482
 72
   479
 73
   480
  0
VERTEX
  5
13B6
330
E15
100
AcDbEntity
  8
0
 62
     7
100
AcDbFaceRecord
 10
0.0
 20
0.0
 30
0.0
 70
   128
 71
   485
 72
   482
 73
   483
  0
VERTEX
  5
13B7
330
E15
100
AcDbEntity
  8
0
 62
     7
100
AcDbFaceRecord
 10
0.0
 20
0.0
 30
0.0
 70
   128
 71
   485
 72
   481
 73
   482
  0
VERTEX
  5
13B8
330
E15
100
AcDbEntity
  8
0
 62
     7
100
AcDbFaceRecord
 10
0.0
 20
0.0
 30
0.0
 70
   128
 71
   102
 72
   486
 73
   117
  0
VERTEX
  5
13B9
330
E15
100
AcDbEntity
  8
0
 62
     7
100
AcDbFaceRecord
 10
0.0
 20
0.0
 30
0.0
 70
   128
 71
   487
 72
   483
 73
   292
  0
VERTEX
  5
13BA
330
E15
100
AcDbEntity
  8
0
 62
     7
100
AcDbFaceRecord
 10
0.0
 20
0.0
 30
0.0
 70
   128
 71
   487
 72
   485
 73
   483
  0
VERTEX
  5
13BB
330
E15
100
AcDbEntity
  8
0
 62
     7
100
AcDbFaceRecord
 10
0.0
 20
0.0
 30
0.0
 70
   128
 71
   487
 72
   488
 73
   485
  0
VERTEX
  5
13BC
330
E15
100
AcDbEntity
  8
0
 62
     7
100
AcDbFaceRecord
 10
0.0
 20
0.0
 30
0.0
 70
   128
 71
   489
 72
   490
 73
   491
  0
VERTEX
  5
13BD
330
E15
100
AcDbEntity
  8
0
 62
     7
100
AcDbFaceRecord
 10
0.0
 20
0.0
 30
0.0
 70
   128
 71
   492
 72
   491
 73
   490
  0
VERTEX
  5
13BE
330
E15
100
AcDbEntity
  8
0
 62
     7
100
AcDbFaceRecord
 10
0.0
 20
0.0
 30
0.0
 70
   128
 71
   492
 72
   493
 73
   491
  0
VERTEX
  5
13BF
330
E15
100
AcDbEntity
  8
0
 62
     7
100
AcDbFaceRecord
 10
0.0
 20
0.0
 30
0.0
 70
   128
 71
   494
 72
   491
 73
   493
  0
VERTEX
  5
13C0
330
E15
100
AcDbEntity
  8
0
 62
     7
100
AcDbFaceRecord
 10
0.0
 20
0.0
 30
0.0
 70
   128
 71
   495
 72
   491
 73
   494
  0
VERTEX
  5
13C1
330
E15
100
AcDbEntity
  8
0
 62
     7
100
AcDbFaceRecord
 10
0.0
 20
0.0
 30
0.0
 70
   128
 71
   495
 72
   489
 73
   491
  0
VERTEX
  5
13C2
330
E15
100
AcDbEntity
  8
0
 62
     7
100
AcDbFaceRecord
 10
0.0
 20
0.0
 30
0.0
 70
   128
 71
   496
 72
   497
 73
   498
  0
VERTEX
  5
13C3
330
E15
100
AcDbEntity
  8
0
 62
     7
100
AcDbFaceRecord
 10
0.0
 20
0.0
 30
0.0
 70
   128
 71
   280
 72
   499
 73
   283
  0
VERTEX
  5
13C4
330
E15
100
AcDbEntity
  8
0
 62
     7
100
AcDbFaceRecord
 10
0.0
 20
0.0
 30
0.0
 70
   128
 71
   500
 72
   498
 73
   497
  0
VERTEX
  5
13C5
330
E15
100
AcDbEntity
  8
0
 62
     7
100
AcDbFaceRecord
 10
0.0
 20
0.0
 30
0.0
 70
   128
 71
    94
 72
   498
 73
   500
  0
VERTEX
  5
13C6
330
E15
100
AcDbEntity
  8
0
 62
     7
100
AcDbFaceRecord
 10
0.0
 20
0.0
 30
0.0
 70
   128
 71
   500
 72
   501
 73
   115
  0
VERTEX
  5
13C7
330
E15
100
AcDbEntity
  8
0
 62
     7
100
AcDbFaceRecord
 10
0.0
 20
0.0
 30
0.0
 70
   128
 71
   500
 72
   502
 73
   501
  0
VERTEX
  5
13C8
330
E15
100
AcDbEntity
  8
0
 62
     7
100
AcDbFaceRecord
 10
0.0
 20
0.0
 30
0.0
 70
   128
 71
   280
 72
   503
 73
   504
  0
VERTEX
  5
13C9
330
E15
100
AcDbEntity
  8
0
 62
     7
100
AcDbFaceRecord
 10
0.0
 20
0.0
 30
0.0
 70
   128
 71
   502
 72
   504
 73
   503
  0
VERTEX
  5
13CA
330
E15
100
AcDbEntity
  8
0
 62
     7
100
AcDbFaceRecord
 10
0.0
 20
0.0
 30
0.0
 70
   128
 71
   502
 72
   497
 73
   504
  0
VERTEX
  5
13CB
330
E15
100
AcDbEntity
  8
0
 62
     7
100
AcDbFaceRecord
 10
0.0
 20
0.0
 30
0.0
 70
   128
 71
   502
 72
   500
 73
   497
  0
VERTEX
  5
13CC
330
E15
100
AcDbEntity
  8
0
 62
     7
100
AcDbFaceRecord
 10
0.0
 20
0.0
 30
0.0
 70
   128
 71
   505
 72
   506
 73
   507
  0
VERTEX
  5
13CD
330
E15
100
AcDbEntity
  8
0
 62
     7
100
AcDbFaceRecord
 10
0.0
 20
0.0
 30
0.0
 70
   128
 71
   505
 72
   503
 73
   506
  0
VERTEX
  5
13CE
330
E15
100
AcDbEntity
  8
0
 62
     7
100
AcDbFaceRecord
 10
0.0
 20
0.0
 30
0.0
 70
   128
 71
   505
 72
   502
 73
   503
  0
VERTEX
  5
13CF
330
E15
100
AcDbEntity
  8
0
 62
     7
100
AcDbFaceRecord
 10
0.0
 20
0.0
 30
0.0
 70
   128
 71
   505
 72
   501
 73
   502
  0
VERTEX
  5
13D0
330
E15
100
AcDbEntity
  8
0
 62
     7
100
AcDbFaceRecord
 10
0.0
 20
0.0
 30
0.0
 70
   128
 71
   108
 72
   110
 73
   508
  0
VERTEX
  5
13D1
330
E15
100
AcDbEntity
  8
0
 62
     7
100
AcDbFaceRecord
 10
0.0
 20
0.0
 30
0.0
 70
   128
 71
   509
 72
   507
 73
   506
  0
VERTEX
  5
13D2
330
E15
100
AcDbEntity
  8
0
 62
     7
100
AcDbFaceRecord
 10
0.0
 20
0.0
 30
0.0
 70
   128
 71
   277
 72
   506
 73
   503
  0
VERTEX
  5
13D3
330
E15
100
AcDbEntity
  8
0
 62
     7
100
AcDbFaceRecord
 10
0.0
 20
0.0
 30
0.0
 70
   128
 71
   277
 72
   509
 73
   506
  0
VERTEX
  5
13D4
330
E15
100
AcDbEntity
  8
0
 62
     7
100
AcDbFaceRecord
 10
0.0
 20
0.0
 30
0.0
 70
   128
 71
   271
 72
   462
 73
   510
  0
VERTEX
  5
13D5
330
E15
100
AcDbEntity
  8
0
 62
     7
100
AcDbFaceRecord
 10
0.0
 20
0.0
 30
0.0
 70
   128
 71
   511
 72
   508
 73
   110
  0
VERTEX
  5
13D6
330
E15
100
AcDbEntity
  8
0
 62
     7
100
AcDbFaceRecord
 10
0.0
 20
0.0
 30
0.0
 70
   128
 71
   511
 72
   507
 73
   508
  0
VERTEX
  5
13D7
330
E15
100
AcDbEntity
  8
0
 62
     7
100
AcDbFaceRecord
 10
0.0
 20
0.0
 30
0.0
 70
   128
 71
   511
 72
   505
 73
   507
  0
VERTEX
  5
13D8
330
E15
100
AcDbEntity
  8
0
 62
     7
100
AcDbFaceRecord
 10
0.0
 20
0.0
 30
0.0
 70
   128
 71
   511
 72
   501
 73
   505
  0
VERTEX
  5
13D9
330
E15
100
AcDbEntity
  8
0
 62
     7
100
AcDbFaceRecord
 10
0.0
 20
0.0
 30
0.0
 70
   128
 71
   511
 72
   115
 73
   501
  0
VERTEX
  5
13DA
330
E15
100
AcDbEntity
  8
0
 62
     7
100
AcDbFaceRecord
 10
0.0
 20
0.0
 30
0.0
 70
   128
 71
   499
 72
   497
 73
   496
  0
VERTEX
  5
13DB
330
E15
100
AcDbEntity
  8
0
 62
     7
100
AcDbFaceRecord
 10
0.0
 20
0.0
 30
0.0
 70
   128
 71
   499
 72
   504
 73
   497
  0
VERTEX
  5
13DC
330
E15
100
AcDbEntity
  8
0
 62
     7
100
AcDbFaceRecord
 10
0.0
 20
0.0
 30
0.0
 70
   128
 71
   499
 72
   280
 73
   504
  0
VERTEX
  5
13DD
330
E15
100
AcDbEntity
  8
0
 62
     7
100
AcDbFaceRecord
 10
0.0
 20
0.0
 30
0.0
 70
   128
 71
   286
 72
   493
 73
   289
  0
VERTEX
  5
13DE
330
E15
100
AcDbEntity
  8
0
 62
     7
100
AcDbFaceRecord
 10
0.0
 20
0.0
 30
0.0
 70
   128
 71
   286
 72
   494
 73
   493
  0
VERTEX
  5
13DF
330
E15
100
AcDbEntity
  8
0
 62
     7
100
AcDbFaceRecord
 10
0.0
 20
0.0
 30
0.0
 70
   128
 71
   101
 72
   489
 73
    99
  0
VERTEX
  5
13E0
330
E15
100
AcDbEntity
  8
0
 62
     7
100
AcDbFaceRecord
 10
0.0
 20
0.0
 30
0.0
 70
   128
 71
   101
 72
   490
 73
   489
  0
VERTEX
  5
13E1
330
E15
100
AcDbEntity
  8
0
 62
     7
100
AcDbFaceRecord
 10
0.0
 20
0.0
 30
0.0
 70
   128
 71
   486
 72
   485
 73
   488
  0
VERTEX
  5
13E2
330
E15
100
AcDbEntity
  8
0
 62
     7
100
AcDbFaceRecord
 10
0.0
 20
0.0
 30
0.0
 70
   128
 71
   486
 72
   481
 73
   485
  0
VERTEX
  5
13E3
330
E15
100
AcDbEntity
  8
0
 62
     7
100
AcDbFaceRecord
 10
0.0
 20
0.0
 30
0.0
 70
   128
 71
   486
 72
   102
 73
   481
  0
VERTEX
  5
13E4
330
E15
100
AcDbEntity
  8
0
 62
     7
100
AcDbFaceRecord
 10
0.0
 20
0.0
 30
0.0
 70
   128
 71
   512
 72
   473
 73
   427
  0
VERTEX
  5
13E5
330
E15
100
AcDbEntity
  8
0
 62
     7
100
AcDbFaceRecord
 10
0.0
 20
0.0
 30
0.0
 70
   128
 71
   512
 72
   471
 73
   473
  0
VERTEX
  5
13E6
330
E15
100
AcDbEntity
  8
0
 62
     7
100
AcDbFaceRecord
 10
0.0
 20
0.0
 30
0.0
 70
   128
 71
   512
 72
   480
 73
   471
  0
VERTEX
  5
13E7
330
E15
100
AcDbEntity
  8
0
 62
     7
100
AcDbFaceRecord
 10
0.0
 20
0.0
 30
0.0
 70
   128
 71
   512
 72
   484
 73
   480
  0
VERTEX
  5
13E8
330
E15
100
AcDbEntity
  8
0
 62
     7
100
AcDbFaceRecord
 10
0.0
 20
0.0
 30
0.0
 70
   128
 71
   512
 72
   295
 73
   484
  0
VERTEX
  5
13E9
330
E15
100
AcDbEntity
  8
0
 62
     7
100
AcDbFaceRecord
 10
0.0
 20
0.0
 30
0.0
 70
   128
 71
   474
 72
   472
 73
   476
  0
VERTEX
  5
13EA
330
E15
100
AcDbEntity
  8
0
 62
     7
100
AcDbFaceRecord
 10
0.0
 20
0.0
 30
0.0
 70
   128
 71
   474
 72
   473
 73
   472
  0
VERTEX
  5
13EB
330
E15
100
AcDbEntity
  8
0
 62
     7
100
AcDbFaceRecord
 10
0.0
 20
0.0
 30
0.0
 70
   128
 71
   474
 72
   427
 73
   473
  0
VERTEX
  5
13EC
330
E15
100
AcDbEntity
  8
0
 62
     7
100
AcDbFaceRecord
 10
0.0
 20
0.0
 30
0.0
 70
   128
 71
   106
 72
   467
 73
   112
  0
VERTEX
  5
13ED
330
E15
100
AcDbEntity
  8
0
 62
     7
100
AcDbFaceRecord
 10
0.0
 20
0.0
 30
0.0
 70
   128
 71
   106
 72
   465
 73
   467
  0
VERTEX
  5
13EE
330
E15
100
AcDbEntity
  8
0
 62
     7
100
AcDbFaceRecord
 10
0.0
 20
0.0
 30
0.0
 70
   128
 71
   277
 72
   503
 73
   280
  0
VERTEX
  5
13EF
330
E15
100
AcDbEntity
  8
0
 62
     7
100
AcDbFaceRecord
 10
0.0
 20
0.0
 30
0.0
 70
   128
 71
   513
 72
   494
 73
   286
  0
VERTEX
  5
13F0
330
E15
100
AcDbEntity
  8
0
 62
     7
100
AcDbFaceRecord
 10
0.0
 20
0.0
 30
0.0
 70
   128
 71
   513
 72
   495
 73
   494
  0
VERTEX
  5
13F1
330
E15
100
AcDbEntity
  8
0
 62
     7
100
AcDbFaceRecord
 10
0.0
 20
0.0
 30
0.0
 70
   128
 71
   513
 72
   496
 73
   495
  0
VERTEX
  5
13F2
330
E15
100
AcDbEntity
  8
0
 62
     7
100
AcDbFaceRecord
 10
0.0
 20
0.0
 30
0.0
 70
   128
 71
   513
 72
   499
 73
   496
  0
VERTEX
  5
13F3
330
E15
100
AcDbEntity
  8
0
 62
     7
100
AcDbFaceRecord
 10
0.0
 20
0.0
 30
0.0
 70
   128
 71
   513
 72
   283
 73
   499
  0
VERTEX
  5
13F4
330
E15
100
AcDbEntity
  8
0
 62
     7
100
AcDbFaceRecord
 10
0.0
 20
0.0
 30
0.0
 70
   128
 71
   283
 72
   513
 73
   286
  0
VERTEX
  5
13F5
330
E15
100
AcDbEntity
  8
0
 62
     7
100
AcDbFaceRecord
 10
0.0
 20
0.0
 30
0.0
 70
   128
 71
   514
 72
   487
 73
   292
  0
VERTEX
  5
13F6
330
E15
100
AcDbEntity
  8
0
 62
     7
100
AcDbFaceRecord
 10
0.0
 20
0.0
 30
0.0
 70
   128
 71
   514
 72
   488
 73
   487
  0
VERTEX
  5
13F7
330
E15
100
AcDbEntity
  8
0
 62
     7
100
AcDbFaceRecord
 10
0.0
 20
0.0
 30
0.0
 70
   128
 71
   514
 72
   492
 73
   488
  0
VERTEX
  5
13F8
330
E15
100
AcDbEntity
  8
0
 62
     7
100
AcDbFaceRecord
 10
0.0
 20
0.0
 30
0.0
 70
   128
 71
   514
 72
   493
 73
   492
  0
VERTEX
  5
13F9
330
E15
100
AcDbEntity
  8
0
 62
     7
100
AcDbFaceRecord
 10
0.0
 20
0.0
 30
0.0
 70
   128
 71
   514
 72
   289
 73
   493
  0
VERTEX
  5
13FA
330
E15
100
AcDbEntity
  8
0
 62
     7
100
AcDbFaceRecord
 10
0.0
 20
0.0
 30
0.0
 70
   128
 71
   289
 72
   514
 73
   292
  0
VERTEX
  5
13FB
330
E15
100
AcDbEntity
  8
0
 62
     7
100
AcDbFaceRecord
 10
0.0
 20
0.0
 30
0.0
 70
   128
 71
   292
 72
   483
 73
   295
  0
VERTEX
  5
13FC
330
E15
100
AcDbEntity
  8
0
 62
     7
100
AcDbFaceRecord
 10
0.0
 20
0.0
 30
0.0
 70
   128
 71
   295
 72
   512
 73
   427
  0
VERTEX
  5
13FD
330
E15
100
AcDbEntity
  8
0
 62
     7
100
AcDbFaceRecord
 10
0.0
 20
0.0
 30
0.0
 70
   128
 71
   515
 72
   469
 73
   268
  0
VERTEX
  5
13FE
330
E15
100
AcDbEntity
  8
0
 62
     7
100
AcDbFaceRecord
 10
0.0
 20
0.0
 30
0.0
 70
   128
 71
   515
 72
   470
 73
   469
  0
VERTEX
  5
13FF
330
E15
100
AcDbEntity
  8
0
 62
     7
100
AcDbFaceRecord
 10
0.0
 20
0.0
 30
0.0
 70
   128
 71
   515
 72
   476
 73
   470
  0
VERTEX
  5
1400
330
E15
100
AcDbEntity
  8
0
 62
     7
100
AcDbFaceRecord
 10
0.0
 20
0.0
 30
0.0
 70
   128
 71
   515
 72
   474
 73
   476
  0
VERTEX
  5
1401
330
E15
100
AcDbEntity
  8
0
 62
     7
100
AcDbFaceRecord
 10
0.0
 20
0.0
 30
0.0
 70
   128
 71
   515
 72
   265
 73
   474
  0
VERTEX
  5
1402
330
E15
100
AcDbEntity
  8
0
 62
     7
100
AcDbFaceRecord
 10
0.0
 20
0.0
 30
0.0
 70
   128
 71
   265
 72
   515
 73
   268
  0
VERTEX
  5
1403
330
E15
100
AcDbEntity
  8
0
 62
     7
100
AcDbFaceRecord
 10
0.0
 20
0.0
 30
0.0
 70
   128
 71
   271
 72
   268
 73
   468
  0
VERTEX
  5
1404
330
E15
100
AcDbEntity
  8
0
 62
     7
100
AcDbFaceRecord
 10
0.0
 20
0.0
 30
0.0
 70
   128
 71
   271
 72
   468
 73
   462
  0
VERTEX
  5
1405
330
E15
100
AcDbEntity
  8
0
 62
     7
100
AcDbFaceRecord
 10
0.0
 20
0.0
 30
0.0
 70
   128
 71
   516
 72
   465
 73
   106
  0
VERTEX
  5
1406
330
E15
100
AcDbEntity
  8
0
 62
     7
100
AcDbFaceRecord
 10
0.0
 20
0.0
 30
0.0
 70
   128
 71
   516
 72
   463
 73
   465
  0
VERTEX
  5
1407
330
E15
100
AcDbEntity
  8
0
 62
     7
100
AcDbFaceRecord
 10
0.0
 20
0.0
 30
0.0
 70
   128
 71
   516
 72
   464
 73
   463
  0
VERTEX
  5
1408
330
E15
100
AcDbEntity
  8
0
 62
     7
100
AcDbFaceRecord
 10
0.0
 20
0.0
 30
0.0
 70
   128
 71
   108
 72
   464
 73
   516
  0
VERTEX
  5
1409
330
E15
100
AcDbEntity
  8
0
 62
     7
100
AcDbFaceRecord
 10
0.0
 20
0.0
 30
0.0
 70
   128
 71
   108
 72
   516
 73
   106
  0
VERTEX
  5
140A
330
E15
100
AcDbEntity
  8
0
 62
     7
100
AcDbFaceRecord
 10
0.0
 20
0.0
 30
0.0
 70
   128
 71
   517
 72
   475
 73
   113
  0
VERTEX
  5
140B
330
E15
100
AcDbEntity
  8
0
 62
     7
100
AcDbFaceRecord
 10
0.0
 20
0.0
 30
0.0
 70
   128
 71
   517
 72
   476
 73
   475
  0
VERTEX
  5
140C
330
E15
100
AcDbEntity
  8
0
 62
     7
100
AcDbFaceRecord
 10
0.0
 20
0.0
 30
0.0
 70
   128
 71
   517
 72
   470
 73
   476
  0
VERTEX
  5
140D
330
E15
100
AcDbEntity
  8
0
 62
     7
100
AcDbFaceRecord
 10
0.0
 20
0.0
 30
0.0
 70
   128
 71
   517
 72
   467
 73
   470
  0
VERTEX
  5
140E
330
E15
100
AcDbEntity
  8
0
 62
     7
100
AcDbFaceRecord
 10
0.0
 20
0.0
 30
0.0
 70
   128
 71
   517
 72
   112
 73
   467
  0
VERTEX
  5
140F
330
E15
100
AcDbEntity
  8
0
 62
     7
100
AcDbFaceRecord
 10
0.0
 20
0.0
 30
0.0
 70
   128
 71
   112
 72
   517
 73
   113
  0
VERTEX
  5
1410
330
E15
100
AcDbEntity
  8
0
 62
     7
100
AcDbFaceRecord
 10
0.0
 20
0.0
 30
0.0
 70
   128
 71
   113
 72
   477
 73
   103
  0
VERTEX
  5
1411
330
E15
100
AcDbEntity
  8
0
 62
     7
100
AcDbFaceRecord
 10
0.0
 20
0.0
 30
0.0
 70
   128
 71
   103
 72
   479
 73
   102
  0
VERTEX
  5
1412
330
E15
100
AcDbEntity
  8
0
 62
     7
100
AcDbFaceRecord
 10
0.0
 20
0.0
 30
0.0
 70
   128
 71
   518
 72
   490
 73
   101
  0
VERTEX
  5
1413
330
E15
100
AcDbEntity
  8
0
 62
     7
100
AcDbFaceRecord
 10
0.0
 20
0.0
 30
0.0
 70
   128
 71
   518
 72
   492
 73
   490
  0
VERTEX
  5
1414
330
E15
100
AcDbEntity
  8
0
 62
     7
100
AcDbFaceRecord
 10
0.0
 20
0.0
 30
0.0
 70
   128
 71
   518
 72
   488
 73
   492
  0
VERTEX
  5
1415
330
E15
100
AcDbEntity
  8
0
 62
     7
100
AcDbFaceRecord
 10
0.0
 20
0.0
 30
0.0
 70
   128
 71
   518
 72
   486
 73
   488
  0
VERTEX
  5
1416
330
E15
100
AcDbEntity
  8
0
 62
     7
100
AcDbFaceRecord
 10
0.0
 20
0.0
 30
0.0
 70
   128
 71
   518
 72
   117
 73
   486
  0
VERTEX
  5
1417
330
E15
100
AcDbEntity
  8
0
 62
     7
100
AcDbFaceRecord
 10
0.0
 20
0.0
 30
0.0
 70
   128
 71
   117
 72
   518
 73
   101
  0
VERTEX
  5
1418
330
E15
100
AcDbEntity
  8
0
 62
     7
100
AcDbFaceRecord
 10
0.0
 20
0.0
 30
0.0
 70
   128
 71
   519
 72
   498
 73
    94
  0
VERTEX
  5
1419
330
E15
100
AcDbEntity
  8
0
 62
     7
100
AcDbFaceRecord
 10
0.0
 20
0.0
 30
0.0
 70
   128
 71
   519
 72
   496
 73
   498
  0
VERTEX
  5
141A
330
E15
100
AcDbEntity
  8
0
 62
     7
100
AcDbFaceRecord
 10
0.0
 20
0.0
 30
0.0
 70
   128
 71
   519
 72
   495
 73
   496
  0
VERTEX
  5
141B
330
E15
100
AcDbEntity
  8
0
 62
     7
100
AcDbFaceRecord
 10
0.0
 20
0.0
 30
0.0
 70
   128
 71
   519
 72
   489
 73
   495
  0
VERTEX
  5
141C
330
E15
100
AcDbEntity
  8
0
 62
     7
100
AcDbFaceRecord
 10
0.0
 20
0.0
 30
0.0
 70
   128
 71
   519
 72
    99
 73
   489
  0
VERTEX
  5
141D
330
E15
100
AcDbEntity
  8
0
 62
     7
100
AcDbFaceRecord
 10
0.0
 20
0.0
 30
0.0
 70
   128
 71
    99
 72
   519
 73
    94
  0
VERTEX
  5
141E
330
E15
100
AcDbEntity
  8
0
 62
     7
100
AcDbFaceRecord
 10
0.0
 20
0.0
 30
0.0
 70
   128
 71
    94
 72
   500
 73
   115
  0
VERTEX
  5
141F
330
E15
100
AcDbEntity
  8
0
 62
     7
100
AcDbFaceRecord
 10
0.0
 20
0.0
 30
0.0
 70
   128
 71
   115
 72
   511
 73
   110
  0
VERTEX
  5
1420
330
E15
100
AcDbEntity
  8
0
 62
     7
100
AcDbFaceRecord
 10
0.0
 20
0.0
 30
0.0
 70
   128
 71
   464
 72
   108
 73
   508
  0
VERTEX
  5
1421
330
E15
100
AcDbEntity
  8
0
 62
     7
100
AcDbFaceRecord
 10
0.0
 20
0.0
 30
0.0
 70
   128
 71
   520
 72
   510
 73
   462
  0
VERTEX
  5
1422
330
E15
100
AcDbEntity
  8
0
 62
     7
100
AcDbFaceRecord
 10
0.0
 20
0.0
 30
0.0
 70
   128
 71
   520
 72
   509
 73
   510
  0
VERTEX
  5
1423
330
E15
100
AcDbEntity
  8
0
 62
     7
100
AcDbFaceRecord
 10
0.0
 20
0.0
 30
0.0
 70
   128
 71
   520
 72
   507
 73
   509
  0
VERTEX
  5
1424
330
E15
100
AcDbEntity
  8
0
 62
     7
100
AcDbFaceRecord
 10
0.0
 20
0.0
 30
0.0
 70
   128
 71
   520
 72
   508
 73
   507
  0
VERTEX
  5
1425
330
E15
100
AcDbEntity
  8
0
 62
     7
100
AcDbFaceRecord
 10
0.0
 20
0.0
 30
0.0
 70
   128
 71
   520
 72
   464
 73
   508
  0
VERTEX
  5
1426
330
E15
100
AcDbEntity
  8
0
 62
     7
100
AcDbFaceRecord
 10
0.0
 20
0.0
 30
0.0
 70
   128
 71
   464
 72
   520
 73
   462
  0
VERTEX
  5
1427
330
E15
100
AcDbEntity
  8
0
 62
     7
100
AcDbFaceRecord
 10
0.0
 20
0.0
 30
0.0
 70
   128
 71
   274
 72
   509
 73
   277
  0
VERTEX
  5
1428
330
E15
100
AcDbEntity
  8
0
 62
     7
100
AcDbFaceRecord
 10
0.0
 20
0.0
 30
0.0
 70
   128
 71
   274
 72
   510
 73
   509
  0
VERTEX
  5
1429
330
E15
100
AcDbEntity
  8
0
 62
     7
100
AcDbFaceRecord
 10
0.0
 20
0.0
 30
0.0
 70
   128
 71
   274
 72
   271
 73
   510
  0
SEQEND
  5
142A
330
E15
100
AcDbEntity
  8
0
 62
     7
  0
INSERT
  5
142B
330
1F
100
AcDbEntity
  8
0
100
AcDbBlockReference
 66
     1
  2
RM_SDB
 10
-7.015691748534578
 20
0.0
 30
33.17985152229093
1001
AVE_MATERIAL
1002
{
1000
*GLOBAL*01
1000
2
1000

1002
{
1002
}
1002
{
1070
    39
1002
{
1002
{
1010
1.428571462631224
1020
1.428571462631224
1030
1.428571462631224
1002
}
1040
0.6999999880790711
1000

1040
0.0
1002
{
1002
}
1040
0.0
1002
{
1002
}
1040
0.0
1002
}
1002
{
1002
{
1010
1.0
1020
1.0
1030
1.0
1002
}
1040
1.0
1000

1040
0.0
1002
{
1002
}
1040
0.0
1002
{
1002
}
1040
0.0
1002
}
1002
{
1002
{
1010
5.0
1020
5.0
1030
5.0
1002
}
1040
0.2000000029802322
1000

1040
0.0
1002
{
1002
}
1040
0.0
1002
{
1002
}
1040
0.0
1002
}
1002
{
1070
     0
1002
{
1070
     1
1002
{
1040
1.0
1040
1.0
1000

1040
0.0
1002
{
1002
}
1040
0.0
1002
{
1002
}
1040
0.0
1002
}
1002
}
1040
0.0
1040
0.0
1040
0.0
1002
}
1002
{
1040
0.0
1040
0.0
1000

1040
0.0
1002
{
1002
}
1040
0.0
1002
{
1002
}
1040
0.0
1002
}
1002
{
1040
0.5
1040
1.0
1000

1040
0.0
1002
{
1002
}
1040
0.0
1002
{
1002
}
1040
0.0
1002
}
1002
{
1070
     0
1040
0.0
1002
{
1002
}
1040
0.0
1002
{
1002
}
1040
0.0
1002
}
1002
{
1040
0.0
1002
{
1002
{
1010
0.0
1020
0.0
1030
0.0
1002
}
1040
0.0
1000

1040
0.0
1002
{
1002
}
1040
0.0
1002
{
1002
}
1040
0.0
1002
}
1002
}
1002
{
1002
{
1070
     1
1002
{
1040
0.0
1040
1.0
1000

1040
0.0
1002
{
1002
}
1040
0.0
1002
{
1002
}
1040
0.0
1002
}
1002
}
1040
0.0
1002
{
1002
}
1010
0.0
1020
0.0
1030
0.0
1010
0.0
1020
0.0
1030
0.0
1010
0.0
1020
0.0
1030
0.0
1070
     0
1002
}
1002
{
1002
{
1040
0.0
1040
0.0
1002
{
1070
     0
1002
}
1002
}
1070
     0
1040
0.0
1002
{
1002
}
1002
}
1002
{
1002
}
1002
}
1002
{
1071
        3
1070
     3
1070
     0
1002
{
1070
     2
1070
     1
1070
     0
1040
0.0
1002
}
1070
     0
1070
     2
1002
{
1002
}
1002
}
1002
{
1040
8030.0
1040
190.3000030517578
1040
0.3050000071525574
1040
228.0
1040
545.0
1040
14.0
1040
17.39999961853027
1040
0.4560000002384186
1002
}
1000
7BD
1002
}
  0
ATTRIB
  5
142C
330
142B
100
AcDbEntity
  8
0
100
AcDbText
 10
-7.015691748534578
 20
0.0
 30
33.17985152229093
 40
0.2
  1
*GLOBAL*01
100
AcDbAttribute
  2
NAME
 70
     1
  0
ATTRIB
  5
142D
330
142B
100
AcDbEntity
  8
0
100
AcDbText
 10
-7.015691748534578
 20
0.0
 30
33.17985152229093
 40
0.2
  1

100
AcDbAttribute
  2
ACADCOLOR
 70
     1
  0
ATTRIB
  5
142E
330
142B
100
AcDbEntity
  8
0
100
AcDbText
 10
-7.015691748534578
 20
0.0
 30
33.17985152229093
 40
0.2
  1
1.0000,1.0000,1.0000
100
AcDbAttribute
  2
COLOR
 70
     1
  0
ATTRIB
  5
142F
330
142B
100
AcDbEntity
  8
0
100
AcDbText
 10
-7.015691748534578
 20
0.0
 30
33.17985152229093
 40
0.2
  1
1.0,1.0,1.0
100
AcDbAttribute
  2
OPACITY
 70
     1
  0
ATTRIB
  5
1430
330
142B
100
AcDbEntity
  8
0
100
AcDbText
 10
-7.015691748534578
 20
0.0
 30
33.17985152229093
 40
0.2
  1
("nullsurf" "")
100
AcDbAttribute
  2
SURFACE
 70
     1
  0
ATTRIB
  5
1431
330
142B
100
AcDbEntity
  8
0
100
AcDbText
 10
-7.015691748534578
 20
0.0
 30
33.17985152229093
 40
0.2
  1
(11 "Ka" "0.7")(11 "Kd" "1")(11 "Ks" "0.2")(11 "roughness" "0.5")
100
AcDbAttribute
  2
SURF1
 70
     1
  0
ATTRIB
  5
1432
330
142B
100
AcDbEntity
  8
0
100
AcDbText
 10
-7.015691748534578
 20
0.0
 30
33.17985152229093
 40
0.2
  1

100
AcDbAttribute
  2
SURF2
 70
     1
  0
ATTRIB
  5
1433
330
142B
100
AcDbEntity
  8
0
100
AcDbText
 10
-7.015691748534578
 20
0.0
 30
33.17985152229093
 40
0.2
  1

100
AcDbAttribute
  2
SURF3
 70
     1
  0
ATTRIB
  5
1434
330
142B
100
AcDbEntity
  8
0
100
AcDbText
 10
-7.015691748534578
 20
0.0
 30
33.17985152229093
 40
0.2
  1

100
AcDbAttribute
  2
SURF4
 70
     1
  0
ATTRIB
  5
1435
330
142B
100
AcDbEntity
  8
0
100
AcDbText
 10
-7.015691748534578
 20
0.0
 30
33.17985152229093
 40
0.2
  1
-1.0
100
AcDbAttribute
  2
SHADINGRATE
 70
     1
  0
ATTRIB
  5
1436
330
142B
100
AcDbEntity
  8
0
100
AcDbText
 10
-7.015691748534578
 20
0.0
 30
33.17985152229093
 40
0.2
  1
("nulldisp" "")
100
AcDbAttribute
  2
DISPLACEMENT
 70
     1
  0
ATTRIB
  5
1437
330
142B
100
AcDbEntity
  8
0
100
AcDbText
 10
-7.015691748534578
 20
0.0
 30
33.17985152229093
 40
0.2
  1

100
AcDbAttribute
  2
DISP1
 70
     1
  0
ATTRIB
  5
1438
330
142B
100
AcDbEntity
  8
0
100
AcDbText
 10
-7.015691748534578
 20
0.0
 30
33.17985152229093
 40
0.2
  1

100
AcDbAttribute
  2
DISP2
 70
     1
  0
ATTRIB
  5
1439
330
142B
100
AcDbEntity
  8
0
100
AcDbText
 10
-7.015691748534578
 20
0.0
 30
33.17985152229093
 40
0.2
  1

100
AcDbAttribute
  2
DISP3
 70
     1
  0
ATTRIB
  5
143A
330
142B
100
AcDbEntity
  8
0
100
AcDbText
 10
-7.015691748534578
 20
0.0
 30
33.17985152229093
 40
0.2
  1

100
AcDbAttribute
  2
DISP4
 70
     1
  0
ATTRIB
  5
143B
330
142B
100
AcDbEntity
  8
0
100
AcDbText
 10
-7.015691748534578
 20
0.0
 30
33.17985152229093
 40
0.2
  1
0.0
100
AcDbAttribute
  2
DBOUND
 70
     1
  0
ATTRIB
  5
143C
330
142B
100
AcDbEntity
  8
0
100
AcDbText
 10
-7.015691748534578
 20
0.0
 30
33.17985152229093
 40
0.2
  1
0
100
AcDbAttribute
  2
SMOOTH
 70
     1
  0
ATTRIB
  5
143D
330
142B
100
AcDbEntity
  8
0
100
AcDbText
 10
-7.015691748534578
 20
0.0
 30
33.17985152229093
 40
0.2
  1
("" "")
100
AcDbAttribute
  2
ATMOSHPERE
 70
     1
  0
ATTRIB
  5
143E
330
142B
100
AcDbEntity
  8
0
100
AcDbText
 10
-7.015691748534578
 20
0.0
 30
33.17985152229093
 40
0.2
  1

100
AcDbAttribute
  2
ATMO1
 70
     1
  0
ATTRIB
  5
143F
330
142B
100
AcDbEntity
  8
0
100
AcDbText
 10
-7.015691748534578
 20
0.0
 30
33.17985152229093
 40
0.2
  1

100
AcDbAttribute
  2
ATMO2
 70
     1
  0
ATTRIB
  5
1440
330
142B
100
AcDbEntity
  8
0
100
AcDbText
 10
-7.015691748534578
 20
0.0
 30
33.17985152229093
 40
0.2
  1

100
AcDbAttribute
  2
ATMO3
 70
     1
  0
ATTRIB
  5
1441
330
142B
100
AcDbEntity
  8
0
100
AcDbText
 10
-7.015691748534578
 20
0.0
 30
33.17985152229093
 40
0.2
  1

100
AcDbAttribute
  2
ATMO4
 70
     1
  0
ATTRIB
  5
1442
330
142B
100
AcDbEntity
  8
0
100
AcDbText
 10
-7.015691748534578
 20
0.0
 30
33.17985152229093
 40
0.2
  1
0.0 0.0 1.0 0.0 0.0 1.0 1.0 1.0
100
AcDbAttribute
  2
TCCORD
 70
     1
  0
SEQEND
  5
1443
330
142B
100
AcDbEntity
  8
0
  0
ENDSEC
  0
SECTION
  2
OBJECTS
  0
DICTIONARY
  5
C
330
0
100
AcDbDictionary
281
     1
  3
ACAD_COLOR
350
EB
  3
ACAD_GROUP
350
D
  3
ACAD_LAYOUT
350
1A
  3
ACAD_MATERIAL
350
EA
  3
ACAD_MLEADERSTYLE
350
14F
  3
ACAD_MLINESTYLE
350
17
  3
ACAD_PLOTSETTINGS
350
19
  3
ACAD_PLOTSTYLENAME
350
E
  3
ACAD_SCALELIST
350
12D
  3
ACAD_TABLESTYLE
350
EC
  3
ACAD_VISUALSTYLE
350
11C
  3
ACDB_RECOMPOSE_DATA
350
7D1
  3
AcDbVariableDictionary
350
D7
  3
ASE_INDEX_DICTIONARY
350
F1
  3
AVE_ACITABLE
350
15F
  3
DWGPROPS
350
1445
  0
DICTIONARY
  5
7C5
330
10
100
AcDbDictionary
280
     1
281
     1
  3
ADSK_XREC_LAYER_RECONCILED
360
7C6
  0
DICTIONARY
  5
7C7
330
AB
100
AcDbDictionary
280
     1
281
     1
  3
ADSK_XREC_LAYER_RECONCILED
360
7C8
  0
DICTIONARY
  5
7C9
330
15A
100
AcDbDictionary
280
     1
281
     1
  3
ADSK_XREC_LAYER_RECONCILED
360
7CA
  0
DICTIONARY
  5
EB
102
{ACAD_REACTORS
330
C
102
}
330
C
100
AcDbDictionary
281
     1
  0
DICTIONARY
  5
D
102
{ACAD_REACTORS
330
C
102
}
330
C
100
AcDbDictionary
281
     1
  0
DICTIONARY
  5
1A
102
{ACAD_REACTORS
330
C
102
}
330
C
100
AcDbDictionary
281
     1
  3
Layout1
350
1E
  3
Layout2
350
26
  3
Model
350
22
  0
DICTIONARY
  5
EA
102
{ACAD_REACTORS
330
C
102
}
330
C
100
AcDbDictionary
281
     1
  3
_GLOBAL_01
350
7BD
  3
ByBlock
350
10C
  3
ByLayer
350
104
  3
Global
350
114
  0
DICTIONARY
  5
14F
102
{ACAD_REACTORS
330
C
102
}
330
C
100
AcDbDictionary
281
     1
  3
Standard
350
150
  0
DICTIONARY
  5
17
102
{ACAD_REACTORS
330
C
102
}
330
C
100
AcDbDictionary
281
     1
  3
Standard
350
18
  0
DICTIONARY
  5
19
102
{ACAD_REACTORS
330
C
102
}
330
C
100
AcDbDictionary
281
     1
  0
ACDBDICTIONARYWDFLT
  5
E
102
{ACAD_REACTORS
330
C
102
}
330
C
100
AcDbDictionary
281
     1
  3
Normal
350
F
100
AcDbDictionaryWithDefault
340
F
  0
DICTIONARY
  5
12D
102
{ACAD_REACTORS
330
C
102
}
330
C
100
AcDbDictionary
281
     1
  3
A0
350
12E
  3
A1
350
12F
  3
A2
350
130
  3
A3
350
131
  3
A4
350
132
  3
A5
350
133
  3
A6
350
134
  3
A7
350
135
  3
A8
350
136
  3
A9
350
137
  3
B0
350
138
  3
B1
350
139
  3
B2
350
13A
  3
B3
350
13B
  3
B4
350
13C
  3
B5
350
13D
  3
B6
350
13E
  3
B7
350
13F
  3
B8
350
140
  3
B9
350
141
  3
C0
350
142
  3
C1
350
143
  3
C2
350
144
  3
C3
350
145
  3
C4
350
146
  3
C5
350
147
  3
C6
350
148
  3
C7
350
149
  3
C8
350
14A
  3
C9
350
14B
  3
D0
350
14C
  3
D1
350
14D
  3
D2
350
14E
  0
DICTIONARY
  5
EC
102
{ACAD_REACTORS
330
C
102
}
330
C
100
AcDbDictionary
281
     1
  3
Standard
350
ED
  0
DICTIONARY
  5
11C
102
{ACAD_REACTORS
330
C
102
}
330
C
100
AcDbDictionary
281
     1
  3
2dWireframe
350
122
  3
3D Hidden
350
124
  3
3dWireframe
350
123
  3
Basic
350
121
  3
Brighten
350
128
  3
ColorChange
350
12C
  3
Conceptual
350
125
  3
Dim
350
127
  3
Facepattern
350
12B
  3
Flat
350
11D
  3
FlatWithEdges
350
11E
  3
Gouraud
350
11F
  3
GouraudWithEdges
350
120
  3
Linepattern
350
12A
  3
Realistic
350
126
  3
Thicken
350
129
  0
XRECORD
  5
7D1
102
{ACAD_REACTORS
330
C
102
}
330
C
100
AcDbXrecord
280
     1
 90
        1
330
ED
  0
DICTIONARY
  5
D7
102
{ACAD_REACTORS
330
C
102
}
330
C
100
AcDbDictionary
281
     1
  3
CANNOSCALE
350
7CC
  3
CMLEADERSTYLE
350
7CB
  3
CTABLESTYLE
350
F5
  3
DIMASSOC
350
D8
  3
HIDETEXT
350
F8
  3
INDEXCTL
350
7CE
  3
SORTENTS
350
7CD
  0
DICTIONARY
  5
F1
102
{ACAD_REACTORS
330
C
102
}
330
C
100
AcDbDictionary
281
     1
  3
ASEBlockHierarchyIndexRecord
350
F3
1001
DCO15
1040
1570555826.185
  0
DICTIONARY
  5
15F
102
{ACAD_REACTORS
330
C
102
}
330
C
100
AcDbDictionary
281
     1
  0
XRECORD
  5
1445
102
{ACAD_REACTORS
330
C
102
}
330
C
100
AcDbXrecord
280
     1
  1
DWGPROPS COOKIE
  2

  3

  4

  6

  7

  8
Christian
  9

300
=
301
=
302
=
303
=
304
=
305
=
306
=
307
=
308
=
309
=
 40
0.0007009722222222
 41
2452804.615602754
 42
2454459.397487604
  1

 90
        0
  0
XRECORD
  5
7C6
102
{ACAD_REACTORS
330
7C5
102
}
330
7C5
100
AcDbXrecord
280
     1
290
     1
  0
XRECORD
  5
7C8
102
{ACAD_REACTORS
330
7C7
102
}
330
7C7
100
AcDbXrecord
280
     1
290
     1
  0
XRECORD
  5
7CA
102
{ACAD_REACTORS
330
7C9
102
}
330
7C9
100
AcDbXrecord
280
     1
290
     1
  0
LAYOUT
  5
1E
102
{ACAD_XDICTIONARY
360
1446
102
}
102
{ACAD_REACTORS
330
1A
102
}
330
1A
100
AcDbPlotSettings
  1

  2

  4

  6

 40
0.0
 41
0.0
 42
0.0
 43
0.0
 44
0.0
 45
0.0
 46
0.0
 47
0.0
 48
0.0
 49
0.0
140
0.0
141
0.0
142
1.0
143
1.0
 70
   688
 72
     0
 73
     0
 74
     5
  7

 75
    16
147
1.0
148
0.0
149
0.0
100
AcDbLayout
  1
Layout1
 70
     1
 71
     1
 10
0.0
 20
0.0
 11
12.0
 21
9.0
 12
0.0
 22
0.0
 32
0.0
 14
1.000000000000000E+20
 24
1.000000000000000E+20
 34
1.000000000000000E+20
 15
-1.000000000000000E+20
 25
-1.000000000000000E+20
 35
-1.000000000000000E+20
146
0.0
 13
0.0
 23
0.0
 33
0.0
 16
1.0
 26
0.0
 36
0.0
 17
0.0
 27
1.0
 37
0.0
 76
     0
330
1B
  0
LAYOUT
  5
26
102
{ACAD_XDICTIONARY
360
144A
102
}
102
{ACAD_REACTORS
330
1A
102
}
330
1A
100
AcDbPlotSettings
  1

  2

  4

  6

 40
0.0
 41
0.0
 42
0.0
 43
0.0
 44
0.0
 45
0.0
 46
0.0
 47
0.0
 48
0.0
 49
0.0
140
0.0
141
0.0
142
1.0
143
1.0
 70
   688
 72
     0
 73
     0
 74
     5
  7

 75
    16
147
1.0
148
0.0
149
0.0
100
AcDbLayout
  1
Layout2
 70
     1
 71
     2
 10
0.0
 20
0.0
 11
12.0
 21
9.0
 12
0.0
 22
0.0
 32
0.0
 14
0.0
 24
0.0
 34
0.0
 15
0.0
 25
0.0
 35
0.0
146
0.0
 13
0.0
 23
0.0
 33
0.0
 16
1.0
 26
0.0
 36
0.0
 17
0.0
 27
1.0
 37
0.0
 76
     0
330
23
  0
LAYOUT
  5
22
102
{ACAD_XDICTIONARY
360
1448
102
}
102
{ACAD_REACTORS
330
1A
102
}
330
1A
100
AcDbPlotSettings
  1

  2

  4

  6

 40
0.0
 41
0.0
 42
0.0
 43
0.0
 44
0.0
 45
0.0
 46
0.0
 47
0.0
 48
0.0
 49
0.0
140
0.0
141
0.0
142
1.0
143
1.0
 70
  1712
 72
     0
 73
     0
 74
     0
  7

 75
     0
147
1.0
148
0.0
149
0.0
100
AcDbLayout
  1
Model
 70
     1
 71
     0
 10
0.0
 20
0.0
 11
12.0
 21
9.0
 12
0.0
 22
0.0
 32
0.0
 14
0.0
 24
0.0
 34
0.0
 15
0.0
 25
0.0
 35
0.0
146
0.0
 13
0.0
 23
0.0
 33
0.0
 16
1.0
 26
0.0
 36
0.0
 17
0.0
 27
1.0
 37
0.0
 76
     0
330
1F
331
F4
  0
MATERIAL
  5
7BD
102
{ACAD_XDICTIONARY
360
7BE
102
}
102
{ACAD_REACTORS
330
EA
102
}
330
EA
100
AcDbMaterial
  1
_GLOBAL_01
 70
     1
 40
0.6999999880790711
 90
-1033081748
 71
     1
 91
-1023410177
 72
     0
 76
     1
 45
0.2000000029802322
 92
-1023673349
 77
     0
171
     0
175
     0
179
     0
  0
MATERIAL
  5
10C
102
{ACAD_XDICTIONARY
360
10D
102
}
102
{ACAD_REACTORS
330
EA
102
}
330
EA
100
AcDbMaterial
  1
ByBlock
 72
     0
 43
0.0208333333333333
 43
0.0
 43
0.0
 43
0.0
 43
0.0
 43
0.0208333333333333
 43
0.0
 43
0.0
 43
0.0
 43
0.0
 43
1.0
 43
0.0
 43
0.0
 43
0.0
 43
0.0
 43
1.0
 77
     0
 47
0.0208333333333333
 47
0.0
 47
0.0
 47
0.0
 47
0.0
 47
0.0208333333333333
 47
0.0
 47
0.0
 47
0.0
 47
0.0
 47
1.0
 47
0.0
 47
0.0
 47
0.0
 47
0.0
 47
1.0
171
     0
 49
0.0208333333333333
 49
0.0
 49
0.0
 49
0.0
 49
0.0
 49
0.0208333333333333
 49
0.0
 49
0.0
 49
0.0
 49
0.0
 49
1.0
 49
0.0
 49
0.0
 49
0.0
 49
0.0
 49
1.0
175
     0
142
0.0208333333333333
142
0.0
142
0.0
142
0.0
142
0.0
142
0.0208333333333333
142
0.0
142
0.0
142
0.0
142
0.0
142
1.0
142
0.0
142
0.0
142
0.0
142
0.0
142
1.0
179
     0
144
0.0208333333333333
144
0.0
144
0.0
144
0.0
144
0.0
144
0.0208333333333333
144
0.0
144
0.0
144
0.0
144
0.0
144
1.0
144
0.0
144
0.0
144
0.0
144
0.0
144
1.0
147
0.0208333333333333
147
0.0
147
0.0
147
0.0
147
0.0
147
0.0208333333333333
147
0.0
147
0.0
147
0.0
147
0.0
147
1.0
147
0.0
147
0.0
147
0.0
147
0.0
147
1.0
  0
MATERIAL
  5
104
102
{ACAD_XDICTIONARY
360
105
102
}
102
{ACAD_REACTORS
330
EA
102
}
330
EA
100
AcDbMaterial
  1
ByLayer
 72
     0
 43
0.0208333333333333
 43
0.0
 43
0.0
 43
0.0
 43
0.0
 43
0.0208333333333333
 43
0.0
 43
0.0
 43
0.0
 43
0.0
 43
1.0
 43
0.0
 43
0.0
 43
0.0
 43
0.0
 43
1.0
 77
     0
 47
0.0208333333333333
 47
0.0
 47
0.0
 47
0.0
 47
0.0
 47
0.0208333333333333
 47
0.0
 47
0.0
 47
0.0
 47
0.0
 47
1.0
 47
0.0
 47
0.0
 47
0.0
 47
0.0
 47
1.0
171
     0
 49
0.0208333333333333
 49
0.0
 49
0.0
 49
0.0
 49
0.0
 49
0.0208333333333333
 49
0.0
 49
0.0
 49
0.0
 49
0.0
 49
1.0
 49
0.0
 49
0.0
 49
0.0
 49
0.0
 49
1.0
175
     0
142
0.0208333333333333
142
0.0
142
0.0
142
0.0
142
0.0
142
0.0208333333333333
142
0.0
142
0.0
142
0.0
142
0.0
142
1.0
142
0.0
142
0.0
142
0.0
142
0.0
142
1.0
179
     0
144
0.0208333333333333
144
0.0
144
0.0
144
0.0
144
0.0
144
0.0208333333333333
144
0.0
144
0.0
144
0.0
144
0.0
144
1.0
144
0.0
144
0.0
144
0.0
144
0.0
144
1.0
147
0.0208333333333333
147
0.0
147
0.0
147
0.0
147
0.0
147
0.0208333333333333
147
0.0
147
0.0
147
0.0
147
0.0
147
1.0
147
0.0
147
0.0
147
0.0
147
0.0
147
1.0
  0
MATERIAL
  5
114
102
{ACAD_XDICTIONARY
360
115
102
}
102
{ACAD_REACTORS
330
EA
102
}
330
EA
100
AcDbMaterial
  1
Global
 72
     0
 43
0.0208333333333333
 43
0.0
 43
0.0
 43
0.0
 43
0.0
 43
0.0208333333333333
 43
0.0
 43
0.0
 43
0.0
 43
0.0
 43
1.0
 43
0.0
 43
0.0
 43
0.0
 43
0.0
 43
1.0
 77
     0
 47
0.0208333333333333
 47
0.0
 47
0.0
 47
0.0
 47
0.0
 47
0.0208333333333333
 47
0.0
 47
0.0
 47
0.0
 47
0.0
 47
1.0
 47
0.0
 47
0.0
 47
0.0
 47
0.0
 47
1.0
171
     0
 49
0.0208333333333333
 49
0.0
 49
0.0
 49
0.0
 49
0.0
 49
0.0208333333333333
 49
0.0
 49
0.0
 49
0.0
 49
0.0
 49
1.0
 49
0.0
 49
0.0
 49
0.0
 49
0.0
 49
1.0
175
     0
142
0.0208333333333333
142
0.0
142
0.0
142
0.0
142
0.0
142
0.0208333333333333
142
0.0
142
0.0
142
0.0
142
0.0
142
1.0
142
0.0
142
0.0
142
0.0
142
0.0
142
1.0
179
     0
144
0.0208333333333333
144
0.0
144
0.0
144
0.0
144
0.0
144
0.0208333333333333
144
0.0
144
0.0
144
0.0
144
0.0
144
1.0
144
0.0
144
0.0
144
0.0
144
0.0
144
1.0
147
0.0208333333333333
147
0.0
147
0.0
147
0.0
147
0.0
147
0.0208333333333333
147
0.0
147
0.0
147
0.0
147
0.0
147
1.0
147
0.0
147
0.0
147
0.0
147
0.0
147
1.0
  0
MLEADERSTYLE
  5
150
102
{ACAD_REACTORS
330
14F
102
}
330
14F
100
AcDbMLeaderStyle
170
     2
171
     1
172
     0
 90
        2
 40
0.0
 41
0.0
173
     1
 91
-1056964608
340
14
 92
       -2
290
     1
 42
0.09
291
     1
 43
0.36
  3
Standard
 44
0.18
300

342
11
174
     1
178
     6
175
     1
176
     0
 93
-1056964608
 45
0.18
292
     0
297
     0
 46
0.18
 94
-1056964608
 47
1.0
 49
1.0
140
1.0
293
     1
141
0.0
294
     1
177
     0
142
1.0
295
     0
296
     0
143
0.125
1001
ACAD_MLEADERVER
1070
     2
  0
MLINESTYLE
  5
18
102
{ACAD_REACTORS
330
17
102
}
330
17
100
AcDbMlineStyle
  2
STANDARD
 70
     0
  3

 62
   256
 51
90.0
 52
90.0
 71
     2
 49
0.5
 62
   256
  6
BYLAYER
 49
-0.5
 62
   256
  6
BYLAYER
  0
ACDBPLACEHOLDER
  5
F
102
{ACAD_REACTORS
330
E
102
}
330
E
  0
SCALE
  5
12E
102
{ACAD_REACTORS
330
12D
102
}
330
12D
100
AcDbScale
 70
     0
300
1:1
140
1.0
141
1.0
290
     1
  0
SCALE
  5
12F
102
{ACAD_REACTORS
330
12D
102
}
330
12D
100
AcDbScale
 70
     0
300
1:2
140
1.0
141
2.0
290
     0
  0
SCALE
  5
130
102
{ACAD_REACTORS
330
12D
102
}
330
12D
100
AcDbScale
 70
     0
300
1:4
140
1.0
141
4.0
290
     0
  0
SCALE
  5
131
102
{ACAD_REACTORS
330
12D
102
}
330
12D
100
AcDbScale
 70
     0
300
1:5
140
1.0
141
5.0
290
     0
  0
SCALE
  5
132
102
{ACAD_REACTORS
330
12D
102
}
330
12D
100
AcDbScale
 70
     0
300
1:8
140
1.0
141
8.0
290
     0
  0
SCALE
  5
133
102
{ACAD_REACTORS
330
12D
102
}
330
12D
100
AcDbScale
 70
     0
300
1:10
140
1.0
141
10.0
290
     0
  0
SCALE
  5
134
102
{ACAD_REACTORS
330
12D
102
}
330
12D
100
AcDbScale
 70
     0
300
1:16
140
1.0
141
16.0
290
     0
  0
SCALE
  5
135
102
{ACAD_REACTORS
330
12D
102
}
330
12D
100
AcDbScale
 70
     0
300
1:20
140
1.0
141
20.0
290
     0
  0
SCALE
  5
136
102
{ACAD_REACTORS
330
12D
102
}
330
12D
100
AcDbScale
 70
     0
300
1:30
140
1.0
141
30.0
290
     0
  0
SCALE
  5
137
102
{ACAD_REACTORS
330
12D
102
}
330
12D
100
AcDbScale
 70
     0
300
1:40
140
1.0
141
40.0
290
     0
  0
SCALE
  5
138
102
{ACAD_REACTORS
330
12D
102
}
330
12D
100
AcDbScale
 70
     0
300
1:50
140
1.0
141
50.0
290
     0
  0
SCALE
  5
139
102
{ACAD_REACTORS
330
12D
102
}
330
12D
100
AcDbScale
 70
     0
300
1:100
140
1.0
141
100.0
290
     0
  0
SCALE
  5
13A
102
{ACAD_REACTORS
330
12D
102
}
330
12D
100
AcDbScale
 70
     0
300
2:1
140
2.0
141
1.0
290
     0
  0
SCALE
  5
13B
102
{ACAD_REACTORS
330
12D
102
}
330
12D
100
AcDbScale
 70
     0
300
4:1
140
4.0
141
1.0
290
     0
  0
SCALE
  5
13C
102
{ACAD_REACTORS
330
12D
102
}
330
12D
100
AcDbScale
 70
     0
300
8:1
140
8.0
141
1.0
290
     0
  0
SCALE
  5
13D
102
{ACAD_REACTORS
330
12D
102
}
330
12D
100
AcDbScale
 70
     0
300
10:1
140
10.0
141
1.0
290
     0
  0
SCALE
  5
13E
102
{ACAD_REACTORS
330
12D
102
}
330
12D
100
AcDbScale
 70
     0
300
100:1
140
100.0
141
1.0
290
     0
  0
SCALE
  5
13F
102
{ACAD_REACTORS
330
12D
102
}
330
12D
100
AcDbScale
 70
     0
300
1/128" = 1'-0"
140
0.0078125
141
12.0
290
     0
  0
SCALE
  5
140
102
{ACAD_REACTORS
330
12D
102
}
330
12D
100
AcDbScale
 70
     0
300
1/64" = 1'-0"
140
0.015625
141
12.0
290
     0
  0
SCALE
  5
141
102
{ACAD_REACTORS
330
12D
102
}
330
12D
100
AcDbScale
 70
     0
300
1/32" = 1'-0"
140
0.03125
141
12.0
290
     0
  0
SCALE
  5
142
102
{ACAD_REACTORS
330
12D
102
}
330
12D
100
AcDbScale
 70
     0
300
1/16" = 1'-0"
140
0.0625
141
12.0
290
     0
  0
SCALE
  5
143
102
{ACAD_REACTORS
330
12D
102
}
330
12D
100
AcDbScale
 70
     0
300
3/32" = 1'-0"
140
0.09375
141
12.0
290
     0
  0
SCALE
  5
144
102
{ACAD_REACTORS
330
12D
102
}
330
12D
100
AcDbScale
 70
     0
300
1/8" = 1'-0"
140
0.125
141
12.0
290
     0
  0
SCALE
  5
145
102
{ACAD_REACTORS
330
12D
102
}
330
12D
100
AcDbScale
 70
     0
300
3/16" = 1'-0"
140
0.1875
141
12.0
290
     0
  0
SCALE
  5
146
102
{ACAD_REACTORS
330
12D
102
}
330
12D
100
AcDbScale
 70
     0
300
1/4" = 1'-0"
140
0.25
141
12.0
290
     0
  0
SCALE
  5
147
102
{ACAD_REACTORS
330
12D
102
}
330
12D
100
AcDbScale
 70
     0
300
3/8" = 1'-0"
140
0.375
141
12.0
290
     0
  0
SCALE
  5
148
102
{ACAD_REACTORS
330
12D
102
}
330
12D
100
AcDbScale
 70
     0
300
1/2" = 1'-0"
140
0.5
141
12.0
290
     0
  0
SCALE
  5
149
102
{ACAD_REACTORS
330
12D
102
}
330
12D
100
AcDbScale
 70
     0
300
3/4" = 1'-0"
140
0.75
141
12.0
290
     0
  0
SCALE
  5
14A
102
{ACAD_REACTORS
330
12D
102
}
330
12D
100
AcDbScale
 70
     0
300
1" = 1'-0"
140
1.0
141
12.0
290
     0
  0
SCALE
  5
14B
102
{ACAD_REACTORS
330
12D
102
}
330
12D
100
AcDbScale
 70
     0
300
1-1/2" = 1'-0"
140
1.5
141
12.0
290
     0
  0
SCALE
  5
14C
102
{ACAD_REACTORS
330
12D
102
}
330
12D
100
AcDbScale
 70
     0
300
3" = 1'-0"
140
3.0
141
12.0
290
     0
  0
SCALE
  5
14D
102
{ACAD_REACTORS
330
12D
102
}
330
12D
100
AcDbScale
 70
     0
300
6" = 1'-0"
140
6.0
141
12.0
290
     0
  0
SCALE
  5
14E
102
{ACAD_REACTORS
330
12D
102
}
330
12D
100
AcDbScale
 70
     0
300
1'-0" = 1'-0"
140
12.0
141
12.0
290
     0
  0
TABLESTYLE
  5
ED
102
{ACAD_XDICTIONARY
360
7CF
102
}
102
{ACAD_REACTORS
330
EC
102
}
330
EC
100
AcDbTableStyle
  3
Standard
 70
     0
 71
     0
 40
0.06
 41
0.06
280
     0
281
     0
  7
Standard
140
0.18
170
     2
 62
     0
 63
     7
283
     0
274
    -2
284
     1
 64
     0
275
    -2
285
     1
 65
     0
276
    -2
286
     1
 66
     0
277
    -2
287
     1
 67
     0
278
    -2
288
     1
 68
     0
279
    -2
289
     1
 69
     0
  7
Standard
140
0.25
170
     5
 62
     0
 63
     7
283
     0
274
    -2
284
     1
 64
     0
275
    -2
285
     1
 65
     0
276
    -2
286
     1
 66
     0
277
    -2
287
     1
 67
     0
278
    -2
288
     1
 68
     0
279
    -2
289
     1
 69
     0
  7
Standard
140
0.18
170
     5
 62
     0
 63
     7
283
     0
274
    -2
284
     1
 64
     0
275
    -2
285
     1
 65
     0
276
    -2
286
     1
 66
     0
277
    -2
287
     1
 67
     0
278
    -2
288
     1
 68
     0
279
    -2
289
     1
 69
     0
  0
VISUALSTYLE
  5
122
102
{ACAD_REACTORS
330
11C
102
}
330
11C
100
AcDbVisualStyle
  2
2dWireframe
 70
     4
 71
     0
 72
     2
 73
     0
 90
        0
 40
-0.6
 41
-30.0
 62
     5
 63
     7
 74
     1
 91
        4
 64
     7
 65
   257
 75
     1
175
     1
 42
1.0
 92
        0
 66
   257
 43
1.0
 76
     1
 77
     6
 78
     2
 67
     7
 79
     5
170
     0
171
     0
290
     0
174
     0
 93
        1
 44
0.0
173
     0
291
     0
 45
0.0
1001
ACAD
1000
AcDbSavedByObjectVersion
1070
     0
1000
AcDbSavedByObjectVersion
1070
     0
  0
VISUALSTYLE
  5
124
102
{ACAD_REACTORS
330
11C
102
}
330
11C
100
AcDbVisualStyle
  2
3D Hidden
 70
     6
 71
     1
 72
     2
 73
     2
 90
        0
 40
-0.6
 41
-30.0
 62
     5
 63
     7
 74
     2
 91
        2
 64
     7
 65
   257
 75
     2
175
     1
 42
40.0
 92
        0
 66
   257
 43
1.0
 76
     1
 77
     6
 78
     2
 67
     7
 79
     3
170
     0
171
     0
290
     0
174
     0
 93
        1
 44
0.0
173
     0
291
     0
 45
0.0
1001
ACAD
1000
AcDbSavedByObjectVersion
1070
     0
1000
AcDbSavedByObjectVersion
1070
     0
  0
VISUALSTYLE
  5
123
102
{ACAD_REACTORS
330
11C
102
}
330
11C
100
AcDbVisualStyle
  2
3dWireframe
 70
     5
 71
     0
 72
     2
 73
     0
 90
        0
 40
-0.6
 41
-30.0
 62
     5
 63
     7
 74
     1
 91
        4
 64
     7
 65
   257
 75
     1
175
     1
 42
1.0
 92
        0
 66
   257
 43
1.0
 76
     1
 77
     6
 78
     2
 67
     7
 79
     5
170
     0
171
     0
290
     0
174
     0
 93
        1
 44
0.0
173
     0
291
     0
 45
0.0
1001
ACAD
1000
AcDbSavedByObjectVersion
1070
     0
1000
AcDbSavedByObjectVersion
1070
     0
  0
VISUALSTYLE
  5
121
102
{ACAD_REACTORS
330
11C
102
}
330
11C
100
AcDbVisualStyle
  2
Basic
 70
     7
 71
     1
 72
     0
 73
     1
 90
        0
 40
-0.6
 41
-30.0
 62
     5
 63
     7
 74
     0
 91
        4
 64
     7
 65
   257
 75
     1
175
     1
 42
1.0
 92
        8
 66
     7
 43
1.0
 76
     1
 77
     6
 78
     2
 67
     7
 79
     5
170
     0
171
     0
290
     0
174
     0
 93
        1
 44
0.0
173
     0
291
     1
 45
0.0
1001
ACAD
1000
AcDbSavedByObjectVersion
1070
     0
1000
AcDbSavedByObjectVersion
1070
     0
  0
VISUALSTYLE
  5
128
102
{ACAD_REACTORS
330
11C
102
}
330
11C
100
AcDbVisualStyle
  2
Brighten
 70
    12
 71
     2
 72
     2
 73
     0
 90
        0
 40
-0.6
 41
-30.0
 62
     5
 63
     7
 74
     1
 91
        4
 64
     7
 65
   257
 75
     1
175
     1
 42
1.0
 92
        8
 66
     7
 43
1.0
 76
     1
 77
     6
 78
     2
 67
     7
 79
     5
170
     0
171
     0
290
     0
174
     0
 93
        1
 44
50.0
173
     0
291
     1
 45
0.0
1001
ACAD
1000
AcDbSavedByObjectVersion
1070
     0
1000
AcDbSavedByObjectVersion
1070
     0
  0
VISUALSTYLE
  5
12C
102
{ACAD_REACTORS
330
11C
102
}
330
11C
100
AcDbVisualStyle
  2
ColorChange
 70
    16
 71
     2
 72
     2
 73
     3
 90
        0
 40
-0.6
 41
-30.0
 62
     5
 63
     8
 74
     1
 91
        4
 64
     7
 65
   257
 75
     1
175
     1
 42
1.0
 92
        8
 66
     8
 43
1.0
 76
     1
 77
     6
 78
     2
 67
     7
 79
     5
170
     0
171
     0
290
     0
174
     0
 93
        1
 44
0.0
173
     0
291
     1
 45
0.0
1001
ACAD
1000
AcDbSavedByObjectVersion
1070
     0
1000
AcDbSavedByObjectVersion
1070
     0
  0
VISUALSTYLE
  5
125
102
{ACAD_REACTORS
330
11C
102
}
330
11C
100
AcDbVisualStyle
  2
Conceptual
 70
     9
 71
     3
 72
     2
 73
     0
 90
        0
 40
-0.6
 41
-30.0
 62
     5
 63
     7
 74
     2
 91
        2
 64
     7
 65
   257
 75
     1
175
     1
 42
40.0
 92
        8
 66
     7
 43
1.0
 76
     1
 77
     6
 78
     2
 67
     7
 79
     3
170
     0
171
     0
290
     0
174
     0
 93
        1
 44
0.0
173
     0
291
     0
 45
0.0
1001
ACAD
1000
AcDbSavedByObjectVersion
1070
     0
1000
AcDbSavedByObjectVersion
1070
     0
  0
VISUALSTYLE
  5
127
102
{ACAD_REACTORS
330
11C
102
}
330
11C
100
AcDbVisualStyle
  2
Dim
 70
    11
 71
     2
 72
     2
 73
     0
 90
        0
 40
-0.6
 41
-30.0
 62
     5
 63
     7
 74
     1
 91
        4
 64
     7
 65
   257
 75
     1
175
     1
 42
1.0
 92
        8
 66
     7
 43
1.0
 76
     1
 77
     6
 78
     2
 67
     7
 79
     5
170
     0
171
     0
290
     0
174
     0
 93
        1
 44
-50.0
173
     0
291
     1
 45
0.0
1001
ACAD
1000
AcDbSavedByObjectVersion
1070
     0
1000
AcDbSavedByObjectVersion
1070
     0
  0
VISUALSTYLE
  5
12B
102
{ACAD_REACTORS
330
11C
102
}
330
11C
100
AcDbVisualStyle
  2
Facepattern
 70
    15
 71
     2
 72
     2
 73
     0
 90
        0
 40
-0.6
 41
-30.0
 62
     5
 63
     7
 74
     1
 91
        4
 64
     7
 65
   257
 75
     1
175
     1
 42
1.0
 92
        8
 66
     7
 43
1.0
 76
     1
 77
     6
 78
     2
 67
     7
 79
     5
170
     0
171
     0
290
     0
174
     0
 93
        1
 44
0.0
173
     0
291
     1
 45
0.0
1001
ACAD
1000
AcDbSavedByObjectVersion
1070
     0
1000
AcDbSavedByObjectVersion
1070
     0
  0
VISUALSTYLE
  5
11D
102
{ACAD_REACTORS
330
11C
102
}
330
11C
100
AcDbVisualStyle
  2
Flat
 70
     0
 71
     2
 72
     1
 73
     1
 90
        2
 40
-0.6
 41
30.0
 62
     5
 63
     7
 74
     0
 91
        4
 64
     7
 65
   257
 75
     1
175
     1
 42
1.0
 92
        8
 66
     7
 43
1.0
 76
     1
 77
     6
 78
     2
 67
     7
 79
     5
170
     0
171
     0
290
     0
174
     0
 93
       13
 44
0.0
173
     0
291
     1
 45
0.0
1001
ACAD
1000
AcDbSavedByObjectVersion
1070
     0
1000
AcDbSavedByObjectVersion
1070
     0
  0
VISUALSTYLE
  5
11E
102
{ACAD_REACTORS
330
11C
102
}
330
11C
100
AcDbVisualStyle
  2
FlatWithEdges
 70
     1
 71
     2
 72
     1
 73
     1
 90
        2
 40
-0.6
 41
30.0
 62
     5
 63
     7
 74
     1
 91
        4
 64
     7
 65
   257
 75
     1
175
     1
 42
1.0
 92
        0
 66
   257
 43
1.0
 76
     1
 77
     6
 78
     2
 67
     7
 79
     5
170
     0
171
     0
290
     0
174
     0
 93
       13
 44
0.0
173
     0
291
     1
 45
0.0
1001
ACAD
1000
AcDbSavedByObjectVersion
1070
     0
1000
AcDbSavedByObjectVersion
1070
     0
  0
VISUALSTYLE
  5
11F
102
{ACAD_REACTORS
330
11C
102
}
330
11C
100
AcDbVisualStyle
  2
Gouraud
 70
     2
 71
     2
 72
     2
 73
     1
 90
        2
 40
-0.6
 41
30.0
 62
     5
 63
     7
 74
     0
 91
        4
 64
     7
 65
   257
 75
     1
175
     1
 42
1.0
 92
        0
 66
     7
 43
1.0
 76
     1
 77
     6
 78
     2
 67
     7
 79
     5
170
     0
171
     0
290
     0
174
     0
 93
       13
 44
0.0
173
     0
291
     1
 45
0.0
1001
ACAD
1000
AcDbSavedByObjectVersion
1070
     0
1000
AcDbSavedByObjectVersion
1070
     0
  0
VISUALSTYLE
  5
120
102
{ACAD_REACTORS
330
11C
102
}
330
11C
100
AcDbVisualStyle
  2
GouraudWithEdges
 70
     3
 71
     2
 72
     2
 73
     1
 90
        2
 40
-0.6
 41
30.0
 62
     5
 63
     7
 74
     1
 91
        4
 64
     7
 65
   257
 75
     1
175
     1
 42
1.0
 92
        0
 66
   257
 43
1.0
 76
     1
 77
     6
 78
     2
 67
     7
 79
     5
170
     0
171
     0
290
     0
174
     0
 93
       13
 44
0.0
173
     0
291
     1
 45
0.0
1001
ACAD
1000
AcDbSavedByObjectVersion
1070
     0
1000
AcDbSavedByObjectVersion
1070
     0
  0
VISUALSTYLE
  5
12A
102
{ACAD_REACTORS
330
11C
102
}
330
11C
100
AcDbVisualStyle
  2
Linepattern
 70
    14
 71
     2
 72
     2
 73
     0
 90
        0
 40
-0.6
 41
-30.0
 62
     5
 63
     7
 74
     1
 91
        4
 64
     7
 65
   257
 75
     7
175
     7
 42
1.0
 92
        8
 66
     7
 43
1.0
 76
     1
 77
     6
 78
     2
 67
     7
 79
     5
170
     0
171
     0
290
     0
174
     0
 93
        1
 44
0.0
173
     0
291
     1
 45
0.0
1001
ACAD
1000
AcDbSavedByObjectVersion
1070
     0
1000
AcDbSavedByObjectVersion
1070
     0
  0
VISUALSTYLE
  5
126
102
{ACAD_REACTORS
330
11C
102
}
330
11C
100
AcDbVisualStyle
  2
Realistic
 70
     8
 71
     2
 72
     2
 73
     0
 90
        0
 40
-0.6
 41
-30.0
 62
     5
 63
     7
 74
     1
 91
        0
 64
     7
 65
   257
 75
     1
175
     1
 42
1.0
 92
        8
 66
     8
 43
1.0
 76
     1
 77
     6
 78
     2
 67
     7
 79
     5
170
     0
171
     0
290
     0
174
     0
 93
       13
 44
0.0
173
     0
291
     0
 45
0.0
1001
ACAD
1000
AcDbSavedByObjectVersion
1070
     0
1000
AcDbSavedByObjectVersion
1070
     0
  0
VISUALSTYLE
  5
129
102
{ACAD_REACTORS
330
11C
102
}
330
11C
100
AcDbVisualStyle
  2
Thicken
 70
    13
 71
     2
 72
     2
 73
     0
 90
        0
 40
-0.6
 41
-30.0
 62
     5
 63
     7
 74
     1
 91
        4
 64
     7
 65
   257
 75
     1
175
     1
 42
1.0
 92
       12
 66
     7
 43
1.0
 76
     1
 77
     6
 78
     2
 67
     7
 79
     5
170
     0
171
     0
290
     0
174
     0
 93
        1
 44
0.0
173
     0
291
     1
 45
0.0
1001
ACAD
1000
AcDbSavedByObjectVersion
1070
     0
1000
AcDbSavedByObjectVersion
1070
     0
  0
DICTIONARYVAR
  5
7CC
102
{ACAD_REACTORS
330
D7
102
}
330
D7
100
DictionaryVariables
280
     0
  1
1:1
  0
DICTIONARYVAR
  5
7CB
102
{ACAD_REACTORS
330
D7
102
}
330
D7
100
DictionaryVariables
280
     0
  1
STANDARD
  0
DICTIONARYVAR
  5
F5
102
{ACAD_REACTORS
330
D7
102
}
330
D7
100
DictionaryVariables
280
     0
  1
STANDARD
  0
DICTIONARYVAR
  5
D8
102
{ACAD_REACTORS
330
D7
102
}
330
D7
100
DictionaryVariables
280
     0
  1
1
  0
DICTIONARYVAR
  5
F8
102
{ACAD_REACTORS
330
D7
102
}
330
D7
100
DictionaryVariables
280
     0
  1
0
  0
DICTIONARYVAR
  5
7CE
102
{ACAD_REACTORS
330
D7
102
}
330
D7
100
DictionaryVariables
280
     0
  1
0
  0
DICTIONARYVAR
  5
7CD
102
{ACAD_REACTORS
330
D7
102
}
330
D7
100
DictionaryVariables
280
     0
  1
127
  0
XRECORD
  5
F3
102
{ACAD_REACTORS
330
F1
102
}
330
F1
100
AcDbXrecord
280
     1
  0
DICTIONARY
  5
1446
330
1E
100
AcDbDictionary
280
     1
281
     1
  3
ACAD_XREC_ROUNDTRIP
360
1447
  0
DICTIONARY
  5
144A
330
26
100
AcDbDictionary
280
     1
281
     1
  3
ACAD_XREC_ROUNDTRIP
360
144B
  0
DICTIONARY
  5
1448
330
22
100
AcDbDictionary
280
     1
281
     1
  3
ACAD_XREC_ROUNDTRIP
360
1449
  0
DICTIONARY
  5
7BE
330
7BD
100
AcDbDictionary
280
     1
281
     1
  3
ACAD_XREC_ROUNDTRIP
360
7DD
  3
BUMPTILE
360
7C3
  3
DIFFUSETILE
360
7BF
  3
OPACITYTILE
360
7C2
  3
REFLECTIONTILE
360
7C1
  3
REFRACTIONTILE
360
7C4
  3
SPECULARTILE
360
7C0
  0
DICTIONARY
  5
10D
330
10C
100
AcDbDictionary
280
     1
281
     1
  3
ACAD_XREC_ROUNDTRIP
360
7DB
  3
BUMPTILE
360
10F
  3
DIFFUSETILE
360
10E
  3
OPACITYTILE
360
112
  3
REFLECTIONTILE
360
111
  3
REFRACTIONTILE
360
113
  3
SPECULARTILE
360
110
  0
DICTIONARY
  5
105
330
104
100
AcDbDictionary
280
     1
281
     1
  3
ACAD_XREC_ROUNDTRIP
360
7DA
  3
BUMPTILE
360
107
  3
DIFFUSETILE
360
106
  3
OPACITYTILE
360
10A
  3
REFLECTIONTILE
360
109
  3
REFRACTIONTILE
360
10B
  3
SPECULARTILE
360
108
  0
DICTIONARY
  5
115
330
114
100
AcDbDictionary
280
     1
281
     1
  3
ACAD_XREC_ROUNDTRIP
360
7DC
  3
BUMPTILE
360
117
  3
DIFFUSETILE
360
116
  3
OPACITYTILE
360
11A
  3
REFLECTIONTILE
360
119
  3
REFRACTIONTILE
360
11B
  3
SPECULARTILE
360
118
  0
DICTIONARY
  5
7CF
330
ED
100
AcDbDictionary
280
     1
281
     1
  3
ACAD_ROUNDTRIP_2008_TABLESTYLE_CELLSTYLEMAP
360
1444
  3
ACAD_XREC_ROUNDTRIP
360
144C
  0
XRECORD
  5
1447
102
{ACAD_REACTORS
330
1446
102
}
330
1446
100
AcDbXrecord
280
     1
102
SHADEPLOT
 70
     0
102
SHADEPLOTRESLEVEL
 70
     2
102
SHADEPLOTCUSTOMDPI
 70
   300
  0
XRECORD
  5
144B
102
{ACAD_REACTORS
330
144A
102
}
330
144A
100
AcDbXrecord
280
     1
102
SHADEPLOT
 70
     0
102
SHADEPLOTRESLEVEL
 70
     2
102
SHADEPLOTCUSTOMDPI
 70
   300
  0
XRECORD
  5
1449
102
{ACAD_REACTORS
330
1448
102
}
330
1448
100
AcDbXrecord
280
     1
102
SHADEPLOT
 70
     0
102
SHADEPLOTRESLEVEL
 70
     2
102
SHADEPLOTCUSTOMDPI
 70
   300
  0
XRECORD
  5
7DD
102
{ACAD_REACTORS
330
7BE
102
}
330
7BE
100
AcDbXrecord
280
     1
102
MATERIAL
148
0.0
149
0.0
149
0.0
 93
        0
 94
      127
282
     0
 72
     0
 77
     0
171
     0
175
     0
179
     0
273
     0
  0
XRECORD
  5
7C3
102
{ACAD_REACTORS
330
7BE
102
}
330
7BE
100
AcDbXrecord
280
     1
270
     1
271
     1
  0
XRECORD
  5
7BF
102
{ACAD_REACTORS
330
7BE
102
}
330
7BE
100
AcDbXrecord
280
     1
270
     1
271
     1
  0
XRECORD
  5
7C2
102
{ACAD_REACTORS
330
7BE
102
}
330
7BE
100
AcDbXrecord
280
     1
270
     1
271
     1
  0
XRECORD
  5
7C1
102
{ACAD_REACTORS
330
7BE
102
}
330
7BE
100
AcDbXrecord
280
     1
270
     1
271
     1
  0
XRECORD
  5
7C4
102
{ACAD_REACTORS
330
7BE
102
}
330
7BE
100
AcDbXrecord
280
     1
270
     1
271
     1
  0
XRECORD
  5
7C0
102
{ACAD_REACTORS
330
7BE
102
}
330
7BE
100
AcDbXrecord
280
     1
270
     1
271
     1
  0
XRECORD
  5
7DB
102
{ACAD_REACTORS
330
10D
102
}
330
10D
100
AcDbXrecord
280
     1
102
MATERIAL
148
0.0
149
0.0
149
0.0
 93
        0
 94
      127
282
     0
 72
     0
 77
     0
171
     0
175
     0
179
     0
273
     0
  0
XRECORD
  5
10F
102
{ACAD_REACTORS
330
10D
102
}
330
10D
100
AcDbXrecord
280
     1
270
     1
271
     1
  0
XRECORD
  5
10E
102
{ACAD_REACTORS
330
10D
102
}
330
10D
100
AcDbXrecord
280
     1
270
     1
271
     1
  0
XRECORD
  5
112
102
{ACAD_REACTORS
330
10D
102
}
330
10D
100
AcDbXrecord
280
     1
270
     1
271
     1
  0
XRECORD
  5
111
102
{ACAD_REACTORS
330
10D
102
}
330
10D
100
AcDbXrecord
280
     1
270
     1
271
     1
  0
XRECORD
  5
113
102
{ACAD_REACTORS
330
10D
102
}
330
10D
100
AcDbXrecord
280
     1
270
     1
271
     1
  0
XRECORD
  5
110
102
{ACAD_REACTORS
330
10D
102
}
330
10D
100
AcDbXrecord
280
     1
270
     1
271
     1
  0
XRECORD
  5
7DA
102
{ACAD_REACTORS
330
105
102
}
330
105
100
AcDbXrecord
280
     1
102
MATERIAL
148
0.0
149
0.0
149
0.0
 93
        0
 94
      127
282
     0
 72
     0
 77
     0
171
     0
175
     0
179
     0
273
     0
  0
XRECORD
  5
107
102
{ACAD_REACTORS
330
105
102
}
330
105
100
AcDbXrecord
280
     1
270
     1
271
     1
  0
XRECORD
  5
106
102
{ACAD_REACTORS
330
105
102
}
330
105
100
AcDbXrecord
280
     1
270
     1
271
     1
  0
XRECORD
  5
10A
102
{ACAD_REACTORS
330
105
102
}
330
105
100
AcDbXrecord
280
     1
270
     1
271
     1
  0
XRECORD
  5
109
102
{ACAD_REACTORS
330
105
102
}
330
105
100
AcDbXrecord
280
     1
270
     1
271
     1
  0
XRECORD
  5
10B
102
{ACAD_REACTORS
330
105
102
}
330
105
100
AcDbXrecord
280
     1
270
     1
271
     1
  0
XRECORD
  5
108
102
{ACAD_REACTORS
330
105
102
}
330
105
100
AcDbXrecord
280
     1
270
     1
271
     1
  0
XRECORD
  5
7DC
102
{ACAD_REACTORS
330
115
102
}
330
115
100
AcDbXrecord
280
     1
102
MATERIAL
148
0.0
149
0.0
149
0.0
 93
        0
 94
      127
282
     0
 72
     0
 77
     0
171
     0
175
     0
179
     0
273
     0
  0
XRECORD
  5
117
102
{ACAD_REACTORS
330
115
102
}
330
115
100
AcDbXrecord
280
     1
270
     1
271
     1
  0
XRECORD
  5
116
102
{ACAD_REACTORS
330
115
102
}
330
115
100
AcDbXrecord
280
     1
270
     1
271
     1
  0
XRECORD
  5
11A
102
{ACAD_REACTORS
330
115
102
}
330
115
100
AcDbXrecord
280
     1
270
     1
271
     1
  0
XRECORD
  5
119
102
{ACAD_REACTORS
330
115
102
}
330
115
100
AcDbXrecord
280
     1
270
     1
271
     1
  0
XRECORD
  5
11B
102
{ACAD_REACTORS
330
115
102
}
330
115
100
AcDbXrecord
280
     1
270
     1
271
     1
  0
XRECORD
  5
118
102
{ACAD_REACTORS
330
115
102
}
330
115
100
AcDbXrecord
280
     1
270
     1
271
     1
  0
CELLSTYLEMAP
  5
1444
102
{ACAD_REACTORS
330
7CF
102
}
330
7CF
100
AcDbCellStyleMap
 90
        3
300
CELLSTYLE
  1
TABLEFORMAT_BEGIN
 90
        5
170
     1
 91
        0
 92
    32768
 62
   257
 93
        1
300
CONTENTFORMAT
  1
CONTENTFORMAT_BEGIN
 90
        0
 91
        0
 92
        4
 93
        0
300

 40
0.0
140
1.0
 94
        5
 62
     0
340
11
144
0.25
309
CONTENTFORMAT_END
171
     1
301
MARGIN
  1
CELLMARGIN_BEGIN
 40
0.06
 40
0.06
 40
0.06
 40
0.06
 40
0.18
 40
0.18
309
CELLMARGIN_END
 94
        6
 95
        1
302
GRIDFORMAT
  1
GRIDFORMAT_BEGIN
 90
        0
 91
        1
 62
     0
 92
       -2
340
0
 93
        0
 40
0.045
309
GRIDFORMAT_END
 95
        2
302
GRIDFORMAT
  1
GRIDFORMAT_BEGIN
 90
        0
 91
        1
 62
     0
 92
       -2
340
0
 93
        0
 40
0.045
309
GRIDFORMAT_END
 95
        4
302
GRIDFORMAT
  1
GRIDFORMAT_BEGIN
 90
        0
 91
        1
 62
     0
 92
       -2
340
0
 93
        0
 40
0.045
309
GRIDFORMAT_END
 95
        8
302
GRIDFORMAT
  1
GRIDFORMAT_BEGIN
 90
        0
 91
        1
 62
     0
 92
       -2
340
0
 93
        0
 40
0.045
309
GRIDFORMAT_END
 95
       16
302
GRIDFORMAT
  1
GRIDFORMAT_BEGIN
 90
        0
 91
        1
 62
     0
 92
       -2
340
0
 93
        0
 40
0.045
309
GRIDFORMAT_END
 95
       32
302
GRIDFORMAT
  1
GRIDFORMAT_BEGIN
 90
        0
 91
        1
 62
     0
 92
       -2
340
0
 93
        0
 40
0.045
309
GRIDFORMAT_END
309
TABLEFORMAT_END
  1
CELLSTYLE_BEGIN
 90
        1
 91
        1
300
_TITLE
309
CELLSTYLE_END
300
CELLSTYLE
  1
TABLEFORMAT_BEGIN
 90
        5
170
     1
 91
        0
 92
        0
 62
   257
 93
        1
300
CONTENTFORMAT
  1
CONTENTFORMAT_BEGIN
 90
        0
 91
        0
 92
        4
 93
        0
300

 40
0.0
140
1.0
 94
        5
 62
     0
340
11
144
0.18
309
CONTENTFORMAT_END
171
     1
301
MARGIN
  1
CELLMARGIN_BEGIN
 40
0.06
 40
0.06
 40
0.06
 40
0.06
 40
0.18
 40
0.18
309
CELLMARGIN_END
 94
        6
 95
        1
302
GRIDFORMAT
  1
GRIDFORMAT_BEGIN
 90
        0
 91
        1
 62
     0
 92
       -2
340
0
 93
        0
 40
0.045
309
GRIDFORMAT_END
 95
        2
302
GRIDFORMAT
  1
GRIDFORMAT_BEGIN
 90
        0
 91
        1
 62
     0
 92
       -2
340
0
 93
        0
 40
0.045
309
GRIDFORMAT_END
 95
        4
302
GRIDFORMAT
  1
GRIDFORMAT_BEGIN
 90
        0
 91
        1
 62
     0
 92
       -2
340
0
 93
        0
 40
0.045
309
GRIDFORMAT_END
 95
        8
302
GRIDFORMAT
  1
GRIDFORMAT_BEGIN
 90
        0
 91
        1
 62
     0
 92
       -2
340
0
 93
        0
 40
0.045
309
GRIDFORMAT_END
 95
       16
302
GRIDFORMAT
  1
GRIDFORMAT_BEGIN
 90
        0
 91
        1
 62
     0
 92
       -2
340
0
 93
        0
 40
0.045
309
GRIDFORMAT_END
 95
       32
302
GRIDFORMAT
  1
GRIDFORMAT_BEGIN
 90
        0
 91
        1
 62
     0
 92
       -2
340
0
 93
        0
 40
0.045
309
GRIDFORMAT_END
309
TABLEFORMAT_END
  1
CELLSTYLE_BEGIN
 90
        2
 91
        1
300
_HEADER
309
CELLSTYLE_END
300
CELLSTYLE
  1
TABLEFORMAT_BEGIN
 90
        5
170
     1
 91
        0
 92
        0
 62
   257
 93
        1
300
CONTENTFORMAT
  1
CONTENTFORMAT_BEGIN
 90
        0
 91
        0
 92
        4
 93
        0
300

 40
0.0
140
1.0
 94
        2
 62
     0
340
11
144
0.18
309
CONTENTFORMAT_END
171
     1
301
MARGIN
  1
CELLMARGIN_BEGIN
 40
0.06
 40
0.06
 40
0.06
 40
0.06
 40
0.18
 40
0.18
309
CELLMARGIN_END
 94
        6
 95
        1
302
GRIDFORMAT
  1
GRIDFORMAT_BEGIN
 90
        0
 91
        1
 62
     0
 92
       -2
340
0
 93
        0
 40
0.045
309
GRIDFORMAT_END
 95
        2
302
GRIDFORMAT
  1
GRIDFORMAT_BEGIN
 90
        0
 91
        1
 62
     0
 92
       -2
340
0
 93
        0
 40
0.045
309
GRIDFORMAT_END
 95
        4
302
GRIDFORMAT
  1
GRIDFORMAT_BEGIN
 90
        0
 91
        1
 62
     0
 92
       -2
340
0
 93
        0
 40
0.045
309
GRIDFORMAT_END
 95
        8
302
GRIDFORMAT
  1
GRIDFORMAT_BEGIN
 90
        0
 91
        1
 62
     0
 92
       -2
340
0
 93
        0
 40
0.045
309
GRIDFORMAT_END
 95
       16
302
GRIDFORMAT
  1
GRIDFORMAT_BEGIN
 90
        0
 91
        1
 62
     0
 92
       -2
340
0
 93
        0
 40
0.045
309
GRIDFORMAT_END
 95
       32
302
GRIDFORMAT
  1
GRIDFORMAT_BEGIN
 90
        0
 91
        1
 62
     0
 92
       -2
340
0
 93
        0
 40
0.045
309
GRIDFORMAT_END
309
TABLEFORMAT_END
  1
CELLSTYLE_BEGIN
 90
        3
 91
        2
300
_DATA
309
CELLSTYLE_END
  0
XRECORD
  5
144C
102
{ACAD_REACTORS
330
7CF
102
}
330
7CF
100
AcDbXrecord
280
     1
102
ACAD_ROUNDTRIP_PRE2007_TABLESTYLE
 90
        4
 91
        0
  1

 92
        4
 93
        0
  2

 94
        4
 95
        0
  3

  0
ENDSEC
  0
EOF
