  0
SECTION
  2
HEADER
  9
$ACADVER
  1
AC1015
  9
$ACADMAINTVER
 70
    20
  9
$DWGCODEPAGE
  3
ANSI_1252
  9
$INSBASE
 10
0.0
 20
0.0
 30
0.0
  9
$EXTMIN
 10
0.0
 20
0.0
 30
0.0
  9
$EXTMAX
 10
3.500000000000001
 20
3.500000000000001
 30
34.49999809265138
  9
$LIMMIN
 10
0.0
 20
0.0
  9
$LIMMAX
 10
12.0
 20
9.0
  9
$ORTHOMODE
 70
     0
  9
$REGENMODE
 70
     1
  9
$FILLMODE
 70
     1
  9
$QTEXTMODE
 70
     0
  9
$MIRRTEXT
 70
     1
  9
$LTSCALE
 40
1.0
  9
$ATTMODE
 70
     1
  9
$TEXTSIZE
 40
0.2
  9
$TRACEWID
 40
0.05
  9
$TEXTSTYLE
  7
Standard
  9
$CLAYER
  8
0
  9
$CELTYPE
  6
ByLayer
  9
$CECOLOR
 62
   256
  9
$CELTSCALE
 40
1.0
  9
$DISPSILH
 70
     0
  9
$DIMSCALE
 40
3.0
  9
$DIMASZ
 40
0.2
  9
$DIMEXO
 40
0.1
  9
$DIMDLI
 40
0.38
  9
$DIMRND
 40
0.0
  9
$DIMDLE
 40
0.0
  9
$DIMEXE
 40
0.18
  9
$DIMTP
 40
0.0
  9
$DIMTM
 40
0.0
  9
$DIMTXT
 40
0.2
  9
$DIMCEN
 40
0.09
  9
$DIMTSZ
 40
0.0
  9
$DIMTOL
 70
     0
  9
$DIMLIM
 70
     0
  9
$DIMTIH
 70
     1
  9
$DIMTOH
 70
     1
  9
$DIMSE1
 70
     0
  9
$DIMSE2
 70
     0
  9
$DIMTAD
 70
     0
  9
$DIMZIN
 70
     0
  9
$DIMBLK
  1
ArchTick
  9
$DIMASO
 70
     1
  9
$DIMSHO
 70
     1
  9
$DIMPOST
  1
"
  9
$DIMAPOST
  1

  9
$DIMALT
 70
     0
  9
$DIMALTD
 70
     2
  9
$DIMALTF
 40
25.4
  9
$DIMLFAC
 40
1.0
  9
$DIMTOFL
 70
     0
  9
$DIMTVP
 40
0.0
  9
$DIMTIX
 70
     0
  9
$DIMSOXD
 70
     0
  9
$DIMSAH
 70
     0
  9
$DIMBLK1
  1

  9
$DIMBLK2
  1

  9
$DIMSTYLE
  2
OWP Standard
  9
$DIMCLRD
 70
     0
  9
$DIMCLRE
 70
     0
  9
$DIMCLRT
 70
     0
  9
$DIMTFAC
 40
1.0
  9
$DIMGAP
 40
0.09
  9
$DIMJUST
 70
     0
  9
$DIMSD1
 70
     0
  9
$DIMSD2
 70
     0
  9
$DIMTOLJ
 70
     1
  9
$DIMTZIN
 70
     0
  9
$DIMALTZ
 70
     0
  9
$DIMALTTZ
 70
     0
  9
$DIMUPT
 70
     0
  9
$DIMDEC
 70
     4
  9
$DIMTDEC
 70
     4
  9
$DIMALTU
 70
     2
  9
$DIMALTTD
 70
     2
  9
$DIMTXSTY
  7
Standard
  9
$DIMAUNIT
 70
     0
  9
$DIMADEC
 70
     0
  9
$DIMALTRND
 40
0.0
  9
$DIMAZIN
 70
     0
  9
$DIMDSEP
 70
    46
  9
$DIMATFIT
 70
     3
  9
$DIMFRAC
 70
     0
  9
$DIMLDRBLK
  1

  9
$DIMLUNIT
 70
     5
  9
$DIMLWD
 70
    -2
  9
$DIMLWE
 70
    -2
  9
$DIMTMOVE
 70
     0
  9
$LUNITS
 70
     2
  9
$LUPREC
 70
     4
  9
$SKETCHINC
 40
0.1
  9
$FILLETRAD
 40
0.5
  9
$AUNITS
 70
     0
  9
$AUPREC
 70
     0
  9
$MENU
  1
.
  9
$ELEVATION
 40
0.0
  9
$PELEVATION
 40
0.0
  9
$THICKNESS
 40
0.0
  9
$LIMCHECK
 70
     0
  9
$CHAMFERA
 40
0.5
  9
$CHAMFERB
 40
0.5
  9
$CHAMFERC
 40
1.0
  9
$CHAMFERD
 40
0.0
  9
$SKPOLY
 70
     0
  9
$TDCREATE
 40
2454575.419547095
  9
$TDUCREATE
 40
2454575.627880429
  9
$TDUPDATE
 40
2455967.396095313
  9
$TDUUPDATE
 40
2455967.604428646
  9
$TDINDWG
 40
0.0474067245
  9
$TDUSRTIMER
 40
0.0474035880
  9
$USRTIMER
 70
     1
  9
$ANGBASE
 50
0.0
  9
$ANGDIR
 70
     0
  9
$PDMODE
 70
     0
  9
$PDSIZE
 40
0.0
  9
$PLINEWID
 40
0.0
  9
$SPLFRAME
 70
     0
  9
$SPLINETYPE
 70
     6
  9
$SPLINESEGS
 70
     8
  9
$HANDSEED
  5
701
  9
$SURFTAB1
 70
     6
  9
$SURFTAB2
 70
     6
  9
$SURFTYPE
 70
     6
  9
$SURFU
 70
     6
  9
$SURFV
 70
     6
  9
$UCSBASE
  2

  9
$UCSNAME
  2

  9
$UCSORG
 10
0.0
 20
0.0
 30
0.0
  9
$UCSXDIR
 10
1.0
 20
0.0
 30
0.0
  9
$UCSYDIR
 10
0.0
 20
0.0
 30
1.0
  9
$UCSORTHOREF
  2

  9
$UCSORTHOVIEW
 70
     3
  9
$UCSORGTOP
 10
0.0
 20
0.0
 30
0.0
  9
$UCSORGBOTTOM
 10
0.0
 20
0.0
 30
0.0
  9
$UCSORGLEFT
 10
0.0
 20
0.0
 30
0.0
  9
$UCSORGRIGHT
 10
0.0
 20
0.0
 30
0.0
  9
$UCSORGFRONT
 10
0.0
 20
0.0
 30
0.0
  9
$UCSORGBACK
 10
0.0
 20
0.0
 30
0.0
  9
$PUCSBASE
  2

  9
$PUCSNAME
  2

  9
$PUCSORG
 10
0.0
 20
0.0
 30
0.0
  9
$PUCSXDIR
 10
1.0
 20
0.0
 30
0.0
  9
$PUCSYDIR
 10
0.0
 20
1.0
 30
0.0
  9
$PUCSORTHOREF
  2

  9
$PUCSORTHOVIEW
 70
     0
  9
$PUCSORGTOP
 10
0.0
 20
0.0
 30
0.0
  9
$PUCSORGBOTTOM
 10
0.0
 20
0.0
 30
0.0
  9
$PUCSORGLEFT
 10
0.0
 20
0.0
 30
0.0
  9
$PUCSORGRIGHT
 10
0.0
 20
0.0
 30
0.0
  9
$PUCSORGFRONT
 10
0.0
 20
0.0
 30
0.0
  9
$PUCSORGBACK
 10
0.0
 20
0.0
 30
0.0
  9
$USERI1
 70
     0
  9
$USERI2
 70
     0
  9
$USERI3
 70
     0
  9
$USERI4
 70
     0
  9
$USERI5
 70
     0
  9
$USERR1
 40
0.0
  9
$USERR2
 40
0.0
  9
$USERR3
 40
0.0
  9
$USERR4
 40
0.0
  9
$USERR5
 40
0.0
  9
$WORLDVIEW
 70
     1
  9
$SHADEDGE
 70
     3
  9
$SHADEDIF
 70
    70
  9
$TILEMODE
 70
     1
  9
$MAXACTVP
 70
    64
  9
$PINSBASE
 10
0.0
 20
0.0
 30
0.0
  9
$PLIMCHECK
 70
     0
  9
$PEXTMIN
 10
1.000000000000000E+20
 20
1.000000000000000E+20
 30
1.000000000000000E+20
  9
$PEXTMAX
 10
-1.000000000000000E+20
 20
-1.000000000000000E+20
 30
-1.000000000000000E+20
  9
$PLIMMIN
 10
0.0
 20
0.0
  9
$PLIMMAX
 10
12.0
 20
9.0
  9
$UNITMODE
 70
     0
  9
$VISRETAIN
 70
     1
  9
$PLINEGEN
 70
     0
  9
$PSLTSCALE
 70
     1
  9
$TREEDEPTH
 70
  3020
  9
$CMLSTYLE
  2
Standard
  9
$CMLJUST
 70
     0
  9
$CMLSCALE
 40
1.0
  9
$PROXYGRAPHICS
 70
     1
  9
$MEASUREMENT
 70
     0
  9
$CELWEIGHT
370
    -1
  9
$ENDCAPS
280
     0
  9
$JOINSTYLE
280
     0
  9
$LWDISPLAY
290
     0
  9
$INSUNITS
 70
     1
  9
$HYPERLINKBASE
  1

  9
$STYLESHEET
  1

  9
$XEDIT
290
     1
  9
$CEPSNTYPE
380
     0
  9
$PSTYLEMODE
290
     1
  9
$FINGERPRINTGUID
  2
{C562F28C-E2D6-4764-844D-8879E6864A34}
  9
$VERSIONGUID
  2
{557F4F91-84B4-4982-A44B-227ECF0486B8}
  9
$EXTNAMES
290
     1
  9
$PSVPSCALE
 40
0.0
  9
$OLESTARTUP
290
     0
  0
ENDSEC
  0
SECTION
  2
CLASSES
  0
CLASS
  1
ACDBDICTIONARYWDFLT
  2
AcDbDictionaryWithDefault
  3
ObjectDBX Classes
 90
        0
280
     0
281
     0
  0
CLASS
  1
TABLESTYLE
  2
AcDbTableStyle
  3
ObjectDBX Classes
 90
     4095
280
     0
281
     0
  0
CLASS
  1
DIMASSOC
  2
AcDbDimAssoc
  3
"AcDbDimAssoc|Product Desc:     AcDim ARX App For Dimension|Company:          Autodesk, Inc.|WEB Address:      www.autodesk.com"
 90
    32768
280
     0
281
     0
  0
CLASS
  1
DICTIONARYVAR
  2
AcDbDictionaryVar
  3
ObjectDBX Classes
 90
        0
280
     0
281
     0
  0
CLASS
  1
MATERIAL
  2
AcDbMaterial
  3
ObjectDBX Classes
 90
     1153
280
     0
281
     0
  0
CLASS
  1
VISUALSTYLE
  2
AcDbVisualStyle
  3
ObjectDBX Classes
 90
     4095
280
     0
281
     0
  0
CLASS
  1
SCALE
  2
AcDbScale
  3
ObjectDBX Classes
 90
     1153
280
     0
281
     0
  0
CLASS
  1
MLEADERSTYLE
  2
AcDbMLeaderStyle
  3
ACDB_MLEADERSTYLE_CLASS
 90
     4095
280
     0
281
     0
  0
CLASS
  1
CELLSTYLEMAP
  2
AcDbCellStyleMap
  3
ObjectDBX Classes
 90
     1152
280
     0
281
     0
  0
CLASS
  1
ACSH_HISTORY_CLASS
  2
AcDbShHistory
  3
ObjectDBX Classes
 90
    33921
280
     0
281
     0
  0
CLASS
  1
ACAD_EVALUATION_GRAPH
  2
AcDbEvalGraph
  3
ObjectDBX Classes
 90
    33921
280
     0
281
     0
  0
CLASS
  1
ACSH_EXTRUSION_CLASS
  2
AcDbShExtrusion
  3
ObjectDBX Classes
 90
    33921
280
     0
281
     0
  0
CLASS
  1
ACSH_REVOLVE_CLASS
  2
AcDbShRevolve
  3
ObjectDBX Classes
 90
    33921
280
     0
281
     0
  0
CLASS
  1
ACSH_BOOLEAN_CLASS
  2
AcDbShBoolean
  3
ObjectDBX Classes
 90
    33921
280
     0
281
     0
  0
CLASS
  1
ACDBPERSSUBENTMANAGER
  2
AcDbPersSubentManager
  3
AcDbPersSubentManager
 90
     1024
280
     0
281
     0
  0
CLASS
  1
SORTENTSTABLE
  2
AcDbSortentsTable
  3
ObjectDBX Classes
 90
        0
280
     0
281
     0
  0
CLASS
  1
SOLID_BACKGROUND
  2
AcDbSolidBackground
  3
SCENEOE
 90
     4095
280
     0
281
     0
  0
CLASS
  1
NPOCOLLECTION
  2
AcDbImpNonPersistentObjectsCollection
  3
ObjectDBX Classes
 90
     1153
280
     0
281
     0
  0
CLASS
  1
EXTRUDEDSURFACE
  2
AcDbExtrudedSurface
  3
ObjectDBX Classes
 90
        0
280
     0
281
     1
  0
CLASS
  1
SURFACE
  2
AcDbSurface
  3
ObjectDBX Classes
 90
    36863
280
     0
281
     1
  0
CLASS
  1
ACDBPLACEHOLDER
  2
AcDbPlaceHolder
  3
ObjectDBX Classes
 90
        0
280
     0
281
     0
  0
CLASS
  1
LAYOUT
  2
AcDbLayout
  3
ObjectDBX Classes
 90
        0
280
     0
281
     0
  0
CLASS
  1
ACDBASSOCPERSSUBENTMANAGER
  2
AcDbAssocPersSubentManager
  3
ObjectDBX Classes
 90
     1024
280
     0
281
     0
  0
ENDSEC
  0
SECTION
  2
TABLES
  0
TABLE
  2
VPORT
  5
8
330
0
100
AcDbSymbolTable
 70
     1
  0
VPORT
  5
166
330
8
100
AcDbSymbolTableRecord
100
AcDbViewportTableRecord
  2
*Active
 70
     0
 10
0.0
 20
0.0
 11
1.0
 21
1.0
 12
-24.46618465718629
 22
6.944033136778687
 13
0.0
 23
0.0
 14
0.5
 24
0.5
 15
0.5
 25
0.5
 16
0.0
 26
-1.0
 36
0.0
 17
26.21618465718629
 27
55.82668964889551
 37
10.305965909547
 40
34.70373823886782
 41
1.866009852216748
 42
50.0
 43
0.0
 44
0.0
 50
0.0
 51
0.0
 71
     0
 72
   100
 73
     1
 74
     3
 75
     0
 76
     0
 77
     0
 78
     0
281
     0
 65
     1
110
0.0
120
0.0
130
0.0
111
1.0
121
0.0
131
0.0
112
0.0
122
0.0
132
1.0
 79
     0
146
0.0
1001
ACAD_NAV_VCDISPLAY
1070
     3
  0
ENDTAB
  0
TABLE
  2
LTYPE
  5
5
330
0
100
AcDbSymbolTable
 70
     1
  0
LTYPE
  5
14
330
5
100
AcDbSymbolTableRecord
100
AcDbLinetypeTableRecord
  2
ByBlock
 70
     0
  3

 72
    65
 73
     0
 40
0.0
  0
LTYPE
  5
15
330
5
100
AcDbSymbolTableRecord
100
AcDbLinetypeTableRecord
  2
ByLayer
 70
     0
  3

 72
    65
 73
     0
 40
0.0
  0
LTYPE
  5
16
330
5
100
AcDbSymbolTableRecord
100
AcDbLinetypeTableRecord
  2
Continuous
 70
     0
  3
Solid line
 72
    65
 73
     0
 40
0.0
  0
ENDTAB
  0
TABLE
  2
LAYER
  5
2
102
{ACAD_XDICTIONARY
360
689
102
}
330
0
100
AcDbSymbolTable
 70
     4
  0
LAYER
  5
10
102
{ACAD_XDICTIONARY
360
3CE
102
}
330
2
100
AcDbSymbolTableRecord
100
AcDbLayerTableRecord
  2
0
 70
     0
 62
     7
  6
Continuous
370
    -3
390
F
  0
LAYER
  5
AB
102
{ACAD_XDICTIONARY
360
3D0
102
}
330
2
100
AcDbSymbolTableRecord
100
AcDbLayerTableRecord
  2
Layer1
 70
     0
 62
     1
  6
Continuous
290
     0
370
    -3
390
F
  0
LAYER
  5
F5
330
2
100
AcDbSymbolTableRecord
100
AcDbLayerTableRecord
  2
Defpoints
 70
     0
 62
     7
  6
Continuous
290
     0
370
    -3
390
F
  0
LAYER
  5
436
330
2
100
AcDbSymbolTableRecord
100
AcDbLayerTableRecord
  2
ASHADE
 70
     4
 62
     7
  6
Continuous
370
    -3
390
F
  0
ENDTAB
  0
TABLE
  2
STYLE
  5
3
330
0
100
AcDbSymbolTable
 70
     2
  0
STYLE
  5
11
330
3
100
AcDbSymbolTableRecord
100
AcDbTextStyleTableRecord
  2
Standard
 70
     0
 40
0.0
 41
1.0
 50
0.0
 71
     0
 42
0.2
  3
txt
  4

  0
STYLE
  5
430
330
3
100
AcDbSymbolTableRecord
100
AcDbTextStyleTableRecord
  2
ASHADE
 70
     0
 40
0.2
 41
1.0
 50
0.0
 71
     0
 42
0.2
  3
simplex
  4

  0
ENDTAB
  0
TABLE
  2
VIEW
  5
6
330
0
100
AcDbSymbolTable
 70
     0
  0
ENDTAB
  0
TABLE
  2
UCS
  5
7
330
0
100
AcDbSymbolTable
 70
     0
  0
ENDTAB
  0
TABLE
  2
APPID
  5
9
330
0
100
AcDbSymbolTable
 70
    16
  0
APPID
  5
12
330
9
100
AcDbSymbolTableRecord
100
AcDbRegAppTableRecord
  2
ACAD
 70
     0
  0
APPID
  5
F7
330
9
100
AcDbSymbolTableRecord
100
AcDbRegAppTableRecord
  2
ACAD_DSTYLE_DIMEXT_LENGTH
 70
     0
  0
APPID
  5
F8
330
9
100
AcDbSymbolTableRecord
100
AcDbRegAppTableRecord
  2
ACAD_DSTYLE_DIMEXT_ENABLED
 70
     0
  0
APPID
  5
F9
330
9
100
AcDbSymbolTableRecord
100
AcDbRegAppTableRecord
  2
ACAD_DSTYLE_DIMJOGGED_JOGANGLE_SYMBOL
 70
     0
  0
APPID
  5
FA
330
9
100
AcDbSymbolTableRecord
100
AcDbRegAppTableRecord
  2
ACAD_DSTYLE_DIMARC_LENGTH_SYMBOL
 70
     0
  0
APPID
  5
1B5
330
9
100
AcDbSymbolTableRecord
100
AcDbRegAppTableRecord
  2
ACAD_MLEADERVER
 70
     0
  0
APPID
  5
1C3
330
9
100
AcDbSymbolTableRecord
100
AcDbRegAppTableRecord
  2
ACAD_DSTYLE_DIMJAG
 70
     0
  0
APPID
  5
1C4
330
9
100
AcDbSymbolTableRecord
100
AcDbRegAppTableRecord
  2
ACAD_DSTYLE_DIMTALN
 70
     0
  0
APPID
  5
1EF
330
9
100
AcDbSymbolTableRecord
100
AcDbRegAppTableRecord
  2
AcadAnnotative
 70
     0
  0
APPID
  5
216
330
9
100
AcDbSymbolTableRecord
100
AcDbRegAppTableRecord
  2
ACAD_EXEMPT_FROM_CAD_STANDARDS
 70
     0
  0
APPID
  5
431
330
9
100
AcDbSymbolTableRecord
100
AcDbRegAppTableRecord
  2
AVE_RENDER
 70
     0
  0
APPID
  5
432
330
9
100
AcDbSymbolTableRecord
100
AcDbRegAppTableRecord
  2
AVE_ENTITY_MATERIAL
 70
     0
  0
APPID
  5
433
330
9
100
AcDbSymbolTableRecord
100
AcDbRegAppTableRecord
  2
AVE_FINISH
 70
     0
  0
APPID
  5
434
330
9
100
AcDbSymbolTableRecord
100
AcDbRegAppTableRecord
  2
AVE_MATERIAL
 70
     0
  0
APPID
  5
435
330
9
100
AcDbSymbolTableRecord
100
AcDbRegAppTableRecord
  2
AVE_GLOBAL
 70
     0
  0
APPID
  5
6C0
330
9
100
AcDbSymbolTableRecord
100
AcDbRegAppTableRecord
  2
ACAD_NAV_VCDISPLAY
 70
     0
  0
ENDTAB
  0
TABLE
  2
DIMSTYLE
  5
A
330
0
100
AcDbSymbolTable
 70
     3
100
AcDbDimStyleTable
 71
     2
340
F6
340
27
  0
DIMSTYLE
105
27
330
A
100
AcDbSymbolTableRecord
100
AcDbDimStyleTableRecord
  2
Standard
 70
     0
  3
"
 40
3.0
277
     5
340
11
342
4F
  0
DIMSTYLE
105
F6
330
A
100
AcDbSymbolTableRecord
100
AcDbDimStyleTableRecord
  2
OWP Standard
 70
     0
  3
"
 40
3.0
 41
0.2
 42
0.1
140
0.2
277
     5
340
11
342
4F
1001
ACAD_DSTYLE_DIMJOGGED_JOGANGLE_SYMBOL
1070
   384
1040
0.7853981633974483
1001
ACAD_DSTYLE_DIMJAG
1070
   388
1040
1.5
1001
ACAD_DSTYLE_DIMTALN
1070
   392
1070
     0
1001
ACAD_DSTYLE_DIMEXT_LENGTH
1070
   378
1040
0.18
  0
DIMSTYLE
105
1EE
330
A
100
AcDbSymbolTableRecord
100
AcDbDimStyleTableRecord
  2
Annotative
 70
     0
 40
0.0
340
11
1001
AcadAnnotative
1000
AnnotativeData
1002
{
1070
     1
1070
     1
1002
}
1001
ACAD_DSTYLE_DIMJAG
1070
   388
1040
1.5
1001
ACAD_DSTYLE_DIMTALN
1070
   392
1070
     0
  0
ENDTAB
  0
TABLE
  2
BLOCK_RECORD
  5
1
330
0
100
AcDbSymbolTable
 70
     7
  0
BLOCK_RECORD
  5
1F
102
{ACAD_XDICTIONARY
360
204
102
}
330
1
100
AcDbSymbolTableRecord
100
AcDbBlockTableRecord
  2
*Model_Space
340
22
  0
BLOCK_RECORD
  5
1B
330
1
100
AcDbSymbolTableRecord
100
AcDbBlockTableRecord
  2
*Paper_Space
340
1E
  0
BLOCK_RECORD
  5
23
330
1
100
AcDbSymbolTableRecord
100
AcDbBlockTableRecord
  2
*Paper_Space0
340
26
  0
BLOCK_RECORD
  5
4F
330
1
100
AcDbSymbolTableRecord
100
AcDbBlockTableRecord
  2
_ArchTick
340
0
  0
BLOCK_RECORD
  5
BA
330
1
100
AcDbSymbolTableRecord
100
AcDbBlockTableRecord
  2
_Oblique
340
0
  0
BLOCK_RECORD
  5
1F0
330
1
100
AcDbSymbolTableRecord
100
AcDbBlockTableRecord
  2
A$C18112A55
340
0
1001
ACAD
1000
DesignCenter Data
1002
{
1070
     1
1070
     1
1002
}
  0
BLOCK_RECORD
  5
437
330
1
100
AcDbSymbolTableRecord
100
AcDbBlockTableRecord
  2
AVE_GLOBAL
340
0
102
{BLKREFS
331
43A
102
}
  0
BLOCK_RECORD
  5
440
330
1
100
AcDbSymbolTableRecord
100
AcDbBlockTableRecord
  2
AVE_RENDER
340
0
102
{BLKREFS
331
443
331
444
331
445
331
446
331
447
331
448
331
449
331
44A
102
}
  0
BLOCK_RECORD
  5
62E
330
1
100
AcDbSymbolTableRecord
100
AcDbBlockTableRecord
  2
RM_SDB
340
0
102
{BLKREFS
331
648
102
}
  0
ENDTAB
  0
ENDSEC
  0
SECTION
  2
BLOCKS
  0
BLOCK
  5
20
330
1F
100
AcDbEntity
  8
0
100
AcDbBlockBegin
  2
*Model_Space
 70
     0
 10
0.0
 20
0.0
 30
0.0
  3
*Model_Space
  1

  0
ENDBLK
  5
21
330
1F
100
AcDbEntity
  8
0
100
AcDbBlockEnd
  0
BLOCK
  5
1C
330
1B
100
AcDbEntity
 67
     1
  8
0
100
AcDbBlockBegin
  2
*Paper_Space
 70
     0
 10
0.0
 20
0.0
 30
0.0
  3
*Paper_Space
  1

  0
ENDBLK
  5
1D
330
1B
100
AcDbEntity
 67
     1
  8
0
100
AcDbBlockEnd
  0
BLOCK
  5
24
330
23
100
AcDbEntity
 67
     1
  8
0
100
AcDbBlockBegin
  2
*Paper_Space0
 70
     0
 10
0.0
 20
0.0
 30
0.0
  3
*Paper_Space0
  1

  0
ENDBLK
  5
25
330
23
100
AcDbEntity
 67
     1
  8
0
100
AcDbBlockEnd
  0
BLOCK
  5
51
330
4F
100
AcDbEntity
  8
0
100
AcDbBlockBegin
  2
_ArchTick
 70
     0
 10
0.0
 20
0.0
 30
0.0
  3
_ArchTick
  1

  0
LWPOLYLINE
  5
50
330
4F
100
AcDbEntity
  8
0
 62
     0
100
AcDbPolyline
 90
        2
 70
     0
 43
0.15
 10
-0.5
 20
-0.5
 10
0.5
 20
0.5
  0
ENDBLK
  5
52
330
4F
100
AcDbEntity
  8
0
100
AcDbBlockEnd
  0
BLOCK
  5
BB
330
BA
100
AcDbEntity
  8
0
100
AcDbBlockBegin
  2
_Oblique
 70
     0
 10
0.0
 20
0.0
 30
0.0
  3
_Oblique
  1

  0
LINE
  5
BC
330
BA
100
AcDbEntity
  8
0
  6
ByBlock
 62
     0
370
    -2
100
AcDbLine
 10
-0.5
 20
-0.5
 30
0.0
 11
0.5
 21
0.5
 31
0.0
  0
ENDBLK
  5
BD
330
BA
100
AcDbEntity
  8
0
100
AcDbBlockEnd
  0
BLOCK
  5
1F7
330
1F0
100
AcDbEntity
  8
0
100
AcDbBlockBegin
  2
A$C18112A55
 70
     0
 10
0.0
 20
0.0
 30
0.0
  3
A$C18112A55
  1

  0
3DSOLID
  5
1F1
330
1F0
100
AcDbEntity
  8
0
100
AcDbModelerGeometry
 70
     1
  1
koo jmf n o         
  1
ni ^ *+0;:,4 ^ *+0\^ [ nf ^ LR mnhqoqoqkjol QK o  
  1
mjqlffffffffffffff fqfffffffffffffffj:rooh n:rono 
  1
=0;& {rn {n {rn {rn |
  1
3*2/ {rn {rn {m {o |
  1
,7:33 {rn {rn {rn {l {rn {n |
  1
9><: {k {j {i {m {rn {h 90-(>-; ,6183: |
  1
2>+:-6>3r>;:,4r>++-6= {rn {g {rn {l lhi o |
  1
9><: {f {no {nn {m {rn {nm 90-(>-; ,6183: |
  1
300/ {rn {nl {nk {l |
  1
+0-*,r,*-9><: {rn kqinhikojlojlnikll mqgmohohkjjimnknih rl mqoooooooooooooooj:roni n o kgqngfihnmmhgmniil rkiqggijfofhgjgjnok o o n 90-(>-;@) V V V V |
  1
/:-,*=:1+r><>;L036;W6,+0-&r>++-6= {rn {rn {k {l n m m o |
  1
2>+:-6>3r>;:,4r>++-6= {rn {nj {rn {j lhi o |
  1
9><: {ni {nh {ng {m {rn {nf 90-(>-; ,6183: |
  1
300/ {rn {mo {mn {j |
  1
+0-*,r,*-9><: {rn kqinhikojlojlnikll mqljiijgflknnnnln rl mqoooooooooooooooj:roni n o kiqknmnkjlfmogijkl rkjqngogklkmllinjkk o o n 90-(>-;@) V V V V |
  1
300/ {rn {rn {mm {l |
  1
<0:;8: {rn {nk {nk {ml {mk -:):-,:; {i {rn |
  1
/:-,*=:1+r><>;L036;W6,+0-&r>++-6= {rn {rn {f {j n m l o |
  1
2>+:-6>3r>;:,4r>++-6= {rn {mj {rn {no lhi o |
  1
9><: {mi {mh {mg {m {rn {mf 90-(>-; ,6183: |
  1
300/ {rn {lo {ln {no |
  1
+0-*,r,*-9><: {rn kqinhikojlojlnijok niqkofffmhmofnhkjg rl mqoooooooooooooooj:roni n o rfqglgifjfhnmhjolig nmqgmfgfhfhofjfkfl o o n 90-(>-;@) V V V V |
  1
300/ {rn {rn {ml {j |
  1
<0:;8: {rn {mn {mn {lm {ll -:):-,:; {nn {rn |
  1
<0:;8: {rn {mm {mm {lk {lj 90-(>-; {nl {rn |
  1
<0:;8: {rn {ml {ml {nk {mk 90-(>-; {mo {rn |
  1
:;8: {rn {li {li {ml {lh 90-(>-; |
  1
/:-,*=:1+r><>;L036;W6,+0-&r>++-6= {rn {rn {ni {no n m k o |
  1
2>+:-6>3r>;:,4r>++-6= {rn {lg {rn {nh lhi o |
  1
9><: {lf {ko {kn {m {rn {km 90-(>-; ,6183: |
  1
300/ {rn {kl {kk {nh |
  1
+0-*,r,*-9><: {rn kqinhikojlojlnijok njqlffolnlkigomfhj rl mqoooooooooooooooj:roni n o oqgjmojghohfonmffhg mqnonjlmkhfgkojok o o n 90-(>-;@) V V V V |
  1
300/ {rn {rn {lm {no |
  1
<0:;8: {rn {ln {ln {kj {ki -:):-,:; {ng {rn |
  1
<0:;8: {rn {lm {lm {mn {ll 90-(>-; {lo {rn |
  1
:;8: {rn {kh {kh {lm {kg 90-(>-; |
  1
<0:;8: {rn {lk {lk {mm {lj -:):-,:; {kf {rn |
  1
:;8: {rn {jo {jo {mm {jn 90-(>-; |
  1
):-+:' {rn {mk {jm |
  1
:336/,:r<*-): {rn kqinhikojlojlnikig gqlmgmigoljkjhnfml rl mqoooooooooooooooj:roni n o nqimhihgmjonjnhfmn rlqmjjljijoololjgkl:roni o n V V |
  1
/:-,*=:1+r><>;L036;W6,+0-&r>++-6= {rn {rn {mi {nh n m j o |
  1
2>+:-6>3r>;:,4r>++-6= {rn {jl {rn {mh lhi o |
  1
9><: {jk {jj {ji {m {rn {jh 90-(>-; ,6183: |
  1
300/ {rn {jg {jf {mh |
  1
<01:r,*-9><: {rn kqinhikojlojlnijok niqffiohflnjnmgflk rl mqoooooooooooooooj:roni n o mqmjoijlnlkhjnfhnm rkqjonloimifjolfkmi:roni o n V V o n mqmjoijlnlkhjnfhnm 90-(>-; V V V V |
  1
300/ {rn {rn {kj {nh |
  1
<0:;8: {rn {kk {kk {io {in -:):-,:; {mg {rn |
  1
<0:;8: {rn {kj {kj {ln {ki 90-(>-; {kl {rn |
  1
:;8: {rn {im {im {kj {il 90-(>-; |
  1
):-+:' {rn {ll {ik |
  1
:336/,:r<*-): {rn kqinhikojlojlnikig nmqjklojkmjjokghif rl mqoooooooooooooooj:roni n o mqlfkjgnnlgjhikmlh rkqhgfnimmhhnjmgkhi:roni o n V V |
  1
300/ {rn {ij {lk {ii |
  1
):-+:' {rn {lj {ih |
  1
:336/,:r<*-): {rn kqinhikojlojlnikig iqhmnjmoonlglmhjgf rl mqoooooooooooooooj:roni n o nqkijimfjoklmhlmgm rmqflnmjfoogijkijij:roni o n V V |
  1
/061+ {rn iqmkjlnghgoiglklgf gqlmgmigoljkjhnfml rl |
  1
/:-,*=:1+r><>;L036;W6,+0-&r>++-6= {rn {rn {lf {mh l m i o m g o m nk o |
  1
2>+:-6>3r>;:,4r>++-6= {rn {ig {rn {ko lhi o |
  1
9><: {if {ho {hn {m {rn {hm 90-(>-; ,6183: |
  1
300/ {rn {hl {hk {ko |
  1
+0-*,r,*-9><: {rn kqinhikojlojlnijok nhqiomhfilomnljlgn rl mqoooooooooooooooj:roni n o mqklfffignnnlfnkmk roqiogklgolghhhhhgjg o o n 90-(>-;@) V V V V |
  1
300/ {rn {rn {io {mh |
  1
<0:;8: {rn {jf {jf {hj {hi -:):-,:; {kn {rn |
  1
<0:;8: {rn {io {io {kk {in 90-(>-; {jg {rn |
  1
:;8: {rn {hh {hh {io {hg 90-(>-; |
  1
):-+:' {rn {ki {hf |
  1
:336/,:r<*-): {rn kqinhikojlojlnijok njqkmioimlnhlkfmn rl mqoooooooooooooooj:roni n o mqfjlknhllhjiljmjj rjqfoiglkihjnmhojnl:roni o n V V |
  1
/061+ {rn hqonmmmniifnogohoj nmqjklojkmjjokghif rl |
  1
300/ {rn {rn {go {ii |
  1
9><: {gn {gm {kf {m {rn {gl 90-(>-; ,6183: |
  1
/061+ {rn iqoglmhoolkgjgfhj iqhmnjmoonlglmhjgf rl |
  1
/:-,*=:1+r><>;L036;W6,+0-&r>++-6= {rn {rn {jk {ko n m h o |
  1
2>+:-6>3r>;:,4r>++-6= {rn {gk {rn {jj lhi o |
  1
9><: {gj {gi {gh {m {rn {gg 90-(>-; ,6183: |
  1
300/ {rn {gf {fo {jj |
  1
<01:r,*-9><: {rn kqinhikojlojlnijok ngqmnmhilinimhnjlk rl mqoooooooooooooooj:roni n o mqmjoijlnlkhjnfkil rkqjonloimifjolgfml:roni o n V V o n mqmjoijlnlkhjnfkil 90-(>-; V V V V |
  1
300/ {rn {rn {hj {ko |
  1
<0:;8: {rn {hk {hk {fn {fm -:):-,:; {ji {rn |
  1
<0:;8: {rn {hj {hj {jf {hi 90-(>-; {hl {rn |
  1
:;8: {rn {fl {fl {hj {fk 90-(>-; |
  1
):-+:' {rn {in {fj |
  1
:336/,:r<*-): {rn kqinhikojlojlnijok niqfihjgghhnoonoon rl mqoooooooooooooooj:roni n o mqmjoijlnlkhjnfhnm rkqjonloimifjolfkmi:roni o n V V |
  1
/061+ {rn hqjhnojhgigofjnhjf njqkmioimlnhlkfmn rl |
  1
<0:;8: {rn {go {go {fi {fh 90-(>-; {ij {rn |
  1
2>+:-6>3r>;:,4r>++-6= {rn {fg {rn {ii lhi o |
  1
9><: {ff {noo {non {m {rn {nom 90-(>-; ,6183: |
  1
<01:r,*-9><: {rn kqinhikojlojlnikig iqoghnfjfmokngngm rl mqoooooooooooooooj:roni n o nqklillnmkjgnkkgfh rmqghmiimkfnimgfhfj:roni o n V V oqokinlgfikknlgljhnl oqffgfljolofongnfkj nqklillnmkjgnkkgfh 90-(>-; V V V V |
  1
/:-,*=:1+r><>;L036;W6,+0-&r>++-6= {rn {rn {if {jj l m i o m g o m nk o |
  1
2>+:-6>3r>;:,4r>++-6= {rn {nol {rn {ho lhi o |
  1
9><: {nok {noj {noi {m {rn {noh 90-(>-; ,6183: |
  1
300/ {rn {nog {nof {ho |
  1
+0-*,r,*-9><: {rn kqinhikojlojlnijok ngqgofiojkomgfgllg rl mqoooooooooooooooj:roni n o mqoogllkmimjnjojik oqinkgilhfonnlgggol o o n 90-(>-;@) V V V V |
  1
300/ {rn {rn {fn {jj |
  1
<0:;8: {rn {fo {fo {nno {nnn -:):-,:; {hn {rn |
  1
<0:;8: {rn {fn {fn {hk {fm 90-(>-; {gf {rn |
  1
:;8: {rn {nnm {nnm {fn {nnl 90-(>-; |
  1
):-+:' {rn {hi {nnk |
  1
:336/,:r<*-): {rn kqinhikojlojlnijok nhqomkjifgjfmjigig rl mqoooooooooooooooj:roni n o mqmjoijlnlkhjnfhnm rkqjonloimifjolfkmi:roni o n V V |
  1
/061+ {rn iqgigmfliijmglimnj niqfihjgghhnoonoon rl |
  1
<0:;8: {rn {fi {fi {go {fh -:):-,:; {nnj {rn |
  1
:;8: {rn {nni {nni {go {nnh 90-(>-; |
  1
/:-,*=:1+r><>;L036;W6,+0-&r>++-6= {rn {rn {gn {ii n m n o |
  1
/:-,*=:1+r><>;L036;W6,+0-&r>++-6= {rn {nng {rn {gm n n nooooooooo n |
  1
9><: {nnf {nmo {nmn {m {rn {nmm 90-(>-; ,6183: |
  1
300/ {rn {rn {nml {gm |
  1
/3>1:r,*-9><: {rn kqinhikojlojlniknj nkqkfffffflgjhhomh o o o n rnqglifhonfghmnomfh:roni rn o 90-(>-;@) V V V V |
  1
/:-,*=:1+r><>;L036;W6,+0-&r>++-6= {rn {rn {gj {ho n m f o |
  1
2>+:-6>3r>;:,4r>++-6= {rn {nmk {rn {gi lhi o |
  1
9><: {nmj {nmi {nmh {m {rn {nmg 90-(>-; ,6183: |
  1
300/ {rn {nmf {nlo {gi |
  1
+0-*,r,*-9><: {rn kqinhikojlojlnijok nfqmikgfgkoommlnoh rl mqoooooooooooooooj:roni n o mqmjooljgnghknjlon oqiojhmnnhfomlnofjn o o n 90-(>-;@) V V V V |
  1
300/ {rn {rn {nno {ho |
  1
<0:;8: {rn {nof {nof {nln {nlm -:):-,:; {gh {rn |
  1
<0:;8: {rn {nno {nno {fo {nnn 90-(>-; {nog {rn |
  1
:;8: {rn {nll {nll {nno {nlk 90-(>-; |
  1
):-+:' {rn {fm {nlj |
  1
:336/,:r<*-): {rn kqinhikojlojlnijok ngqngnommhkjonlggh rl mqoooooooooooooooj:roni n o mqmjoijlnlkhjnfkil rkqjonloimifjolgfml:roni o n V V |
  1
/061+ {rn iqgigmfliijmglimnj nhqomkjifgjfmjigig rl |
  1
300/ {rn {nli {fi {nlh |
  1
):-+:' {rn {fh {nlg |
  1
:336/,:r<*-): {rn kqinhikojlojlnikig jqkjmghngmhoolinml rl mqoooooooooooooooj:roni n o nqkoholmfghlonijnm rmqgnkoijfhkiollomj:roni o n V V |
  1
2>+:-6>3r>;:,4r>++-6= {rn {rn {ff {gm lhi o |
  1
/:-,*=:1+r><>;L036;W6,+0-&r>++-6= {rn {nlf {rn {noo n n k o |
  1
9><: {nko {nkn {nkm {m {rn {nkl 90-(>-; ,6183: |
  1
300/ {rn {rn {nkk {noo |
  1
/3>1:r,*-9><: {rn hqinhikojlojlniknj riqnkmmfghjgjokifk:roog o n rjqjnmnfnmkjhjioloi:roni o o o n 90-(>-;@) V V V V |
  1
<0:;8: {rn {nkj {nki {nkh {nkg -:):-,:; {non {rn |
  1
/:-,*=:1+r><>;L036;W6,+0-&r>++-6= {rn {rn {nok {gi n m no o |
  1
2>+:-6>3r>;:,4r>++-6= {rn {nkf {rn {noj lhi o |
  1
9><: {njo {njn {njm {m {rn {njl 90-(>-; ,6183: |
  1
300/ {rn {njk {njj {noj |
  1
+0-*,r,*-9><: {rn kqinhikojlojlnijok nfqhfgfjinkfkinmf rl mqoooooooooooooooj:roni n o mqmmhjolhhokhfhmkf oqhmifkknmfgklglohm o o n 90-(>-;@) V V V V |
  1
300/ {rn {rn {nln {gi |
  1
<0:;8: {rn {nlo {nlo {nji {njh -:):-,:; {noi {rn |
  1
<0:;8: {rn {nln {nln {nof {nlm 90-(>-; {nmf {rn |
  1
:;8: {rn {njg {njg {nln {njf 90-(>-; |
  1
):-+:' {rn {nnn {nio |
  1
:336/,:r<*-): {rn kqinhikojlojlnijok ngqmkkjokkghjmfngn rl mqoooooooooooooooj:roni n o mqmjoijlnlkhjnfkmh rkqjonloimifjolggjk:roni o n V V |
  1
/061+ {rn iqgigmfliijmgljfii ngqngnommhkjonlggh rl |
  1
300/ {rn {rn {nin {nlh |
  1
9><: {nim {ii {nnj {m {rn {nil 90-(>-; ,6183: |
  1
/061+ {rn iqomkihljnhgllmfg jqkjmghngmhoolinml rl |
  1
2>+:-6>3r>;:,4r>++-6= {rn {rn {nnf {noo lhi o |
  1
/:-,*=:1+r><>;L036;W6,+0-&r>++-6= {rn {nik {rn {nmo m n l o m mk o |
  1
9><: {nij {nii {nih {m {rn {nig 90-(>-; ,6183: |
  1
300/ {rn {rn {nif {nmo |
  1
/3>1:r,*-9><: {rn nqinhikojlojlniknj riqnkmmfghjgjokifk:roog o rnqglifhonfghmnomfh:roni rn o o ro rn 90-(>-;@) V V V V |
  1
<0:;8: {rn {nho {nhn {nhm {nhl -:):-,:; {nmn {rn |
  1
<0:;8: {rn {nhk {nml {nhn {nhj 90-(>-; {non {rn |
  1
<0:;8: {rn {nml {nhk {nhi {nhh 90-(>-; {non {rn |
  1
<0:;8: {rn {nhg {nhm {nml {nkg 90-(>-; {nhf {rn |
  1
:;8: {rn {ngo {ngn {nml {ngm 90-(>-; |
  1
/:-,*=:1+r><>;L036;W6,+0-&r>++-6= {rn {rn {nmj {noj n m nn o |
  1
2>+:-6>3r>;:,4r>++-6= {rn {ngl {rn {nmi lhi o |
  1
9><: {ngk {ngj {ngi {m {rn {ngh 90-(>-; ,6183: |
  1
300/ {rn {ngg {ngf {nmi |
  1
+0-*,r,*-9><: {rn kqinhikojlojlnijok moqlllonlgfgiffkgk rl mqoooooooooooooooj:roni n o mqmjooljgnghknjlon oqiojhmnnhfomlnofjn o o n 90-(>-;@) V V V V |
  1
300/ {rn {rn {nji {noj |
  1
<0:;8: {rn {njj {njj {nfo {nfn -:):-,:; {nmh {rn |
  1
<0:;8: {rn {nji {nji {nlo {njh 90-(>-; {njk {rn |
  1
:;8: {rn {nfm {nfm {nji {nfl 90-(>-; |
  1
):-+:' {rn {nlm {nfk |
  1
:336/,:r<*-): {rn kqinhikojlojlnijok ngqhghkingfkhmfml rl mqoooooooooooooooj:roni n o mqimmhffnggiknnhhf rjqmkjjfglhhmgmljjm:roni o n V V |
  1
/061+ {rn iqgigmfliijmgljfln ngqmkkjokkghjmfngn rl |
  1
<0:;8: {rn {nin {nin {nfj {nfi 90-(>-; {nli {rn |
  1
2>+:-6>3r>;:,4r>++-6= {rn {nfh {rn {nlh lhi o |
  1
+0-*,r,*-9><: {rn kqinhikojlojlnikig jqmgmknllglmoinhin rl mqoooooooooooooooj:roni n o nqllmmlmklgklhofml oqnginkgllikhkijfih o o n 90-(>-;@) V V V V |
  1
2>+:-6>3r>;:,4r>++-6= {rn {rn {nko {nmo lhi o |
  1
2>+:-6>3r>;:,4r>++-6= {rn {nfg {rn {nkn lhi o |
  1
9><: {nff {moo {mon {m {rn {mom 90-(>-; ,6183: |
  1
300/ {rn {rn {mol {nkn |
  1
/3>1:r,*-9><: {rn nqinhikojlojlniknj mgqffffffflgjhhom o rn nqglifhonfghmnomfh:roni o o ro rn 90-(>-;@) V V V V |
  1
<0:;8: {rn {nif {nif {mok {moj -:):-,:; {nkm {rn |
  1
<0:;8: {rn {moi {nkk {moh {mog 90-(>-; {nmn {rn |
  1
<0:;8: {rn {nkk {moi {nkj {nhj -:):-,:; {nmn {rn |
  1
<0:;8: {rn {nkh {mof {nkk {nhl 90-(>-; {nhf {rn |
  1
:;8: {rn {mno {ngo {nkk {mnn 90-(>-; |
  1
<0:;8: {rn {nki {nkj {mnm {mnl 90-(>-; {non {rn |
  1
:;8: {rn {ngo {mnk {nhn {mnj 90-(>-; |
  1
<0:;8: {rn {mni {mol {nki {nhh -:):-,:; {nih {rn |
  1
:;8: {rn {mnh {ngn {nhi {mng 90-(>-; |
  1
<0:;8: {rn {mof {nkh {mol {mnf 90-(>-; {nhf {rn |
  1
300/ {rn {mmo {nhm {mmn |
  1
):-+:' {rn {nhj {mmm |
  1
):-+:' {rn {nkg {mml |
  1
61+<*-):r<*-): {rn 90-(>-; $ :'><+<*- 1*-=, m 0/:1 m 
  1
 oqlijkfjonhhnflokm m iqgimmmfihmikknjji m 
  1
 hqinhikojlojlnijkg mkqkiflhgmgooonhgn nqnnommlomkimjnjij:roni nqojnhhiifmjgkgnmk 
  1
 kqinhikojlojlnifgl mlqlklmgkikojgojgg nqngnifoffnomjjffj:roni nqkghkligilmknong 
  1
 nqinhikojlojlnikok mkqkiflhgmgooonhgk rkqffioolinognlmokk:roni nqojnhhiifmjgkgnnj 
  1
 o 
  1
 1*33@,*-9><: 
  1
 1*33@,*-9><: 
  1
 1*33=, 
  1
 1*33=, 
  1
 V V 
  1
 o 
  1
 o 
  1
 o 
  1
 Y n Y o " V V |
  1
/:-,*=:1+r><>;L036;W6,+0-&r>++-6= {rn {rn {njo {nmi n m nm o |
  1
2>+:-6>3r>;:,4r>++-6= {rn {mmk {rn {njn lhi o |
  1
9><: {mmj {mmi {mmh {m {rn {mmg 90-(>-; ,6183: |
  1
300/ {rn {mmf {mlo {njn |
  1
+0-*,r,*-9><: {rn kqinhikojlojlnijok moqhggloigfiomkmjl rl mqoooooooooooooooj:roni n o mqoogllkmimjnjojik oqinkgilhfonnlgggol o o n 90-(>-;@) V V V V |
  1
300/ {rn {rn {nfo {nmi |
  1
<0:;8: {rn {ngf {ngf {mln {mlm -:):-,:; {njm {rn |
  1
<0:;8: {rn {nfo {nfo {njj {nfn 90-(>-; {ngg {rn |
  1
:;8: {rn {mll {mll {nfo {mlk 90-(>-; |
  1
):-+:' {rn {njh {mlj |
  1
:336/,:r<*-): {rn kqinhikojlojlnijok nfqkoioohihkighjf rl mqoooooooooooooooj:roni n o mqglfofnmijjngnfmn rjqihgngmjlnolilglg:roni o n V V |
  1
/061+ {rn hqmkoklfhnfnhmgmgm ngqhghkingfkhmfml rl |
  1
<0:;8: {rn {nfj {nfj {nin {nfi -:):-,:; {mli {rn |
  1
:;8: {rn {mlh {mlh {nin {mlg 90-(>-; |
  1
/:-,*=:1+r><>;L036;W6,+0-&r>++-6= {rn {rn {nim {nlh n m ko o |
  1
/:-,*=:1+r><>;L036;W6,+0-&r>++-6= {rn {rn {nij {nkn n n m o |
  1
2>+:-6>3r>;:,4r>++-6= {rn {mlf {rn {nii lhi o |
  1
9><: {mko {rn {mkn {m {rn {mkm -:):-,:; ,6183: |
  1
300/ {rn {rn {mkl {nii |
  1
/3>1:r,*-9><: {rn hqinhikojlojlnijmn mgqffffffflgjhhonm o nqglifhonfghmnomfh:roni n ro o o n 90-(>-;@) V V V V |
  1
<0:;8: {rn {nhi {mkk {nhg {mnf -:):-,:; {nih {rn |
  1
<0:;8: {rn {mok {mok {nif {moj 90-(>-; {mkj {rn |
  1
:;8: {rn {mki {mki {nif {mkh 90-(>-; |
  1
<0:;8: {rn {nhn {nho {mkg {mkf -:):-,:; {nmn {rn |
  1
<0:;8: {rn {mjo {mjn {nho {mog -:):-,:; {mkn {rn |
  1
:;8: {rn {mno {mjm {nho {mjl 90-(>-; |
  1
<0:;8: {rn {nhm {nhg {mjo {mjk 90-(>-; {nhf {rn |
  1
):-+:' {rn {mog {mjj |
  1
61+<*-):r<*-): {rn 90-(>-; $ :'><+<*- 1*-=, m 0/:1 m 
  1
 oqlijkfjonhhnflnnfm m iqgimmmfihmikknjnm m 
  1
 hqinhikojlojlnijkg mkqkiflhgmgooonhgn ri nqojnhhiifmjgkgnlj 
  1
 hqinhikojlojlnijkg mlqlklmgkikojgojfm rlqooooooooooooojmk nqkghkligilmknonim 
  1
 hqinhikojlojlnijkg mkqkiflhgmgooonhgn nqnnommlomkimjnjij:roni nqojnhhiifmjgkgnll 
  1
 o 
  1
 1*33@,*-9><: 
  1
 1*33@,*-9><: 
  1
 1*33=, 
  1
 1*33=, 
  1
 V V 
  1
 o 
  1
 o 
  1
 o 
  1
 Y n Y o " V V |
  1
<0:;8: {rn {mkg {mji {nhk {mnl -:):-,:; {mon {rn |
  1
:;8: {rn {mnk {mnh {mnm {mjh 90-(>-; |
  1
):-+:' {rn {mnl {mjg |
  1
,+->687+r<*-): {rn hqinhikojlojlniknj riqnkmmfghjgjokifk:roog o jqjnmnfnmkjhjioloi:roni n o V V |
  1
<0:;8: {rn {mkk {nhi {mji {mjf 90-(>-; {nih {rn |
  1
):-+:' {rn {mnl {mio |
  1
,+->687+r<*-): {rn nqinhikojlojlniknj mgqffffffflgjhhom o rnqglifhonfghmnomfh:roni rn o V V |
  1
:;8: {rn {ngn {min {mol {mim 90-(>-; |
  1
300/ {rn {rn {mil {mmn |
  1
9><: {mik {mij {nhf {m {rn {mii 90-(>-; ,6183: |
  1
/061+ {rn hqinhikojlojlnijkg mkqkiflhgmgooonhgn nqnnommlomkimjnjij:roni |
  1
/061+ {rn nqinhikojlojlnikok mkqkiflhgmgooonhgk rkqffioolinognlmokk:roni |
  1
/:-,*=:1+r><>;L036;W6,+0-&r>++-6= {rn {rn {ngk {njn n m nl o |
  1
2>+:-6>3r>;:,4r>++-6= {rn {mih {rn {ngj lhi o |
  1
9><: {mig {mif {mho {m {rn {mhn 90-(>-; ,6183: |
  1
300/ {rn {mhm {mhl {ngj |
  1
<01:r,*-9><: {rn kqinhikojlojlnijok mnqlgjnkgigmijnojl rl mqoooooooooooooooj:roni n o mqmjoijlnlkhjnflfm rkqjonloimifjolghgj:roni o n V V o n mqmjoijlnlkhjnflfm 90-(>-; V V V V |
  1
300/ {rn {rn {mln {njn |
  1
<0:;8: {rn {mlo {mlo {mhk {mhj -:):-,:; {ngi {rn |
  1
<0:;8: {rn {mln {mln {ngf {mlm 90-(>-; {mmf {rn |
  1
:;8: {rn {mhi {mhi {mln {mhh 90-(>-; |
  1
):-+:' {rn {nfn {mhg |
  1
:336/,:r<*-): {rn kqinhikojlojlnijok moqnfnfokimkmljook rl mqoooooooooooooooj:roni n o mqglfofnmijjngnfmn rjqihgngmjlnolilglg:roni o n V V |
  1
/061+ {rn hqkjihlnhfiokfgkmj nfqkoioohihkighjf rl |
  1
300/ {rn {mhf {nfj {mgo |
  1
):-+:' {rn {nfi {mgn |
  1
:336/,:r<*-): {rn kqinhikojlojlnikig jqnomhlggolmolioon rl mqoooooooooooooooj:roni n o nqlgogfhofnijghnhn rmqhinhfkngllnhklkm:roni o n V V |
  1
/:-,*=:1+r><>;L036;W6,+0-&r>++-6= {rn {rn {nff {nii m n n o m mm o |
  1
2>+:-6>3r>;:,4r>++-6= {rn {mgm {rn {moo lhi o |
  1
300/ {rn {rn {mjo {moo |
  1
/3>1:r,*-9><: {rn kqinhikojlojlniknj nkqkfffffflgjhhomh ri o o n rnqglifhonfghmnomfh:roni rn o 90-(>-;@) V V V V |
  1
<0:;8: {rn {mji {mkg {mjn {mgl 90-(>-; {mon {rn |
  1
<0:;8: {rn {mol {mni {mgk {mgj 90-(>-; {nih {rn |
  1
300/ {rn {rn {mok {mij |
  1
):-+:' {rn {moj {mgi |
  1
:336/,:r<*-): {rn kqinhikojlojlnikig riqnkmmfggnkonjgkjm:roog rl nqglifhonfghmnomfh:roni n ro oqfffffffffffffffll rnqffffffffffffffgh:roni o n V V |
  1
<0:;8: {rn {mkl {mnm {moi {mkf 90-(>-; {mon {rn |
  1
:;8: {rn {mnk {mjm {mkg {mgh 90-(>-; |
  1
<0:;8: {rn {mgk {moh {mof {mjk -:):-,:; {mkn {rn |
  1
<0:;8: {rn {moh {mgk {mkl {mgl -:):-,:; {mkn {rn |
  1
):-+:' {rn {mkf {mgg |
  1
,+->687+r<*-): {rn hqinhikojlojlniknj riqnkmmfghjgjokifk:roog ri jqjnmnfnmkjhjioloi:roni n o V V |
  1
:;8: {rn {min {mno {mjo {mgf 90-(>-; |
  1
/061+ {rn hqinhikojlojlnijkg mkqkiflhgmgooonhgn ri |
  1
<0:;8: {rn {mnm {mkl {mni {mjf -:):-,:; {mon {rn |
  1
,+->687+r<*-): {rn hqinhikojlojlnijmn mgqffffffflgjhhonm o rn nqglifhonfghmnomfh:roni o V V |
  1
/061+ {rn hqinhikojlojlnijmn mgqffffffflgjhhonm o |
  1
:;8: {rn {mnh {mfo {mni {mfn 90-(>-; |
  1
/061+ {rn nqinhikojlojlniknj mgqffffffflgjhhom o |
  1
):-+:' {rn {mjk {mfm |
  1
61+<*-):r<*-): {rn 90-(>-; $ :'><+<*- 1*-=, m 0/:1 m 
  1
 oqlijkfjonhhnfmfgn m iqgimmmfihmikknlni m 
  1
 nqinhikojlojlnikok mkqkiflhgmgooonhgk rkqffioolinognlmokk:roni nqojnhhiifmjgkgnln 
  1
 nqinhikojlojlnilff mlqlklmgkikojgojfj rmqfffffffffffffkil nqkghkligilmknolom 
  1
 nqinhikojlojlnikoi mkqkiflhgmgooonhgk ri nqojnhhiifmjgkgnlj 
  1
 o 
  1
 1*33@,*-9><: 
  1
 1*33@,*-9><: 
  1
 1*33=, 
  1
 1*33=, 
  1
 V V 
  1
 o 
  1
 o 
  1
 o 
  1
 Y n Y o " V V |
  1
<0:;8: {rn {mil {mil {mfl {mfk 90-(>-; {mmo {rn |
  1
2>+:-6>3r>;:,4r>++-6= {rn {mfj {rn {mmn lhi o |
  1
9><: {mfi {mfh {mfg {m {rn {mff 90-(>-; ,6183: |
  1
<01:r,*-9><: {rn kqinhikojlojlnijok mkqnogogkjngogjfil rl mqoooooooooooooooj:roni n o lqjimokomikmhklhil rhqnmkogojmgjkghjmm:roni o n V V oqgglmilijkhhgnighn oqkigghiijlkkhmhoh lqjimokomikmhklhil 90-(>-; V V V V |
  1
/:-,*=:1+r><>;L036;W6,+0-&r>++-6= {rn {rn {mmj {ngj l m i o m g o m nk o |
  1
2>+:-6>3r>;:,4r>++-6= {rn {loo {rn {mmi lhi o |
  1
9><: {lon {lom {lol {m {rn {lok 90-(>-; ,6183: |
  1
300/ {rn {loj {loi {mmi |
  1
+0-*,r,*-9><: {rn kqinhikojlojlnijok mnqfgfhgghfkhohnlg rl mqoooooooooooooooj:roni n o mqkmgnnomgiojjkhnn roqjffhjlhiiighhfnig o o n 90-(>-;@) V V V V |
  1
300/ {rn {rn {mhk {ngj |
  1
<0:;8: {rn {mhl {mhl {loh {log -:):-,:; {mmh {rn |
  1
<0:;8: {rn {mhk {mhk {mlo {mhj 90-(>-; {mhm {rn |
  1
:;8: {rn {lof {lof {mhk {lno 90-(>-; |
  1
):-+:' {rn {mlm {lnn |
  1
:336/,:r<*-): {rn kqinhikojlojlnijok moqgnokjokoknfllin rl mqoooooooooooooooj:roni n o mqimmhffnggiknnhhf rjqmkjjfglhhmgmljjm:roni o n V V |
  1
/061+ {rn hqkjihlnhfiokfgkmj moqnfnfokimkmljook rl |
  1
300/ {rn {rn {lnm {mgo |
  1
9><: {lnl {nlh {mli {m {rn {lnk 90-(>-; ,6183: |
  1
/061+ {rn jqffgjlhimmnfolilf jqnomhlggolmolioon rl |
  1
/:-,*=:1+r><>;L036;W6,+0-&r>++-6= {rn {rn {mko {moo n n nooooooooo m |
  1
:;8: {rn {mjm {mfo {mkl {lnj 90-(>-; |
  1
<0:;8: {rn {mjn {mjo {mkk {mgj -:):-,:; {mkn {rn |
  1
:;8: {rn {mfo {min {mkk {lni 90-(>-; |
  1
/061+ {rn jqinhikojlojlnikig riqnkmmffkifokhkmfh:roog rl |
  1
,+->687+r<*-): {rn hqinhikojlojlnijmn mgqffffffflgjhhonm o o ro rn V V |
  1
/061+ {rn hqinhikojlojlnijmn mgqffffffflgjhhonm ri |
  1
61+<*-):r<*-): {rn 90-(>-; $ :'><+<*- 1*-=, m 0/:1 m 
  1
 oqlijkfjonhhnfmffhi m iqgimmmfihmikknjnm m 
  1
 nqinhikojlojlnikoi mkqkiflhgmgooonhgk ri nqojnhhiifmjgkgnng 
  1
 kqinhikojlojlnjfhn mlqlklmgkikojgojfm ri nqkghkligilmknonhg 
  1
 hqinhikojlojlnijkg mkqkiflhgmgooonhgn ri nqojnhhiifmjgkgnm 
  1
 o 
  1
 1*33@,*-9><: 
  1
 1*33@,*-9><: 
  1
 1*33=, 
  1
 1*33=, 
  1
 V V 
  1
 o 
  1
 o 
  1
 o 
  1
 Y n Y o " V V |
  1
):-+:' {rn {mjf {lnh |
  1
,+->687+r<*-): {rn nqinhikojlojlniknj mgqffffffflgjhhom o o ro rn V V |
  1
/061+ {rn nqinhikojlojlnikoi mkqkiflhgmgooonhgk ri |
  1
<0:;8: {rn {mfl {mfl {mil {mfk -:):-,:; {lng {rn |
  1
:;8: {rn {lnf {lnf {mil {lmo 90-(>-; |
  1
/:-,*=:1+r><>;L036;W6,+0-&r>++-6= {rn {rn {mik {mmn n m mo o |
  1
2>+:-6>3r>;:,4r>++-6= {rn {lmn {rn {mij lhi o |
  1
9><: {lmm {lml {lmk {m {rn {lmj 90-(>-; ,6183: |
  1
300/ {rn {mkj {lmi {mij |
  1
<01:r,*-9><: {rn kqinhikojlojlnikig oqjfofokhfkonkoligk rl mqoooooooooooooooj:roni n o nqoijmmloilmokgmml rmqnlokkinmikofikkj:roni o n V V oqnofhnnfhjjmmkmjil oqfflfilkmnohogffhk nqoijmmloilmokgmml 90-(>-; V V V V |
  1
/:-,*=:1+r><>;L036;W6,+0-&r>++-6= {rn {rn {mig {mmi n m nj o |
  1
2>+:-6>3r>;:,4r>++-6= {rn {lmh {rn {mif lhi o |
  1
9><: {lmg {lmf {llo {m {rn {lln 90-(>-; ,6183: |
  1
300/ {rn {llm {lll {mif |
  1
<01:r,*-9><: {rn kqinhikojlojlnijok mmqimfgihinlfknjlg rl mqoooooooooooooooj:roni n o mqlhmmkmmjnhnglijm rkqhkkkgkjolklihl:roni o n V V oqgglmilijkhhgngnol oqkigghiijlkkhmkhii mqlhmmkmmjnhnglijm 90-(>-; V V V V |
  1
300/ {rn {rn {loh {mmi |
  1
<0:;8: {rn {loi {loi {llk {llj -:):-,:; {mho {rn |
  1
<0:;8: {rn {loh {loh {mhl {log 90-(>-; {loj {rn |
  1
:;8: {rn {lli {lli {loh {llh 90-(>-; |
  1
):-+:' {rn {mhj {llg |
  1
:336/,:r<*-): {rn kqinhikojlojlnijok mnqljlkohgnnlflkn rl mqoooooooooooooooj:roni n o mqmjoijlnlkhjnflfm rkqjonloimifjolghgj:roni o n V V |
  1
/061+ {rn hqmkoklfhnfnhmgmgm moqgnokjokoknfllin rl |
  1
<0:;8: {rn {lnm {lnm {llf {lko 90-(>-; {mhf {rn |
  1
2>+:-6>3r>;:,4r>++-6= {rn {lkn {rn {mgo lhi o |
  1
<01:r,*-9><: {rn kqinhikojlojlnikig jqohhhlggolmolionj rl mqoooooooooooooooj:roni n o nqlgogfhofnijghnhn rmqhinhfkngllnhklkm:roni o n V V o n nqlgogfhofnijghnhn 90-(>-; V V V V |
  1
,+->687+r<*-): {rn hqinhikojlojlnijmn mgqffffffflgjhhonm ri rn nqglifhonfghmnomfh:roni o V V |
  1
,+->687+r<*-): {rn nqinhikojlojlniknj mgqffffffflgjhhom ri rnqglifhonfghmnomfh:roni rn o V V |
  1
/061+ {rn nqinhikojlojlniknj mgqffffffflgjhhom ri |
  1
300/ {rn {lkm {mfl {lkl |
  1
):-+:' {rn {mfk {lkk |
  1
:336/,:r<*-): {rn kqinhikojlojlnijok mlqjkhhmlijkkmjknn rl mqoooooooooooooooj:roni n o mqjoiklfginohnmjhl rjqonmghfhmmnkmjnkg:roni o n V V |
  1
/:-,*=:1+r><>;L036;W6,+0-&r>++-6= {rn {rn {mfi {mij n m mj o |
  1
2>+:-6>3r>;:,4r>++-6= {rn {lkj {rn {mfh lhi o |
  1
9><: {lki {lkh {lkg {m {rn {lkf 90-(>-; ,6183: |
  1
300/ {rn {ljo {ljn {mfh |
  1
<01:r,*-9><: {rn kqinhikojlojlnikig nqnfllfkokloknmjm rl mqoooooooooooooooj:roni n o nqnjmmigijkmkkmjmg rmqlokjlhlogkggjojh:roni o n V V oqgglmilijkhhgnllim oqkigghiijlkkhllign nqnjmmigijkmkkmjmg 90-(>-; V V V V |
  1
<0:;8: {rn {lmi {lmi {ljm {ljl -:):-,:; {mfg {rn |
  1
/:-,*=:1+r><>;L036;W6,+0-&r>++-6= {rn {rn {lon {mif n m ni o |
  1
2>+:-6>3r>;:,4r>++-6= {rn {ljk {rn {lom lhi o |
  1
9><: {ljj {lkl {lji {m {rn {ljh 90-(>-; ,6183: |
  1
300/ {rn {ljg {ljf {lom |
  1
<01:r,*-9><: {rn kqinhikojlojlnijok mmqhmkfihhollmgfhj rl mqoooooooooooooooj:roni n o mqjoiklfgihhjkmkmn rjqonmghfhljjogkglf:roni o n V V o n mqjoiklfgihhjkmkmn 90-(>-; V V V V |
  1
300/ {rn {rn {llk {mif |
  1
<0:;8: {rn {lll {lll {lio {lin -:):-,:; {lol {rn |
  1
<0:;8: {rn {llk {llk {loi {llj 90-(>-; {llm {rn |
  1
:;8: {rn {lim {lim {llk {lil 90-(>-; |
  1
):-+:' {rn {log {lik |
  1
:336/,:r<*-): {rn kqinhikojlojlnijok mnqkniggfjjlfogh rl mqoooooooooooooooj:roni n o mqmjoijlnlkhjnflji rkqjonloimifjolghni:roni o n V V |
  1
/061+ {rn iqgigmfliijmgljgfj mnqljlkohgnnlflkn rl |
  1
<0:;8: {rn {llf {llf {lnm {lko -:):-,:; {lij {rn |
  1
:;8: {rn {lii {lii {lnm {lih 90-(>-; |
  1
/:-,*=:1+r><>;L036;W6,+0-&r>++-6= {rn {rn {lnl {mgo n m lf o |
  1
300/ {rn {rn {lig {lkl |
  1
9><: {lif {mmn {lng {m {rn {lho 90-(>-; ,6183: |
  1
/061+ {rn hqnmkogolfniomfohi mlqjkhhmlijkkmjknn rl |
  1
/:-,*=:1+r><>;L036;W6,+0-&r>++-6= {rn {rn {lmm {mfh n m mi o |
  1
2>+:-6>3r>;:,4r>++-6= {rn {lhn {rn {lml lhi o |
  1
9><: {lhm {lhl {lhk {m {rn {lhj 90-(>-; ,6183: |
  1
300/ {rn {lhi {lhh {lml |
  1
<01:r,*-9><: {rn kqinhikojlojlnikig nqmmooolnmfmhfnkfl rl mqoooooooooooooooj:roni n o nqnhkofnngmohggjhj rmqlkgngmliknjhhnkf:roni o n V V o n nqnhkofnngmohggjhj 90-(>-; V V V V |
  1
300/ {rn {rn {ljm {mfh |
  1
<0:;8: {rn {ljn {ljn {lhg {lhf -:):-,:; {lmk {rn |
  1
<0:;8: {rn {ljm {ljm {lmi {ljl 90-(>-; {ljo {rn |
  1
:;8: {rn {lgo {lgo {ljm {lgn 90-(>-; |
  1
/:-,*=:1+r><>;L036;W6,+0-&r>++-6= {rn {rn {lmg {lom m m nh o m nf o |
  1
2>+:-6>3r>;:,4r>++-6= {rn {lgm {rn {lmf lhi o |
  1
300/ {rn {lgl {lgk {lmf |
  1
+0-*,r,*-9><: {rn kqinhikojlojlnijok mlqnmkknkhjikihmff rl mqoooooooooooooooj:roni n o mqllgilnglfhngoonl oqknnligniomgnffhfn o o n 90-(>-;@) V V V V |
  1
300/ {rn {rn {lio {lom |
  1
<0:;8: {rn {ljf {ljf {lgj {lgi -:):-,:; {llo {rn |
  1
<0:;8: {rn {lio {lio {lll {lin 90-(>-; {ljg {rn |
  1
:;8: {rn {lgh {lgh {lio {lgg 90-(>-; |
  1
):-+:' {rn {llj {lgf |
  1
:336/,:r<*-): {rn kqinhikojlojlnijok mmqjjgimflfjjgmhnh rl mqoooooooooooooooj:roni n o mqmlgokkiljigmkggl rkqkhiogfmhnlikfhin:roni o n V V |
  1
/061+ {rn iqgigmfliijmgljgi mnqkniggfjjlfogh rl |
  1
300/ {rn {lfo {llf {lfn |
  1
):-+:' {rn {lko {lfm |
  1
:336/,:r<*-): {rn kqinhikojlojlnikig jqojmhlggolmoliomf rl mqoooooooooooooooj:roni n o nqlgogfhofnijghnhn rmqhinhfkngllnhklkm:roni o n V V |
  1
<0:;8: {rn {lig {lig {lgk {lfl 90-(>-; {lkm {rn |
  1
2>+:-6>3r>;:,4r>++-6= {rn {lfk {rn {lkl lhi o |
  1
<01:r,*-9><: {rn kqinhikojlojlnijok mlqjmlginhfijonmnm rl mqoooooooooooooooj:roni n o mqjoiklfgikknmhjnj rjqonmghfhmggmjjomg:roni o n V V o n mqjoiklfgikknmhjnj 90-(>-; V V V V |
  1
/:-,*=:1+r><>;L036;W6,+0-&r>++-6= {rn {rn {lki {lml n m mh o |
  1
2>+:-6>3r>;:,4r>++-6= {rn {lfj {rn {lkh lhi o |
  1
9><: {lfi {lfh {lfg {m {rn {lff 90-(>-; ,6183: |
  1
300/ {rn {koo {kon {lkh |
  1
+0-*,r,*-9><: {rn kqinhikojlojlnikig nqijmjmhngmhjkkfif rl mqoooooooooooooooj:roni n o oqffminjikjligonjhm oqkjjmljnffllhimmjg o o n 90-(>-;@) V V V V |
  1
300/ {rn {rn {lhg {lml |
  1
<0:;8: {rn {lhh {lhh {kom {kol -:):-,:; {lkg {rn |
  1
<0:;8: {rn {lhg {lhg {ljn {lhf 90-(>-; {lhi {rn |
  1
:;8: {rn {kok {kok {lhg {koj 90-(>-; |
  1
):-+:' {rn {ljl {koi |
  1
:336/,:r<*-): {rn kqinhikojlojlnikig nqngngofikfkjnohjj rl mqoooooooooooooooj:roni n o nqnlokkinmikofikgn rmqmiogfmmjmgnfmfi:roni o n V V |
  1
/:-,*=:1+r><>;L036;W6,+0-&r>++-6= {rn {rn {ljj {lmf n m ng o |
  1
300/ {rn {rn {lgj {lmf |
  1
<0:;8: {rn {lgk {lgk {lig {lfl -:):-,:; {lji {rn |
  1
<0:;8: {rn {lgj {lgj {ljf {lgi 90-(>-; {lgl {rn |
  1
:;8: {rn {koh {koh {lgj {kog 90-(>-; |
  1
):-+:' {rn {lin {kof |
  1
:336/,:r<*-): {rn kqinhikojlojlnijok mmqhonnojglmloolik rl mqoooooooooooooooj:roni n o mqjoiklfgihhjkmkmn rjqonmghfhljjogkglf:roni o n V V |
  1
/061+ {rn iqgjjigjniimnknlgh mmqjjgimflfjjgmhnh rl |
  1
300/ {rn {rn {kno {lfn |
  1
9><: {knn {mgo {lij {m {rn {knm 90-(>-; ,6183: |
  1
/061+ {rn jqffgjlhimmnfolilf jqojmhlggolmoliomf rl |
  1
:;8: {rn {knl {knl {lig {knk 90-(>-; |
  1
/:-,*=:1+r><>;L036;W6,+0-&r>++-6= {rn {rn {lif {lkl m m nh o m nf o |
  1
/:-,*=:1+r><>;L036;W6,+0-&r>++-6= {rn {rn {lhm {lkh n m mg o |
  1
2>+:-6>3r>;:,4r>++-6= {rn {knj {rn {lhl lhi o |
  1
9><: {kni {knh {kng {m {rn {knf 90-(>-; ,6183: |
  1
300/ {rn {kmo {kmn {lhl |
  1
<01:r,*-9><: {rn kqinhikojlojlnikig mqoiihjfojlmninlnl rl mqoooooooooooooooj:roni n o nqmnnknlffoikfmfkk rmqkmmgmhfgnmfgjggf:roni o n V V o n nqmnnknlffoikfmfkk 90-(>-; V V V V |
  1
300/ {rn {rn {kom {lkh |
  1
<0:;8: {rn {kon {kon {kmm {kml -:):-,:; {lhk {rn |
  1
<0:;8: {rn {kom {kom {lhh {kol 90-(>-; {koo {rn |
  1
:;8: {rn {kmk {kmk {kom {kmj 90-(>-; |
  1
):-+:' {rn {lhf {kmi |
  1
:336/,:r<*-): {rn kqinhikojlojlnikig nqmokfhgkliilnklji rl mqoooooooooooooooj:roni n o nqnhkofnngmohggjhj rmqlkgngmliknjhhnkf:roni o n V V |
  1
/061+ {rn jqhkgogiijifknmfkf nqngngofikfkjnohjj rl |
  1
):-+:' {rn {lgi {kmh |
  1
:336/,:r<*-): {rn kqinhikojlojlnijok mmqhkggmfjhkljhjf rl mqoooooooooooooooj:roni n o mqjoiklfgihhjkmkmn rjqonmghfhljjogkglf:roni o n V V |
  1
/061+ {rn hqnmkogolfgmgjgfmj mmqhonnojglmloolik rl |
  1
<0:;8: {rn {kno {kno {kmg {kmf 90-(>-; {lfo {rn |
  1
2>+:-6>3r>;:,4r>++-6= {rn {klo {rn {lfn lhi o |
  1
<01:r,*-9><: {rn kqinhikojlojlnikig jqoknnjkkofinlkmik rl mqoooooooooooooooj:roni n o nqkomhnfinfkfllmng rmqgojklfmlgfgiiklk:roni o n V V roqgglmilijkhhgnllim oqkigghiijlkkhllign nqkomhnfinfkfllmng 90-(>-; V V V V |
  1
):-+:' {rn {lfl {kln |
  1
:336/,:r<*-): {rn kqinhikojlojlnijok mlqkfffffflgjhhoof rl mqoooooooooooooooj:roni n o mqjoiklfgihhjkmkjh rjqonmghfhljjogkfog:roni o n V V |
  1
/:-,*=:1+r><>;L036;W6,+0-&r>++-6= {rn {rn {lfi {lhl n m mf o |
  1
2>+:-6>3r>;:,4r>++-6= {rn {klm {rn {lfh lhi o |
  1
9><: {kll {klk {klj {m {rn {kli 90-(>-; ,6183: |
  1
300/ {rn {klh {klg {lfh |
  1
<01:r,*-9><: {rn kqinhikojlojlnikig mqofllignlfkjkomgh rl mqoooooooooooooooj:roni n o nqngfjfnkimgnkigfh rmqlhfngmfmjimflhfl:roni o n V V roqgglmilijkhhgnllim oqkigghiijlkkhllign nqngfjfnkimgnkigfh 90-(>-; V V V V |
  1
300/ {rn {rn {kmm {lhl |
  1
<0:;8: {rn {kmn {kmn {klf {kko -:):-,:; {lfg {rn |
  1
<0:;8: {rn {kmm {kmm {kon {kml 90-(>-; {kmo {rn |
  1
:;8: {rn {kkn {kkn {kmm {kkm 90-(>-; |
  1
):-+:' {rn {kol {kkl |
  1
:336/,:r<*-): {rn kqinhikojlojlnikig nqmljomhgmnfmighom rl mqoooooooooooooooj:roni n o nqnhkofnngmohggjhj rmqlkgngmliknjhhnkf:roni o n V V |
  1
/061+ {rn jqhfnhlnhnminojokl nqmokfhgkliilnklji rl |
  1
/061+ {rn hqnmkogolfgmgjgfmj mmqhkggmfjhkljhjf rl |
  1
<0:;8: {rn {kmg {kmg {kno {kmf -:):-,:; {kkk {rn |
  1
:;8: {rn {kkj {kkj {kno {kki 90-(>-; |
  1
/:-,*=:1+r><>;L036;W6,+0-&r>++-6= {rn {rn {knn {lfn n m lg o |
  1
/061+ {rn hqnmkogolfgmgjgfi mlqkfffffflgjhhoof rl |
  1
/:-,*=:1+r><>;L036;W6,+0-&r>++-6= {rn {rn {kni {lfh n m lo o |
  1
2>+:-6>3r>;:,4r>++-6= {rn {kkh {rn {knh lhi o |
  1
9><: {kkg {kkf {kjo {m {rn {kjn 90-(>-; ,6183: |
  1
300/ {rn {kjm {kjl {knh |
  1
<01:r,*-9><: {rn kqinhikojlojlnikig mqnmffjmjllokkmolh rl mqoooooooooooooooj:roni n o nqnihhigflkfgoogj rmqlljjlhgiffionhon:roni o n V V o n nqnihhigflkfgoogj 90-(>-; V V V V |
  1
300/ {rn {rn {klf {lfh |
  1
<0:;8: {rn {klg {klg {kjk {kjj -:):-,:; {kng {rn |
  1
<0:;8: {rn {klf {klf {kmn {kko 90-(>-; {klh {rn |
  1
:;8: {rn {kji {kji {klf {kjh 90-(>-; |
  1
):-+:' {rn {kml {kjg |
  1
:336/,:r<*-): {rn kqinhikojlojlnikig mqojnhlkliojigknok rl mqoooooooooooooooj:roni n o nqmnnknlffoikfmfkk rmqkmmgmhfgnmfgjggf:roni o n V V |
  1
/061+ {rn jqhfnhlnhnminojokl nqmljomhgmnfmighom rl |
  1
300/ {rn {kjf {kmg {kio |
  1
):-+:' {rn {kmf {kin |
  1
:336/,:r<*-): {rn kqinhikojlojlnikig jqomfjhooniomlmkmg rl mqoooooooooooooooj:roni n o nqkmkjkmnkhlmhfmij rmqgkfogkmfkijjgjln:roni o n V V |
  1
/:-,*=:1+r><>;L036;W6,+0-&r>++-6= {rn {rn {kll {knh n m ln o |
  1
2>+:-6>3r>;:,4r>++-6= {rn {kim {rn {klk lhi o |
  1
9><: {kil {kik {kij {m {rn {kii 90-(>-; ,6183: |
  1
300/ {rn {kih {kig {klk |
  1
+0-*,r,*-9><: {rn kqinhikojlojlnikig mqllkimhnnlokihhgk rl mqoooooooooooooooj:roni n o nqnnfnokmgnhjgkiom oqnginkgllikhkijfih o o n 90-(>-;@) V V V V |
  1
300/ {rn {rn {kjk {knh |
  1
<0:;8: {rn {kjl {kjl {kif {kho -:):-,:; {klj {rn |
  1
<0:;8: {rn {kjk {kjk {klg {kjj 90-(>-; {kjm {rn |
  1
:;8: {rn {khn {khn {kjk {khm 90-(>-; |
  1
):-+:' {rn {kko {khl |
  1
:336/,:r<*-): {rn kqinhikojlojlnikig mqognhglhkjgilgkjn rl mqoooooooooooooooj:roni n o nqmnnknlffoikfmfkk rmqkmmgmhfgnmfgjggf:roni o n V V |
  1
/061+ {rn jqgmfojkjmnngofknl mqojnhlkliojigknok rl |
  1
300/ {rn {rn {khk {kio |
  1
9><: {khj {lfn {kkk {m {rn {khi 90-(>-; ,6183: |
  1
/061+ {rn iqokmngmihhgjfjhll jqomfjhooniomlmkmg rl |
  1
/:-,*=:1+r><>;L036;W6,+0-&r>++-6= {rn {rn {kkg {klk n m lm o |
  1
2>+:-6>3r>;:,4r>++-6= {rn {khh {rn {kkf lhi o |
  1
9><: {khg {khf {kgo {m {rn {kgn 90-(>-; ,6183: |
  1
300/ {rn {kgm {kgl {kkf |
  1
<01:r,*-9><: {rn kqinhikojlojlnikig lqlnimgfkogglnkkkj rl mqoooooooooooooooj:roni n o nqmiihjfohikohgnji rmqjlljngnjmgnjilnl:roni o n V V oqogfkjoonlfhlgglfjk oqffjffnlnmhnlnjknn nqmiihjfohikohgnji 90-(>-; V V V V |
  1
300/ {rn {rn {kif {klk |
  1
<0:;8: {rn {kig {kig {kgk {kgj -:):-,:; {kjo {rn |
  1
<0:;8: {rn {kif {kif {kjl {kho 90-(>-; {kih {rn |
  1
:;8: {rn {kgi {kgi {kif {kgh 90-(>-; |
  1
):-+:' {rn {kjj {kgg |
  1
:336/,:r<*-): {rn kqinhikojlojlnikig mqnokfjmjllokkmojm rl mqoooooooooooooooj:roni n o nqnihhigflkfgoogj rmqlljjlhgiffionhon:roni o n V V |
  1
/061+ {rn jqgmfojkjmnngofknl mqognhglhkjgilgkjn rl |
  1
<0:;8: {rn {khk {khk {kgf {kfo 90-(>-; {kjf {rn |
  1
2>+:-6>3r>;:,4r>++-6= {rn {kfn {rn {kio lhi o |
  1
<01:r,*-9><: {rn kqinhikojlojlnikig jqonkjkjlmllhjjmfn rl mqoooooooooooooooj:roni n o nqkmkjkmnkhlmhfmij rmqgkfogkmfkijjgjln:roni o n V V o n nqkmkjkmnkhlmhfmij 90-(>-; V V V V |
  1
/:-,*=:1+r><>;L036;W6,+0-&r>++-6= {rn {rn {kil {kkf n m ll o |
  1
2>+:-6>3r>;:,4r>++-6= {rn {kfm {rn {kik lhi o |
  1
9><: {kfl {kfk {kfj {m {rn {kfi 90-(>-; ,6183: |
  1
300/ {rn {kfh {kfg {kik |
  1
<01:r,*-9><: {rn kqinhikojlojlnikig kqnkonmgfglgokhjhj rl mqoooooooooooooooj:roni n o nqlilknillokhjojog rmqhmiglmiiofjononi:roni o n V V oqgglmilijkhhgnkllf oqkigghiijlkkhlngkf nqlilknillokhjojog 90-(>-; V V V V |
  1
300/ {rn {rn {kgk {kkf |
  1
<0:;8: {rn {kgl {kgl {kff {joo -:):-,:; {kij {rn |
  1
<0:;8: {rn {kgk {kgk {kig {kgj 90-(>-; {kgm {rn |
  1
:;8: {rn {jon {jon {kgk {jom 90-(>-; |
  1
):-+:' {rn {kho {jol |
  1
:336/,:r<*-): {rn kqinhikojlojlnikig mqnjkfjmjllokkmoml rl mqoooooooooooooooj:roni n o nqnihhigflkfgoogj rmqlljjlhgiffionhon:roni o n V V |
  1
/061+ {rn jqhgjkofkijjnnhlnf mqnokfjmjllokkmojm rl |
  1
<0:;8: {rn {kgf {kgf {khk {kfo -:):-,:; {jok {rn |
  1
:;8: {rn {joj {joj {khk {joi 90-(>-; |
  1
/:-,*=:1+r><>;L036;W6,+0-&r>++-6= {rn {rn {khj {kio n m lh o |
  1
/:-,*=:1+r><>;L036;W6,+0-&r>++-6= {rn {rn {khg {kik n m lk o |
  1
2>+:-6>3r>;:,4r>++-6= {rn {joh {rn {khf lhi o |
  1
9><: {jog {kio {jok {m {rn {jof 90-(>-; ,6183: |
  1
300/ {rn {jno {jnn {khf |
  1
<01:r,*-9><: {rn kqinhikojlojlnikig kqnihhgflffklgjkhn rl mqoooooooooooooooj:roni n o nqlghmnfllghjhkgfi rmqhhkklgihhjnkfhf:roni o n V V o n nqlghmnfllghjhkgfi 90-(>-; V V V V |
  1
300/ {rn {rn {kff {kik |
  1
<0:;8: {rn {kfg {kfg {jnm {jnl -:):-,:; {kgo {rn |
  1
<0:;8: {rn {kff {kff {kgl {joo 90-(>-; {kfh {rn |
  1
:;8: {rn {jnk {jnk {kff {jnj 90-(>-; |
  1
):-+:' {rn {kgj {jni |
  1
:336/,:r<*-): {rn kqinhikojlojlnikig mqjojogjjjigkkmnkj rl mqoooooooooooooooj:roni n o nqnflfokgloimlonfn rmqlghgofiinmkiolgl:roni o n V V |
  1
/061+ {rn jqhgjkofkijjnnhlnf mqnjkfjmjllokkmoml rl |
  1
300/ {rn {jnh {kgf {kfk |
  1
):-+:' {rn {kfo {jng |
  1
:336/,:r<*-): {rn kqinhikojlojlnikig kqfffjmoilohmhgogm rl mqoooooooooooooooj:roni n o nqkmkjkmnkhlmhfmij rmqgkfogkmfkijjgjln:roni o n V V |
  1
/:-,*=:1+r><>;L036;W6,+0-&r>++-6= {rn {rn {kfl {khf n m lj o |
  1
2>+:-6>3r>;:,4r>++-6= {rn {jnf {rn {kfk lhi o |
  1
+0-*,r,*-9><: {rn kqinhikojlojlnikig kqioolnlkjmfnlgfkh rl mqoooooooooooooooj:roni n o nqmojhklgomokiikhg oqkjjmljnffllhimmjg o o n 90-(>-;@) V V V V |
  1
300/ {rn {rn {jnm {khf |
  1
<0:;8: {rn {jnn {jnn {jmo {jmn -:):-,:; {kfj {rn |
  1
<0:;8: {rn {jnm {jnm {kfg {jnl 90-(>-; {jno {rn |
  1
:;8: {rn {jmm {jmm {jnm {jml 90-(>-; |
  1
):-+:' {rn {joo {jmk |
  1
:336/,:r<*-): {rn kqinhikojlojlnikig kqnmhkflmiogngihkj rl mqoooooooooooooooj:roni n o nqllfinllmmnfminmn rmqihfmmiikklgjmmkm:roni o n V V |
  1
/061+ {rn jqgnnjkjlinnjkiijf mqjojogjjjigkkmnkj rl |
  1
300/ {rn {rn {jmo {kfk |
  1
/061+ {rn iqokmngmihhgjfjhll kqfffjmoilohmhgogm rl |
  1
/:-,*=:1+r><>;L036;W6,+0-&r>++-6= {rn {rn {jog {kfk n m li o |
  1
<0:;8: {rn {jmo {jmo {jnn {jmn 90-(>-; {jnh {rn |
  1
:;8: {rn {jmj {jmj {jmo {jmi 90-(>-; |
  1
):-+:' {rn {jnl {jmh |
  1
:336/,:r<*-): {rn kqinhikojlojlnikig kqnjmhikhoihfoglll rl mqoooooooooooooooj:roni n o nqlghmnfllghjhkgfi rmqhhkklgihhjnkfhf:roni o n V V |
  1
/061+ {rn jqfjhmjlgjmhmkmjgf kqnmhkflmiogngihkj rl |
  1
):-+:' {rn {jmn {jmg |
  1
:336/,:r<*-): {rn kqinhikojlojlnikig kqngmgnkofmogimig rl mqoooooooooooooooj:roni n o nqlghmnfllghjhkgfi rmqhhkklgihhjnkfhf:roni o n V V |
  1
/061+ {rn iqookgjfgifmgfnlik kqnjmhikhoihfoglll rl |
  1
/061+ {rn iqookgjfgifmgfnlik kqngmgnkofmogimig rl |
  0
ENDBLK
  5
1F8
330
1F0
100
AcDbEntity
  8
0
100
AcDbBlockEnd
  0
BLOCK
  5
438
330
437
100
AcDbEntity
  8
ASHADE
100
AcDbBlockBegin
  2
AVE_GLOBAL
 70
     0
 10
0.0
 20
0.0
 30
0.0
  3
AVE_GLOBAL
  1
AVE_GLOBAL
  0
ENDBLK
  5
439
330
437
100
AcDbEntity
  8
0
100
AcDbBlockEnd
  0
BLOCK
  5
441
330
440
100
AcDbEntity
  8
ASHADE
100
AcDbBlockBegin
  2
AVE_RENDER
 70
     0
 10
0.0
 20
0.0
 30
0.0
  3
AVE_RENDER
  1
AVE_RENDER
  0
ENDBLK
  5
442
330
440
100
AcDbEntity
  8
0
100
AcDbBlockEnd
  0
BLOCK
  5
62F
330
62E
100
AcDbEntity
  8
ASHADE
100
AcDbBlockBegin
  2
RM_SDB
 70
     2
 10
0.0
 20
0.0
 30
0.0
  3
RM_SDB
  1
RM_SDB
  0
ATTDEF
  5
68B
330
62E
100
AcDbEntity
  8
ASHADE
  6
Continuous
 62
     1
100
AcDbText
 10
0.0000000000000001
 20
-0.15
 30
0.0
 40
0.2
  1

  7
ASHADE
 72
     1
 11
0.0000000000000001
 21
-0.15
 31
0.0
100
AcDbAttributeDefinition
  3
Name
  2
NAME
 70
     1
  0
ATTDEF
  5
68C
330
62E
100
AcDbEntity
  8
ASHADE
  6
Continuous
 62
     7
100
AcDbText
 10
-0.1499999999999999
 20
-0.3849999999999998
 30
0.0
 40
0.01
  1
0.0
100
AcDbAttributeDefinition
  3
Displacement Bounds
  2
DBOUND
 70
     1
  0
ATTDEF
  5
68D
330
62E
100
AcDbEntity
  8
ASHADE
  6
Continuous
 62
     7
100
AcDbText
 10
-0.1499999999999999
 20
-0.4900000000000001
 30
0.0
 40
0.01
  1
0 0 1 0 0 1 1 1
100
AcDbAttributeDefinition
  3
Texture Map Coordinates
  2
TCOORD
 70
     1
  0
ATTDEF
  5
68E
330
62E
100
AcDbEntity
  8
ASHADE
  6
Continuous
 62
     7
100
AcDbText
 10
-0.15
 20
-0.4752404735808357
 30
0.0
 40
0.01
  1

100
AcDbAttributeDefinition
  3
Atmosphere Parameters 4
  2
ATMO4
 70
     1
  0
ATTDEF
  5
68F
330
62E
100
AcDbEntity
  8
ASHADE
  6
Continuous
 62
     7
100
AcDbText
 10
-0.15
 20
-0.4602404735808358
 30
0.0
 40
0.01
  1

100
AcDbAttributeDefinition
  3
Atmosphere Parameters 3
  2
ATMO3
 70
     1
  0
ATTDEF
  5
690
330
62E
100
AcDbEntity
  8
ASHADE
  6
Continuous
 62
     7
100
AcDbText
 10
-0.15
 20
-0.4452404735808357
 30
0.0
 40
0.01
  1

100
AcDbAttributeDefinition
  3
Atmosphere Parameters 2
  2
ATMO2
 70
     1
  0
ATTDEF
  5
691
330
62E
100
AcDbEntity
  8
ASHADE
  6
Continuous
 62
     7
100
AcDbText
 10
-0.15
 20
-0.4302404735808357
 30
0.0
 40
0.01
  1

100
AcDbAttributeDefinition
  3
Atmosphere Parameters 1
  2
ATMO1
 70
     1
  0
ATTDEF
  5
692
330
62E
100
AcDbEntity
  8
ASHADE
  6
Continuous
 62
     7
100
AcDbText
 10
-0.1499999999999999
 20
-0.415
 30
0.0
 40
0.01
  1
("" "")
100
AcDbAttributeDefinition
  3
Atmosphere Shader
  2
ATMOSPHERE
 70
     1
  0
ATTDEF
  5
693
330
62E
100
AcDbEntity
  8
ASHADE
  6
Continuous
 62
     7
100
AcDbText
 10
-0.1499999999999999
 20
-0.4
 30
0.0
 40
0.01
  1
0
100
AcDbAttributeDefinition
  3
Smooth Surface
  2
SMOOTH
 70
     1
  0
ATTDEF
  5
694
330
62E
100
AcDbEntity
  8
ASHADE
  6
Continuous
 62
     7
100
AcDbText
 10
-0.1499999999999999
 20
-0.3699999999999999
 30
0.0
 40
0.01
  1

100
AcDbAttributeDefinition
  3
Displacement Parameters 4
  2
DISP4
 70
     1
  0
ATTDEF
  5
695
330
62E
100
AcDbEntity
  8
ASHADE
  6
Continuous
 62
     7
100
AcDbText
 10
-0.1499999999999999
 20
-0.355
 30
0.0
 40
0.01
  1

100
AcDbAttributeDefinition
  3
Displacement Parameters 3
  2
DISP3
 70
     1
  0
ATTDEF
  5
696
330
62E
100
AcDbEntity
  8
ASHADE
  6
Continuous
 62
     7
100
AcDbText
 10
-0.1499999999999999
 20
-0.3399999999999999
 30
0.0
 40
0.01
  1

100
AcDbAttributeDefinition
  3
Displacement Parameters 2
  2
DISP2
 70
     1
  0
ATTDEF
  5
697
330
62E
100
AcDbEntity
  8
ASHADE
  6
Continuous
 62
     7
100
AcDbText
 10
-0.1499999999999999
 20
-0.325
 30
0.0
 40
0.01
  1

100
AcDbAttributeDefinition
  3
Displacement Parameters 1
  2
DISP1
 70
     1
  0
ATTDEF
  5
698
330
62E
100
AcDbEntity
  8
ASHADE
  6
Continuous
 62
     7
100
AcDbText
 10
-0.1499999999999999
 20
-0.31
 30
0.0
 40
0.01
  1
("nulldisp" "")
100
AcDbAttributeDefinition
  3
Displacement Shader
  2
DISPLACEMENT
 70
     1
  0
ATTDEF
  5
699
330
62E
100
AcDbEntity
  8
ASHADE
  6
Continuous
 62
     7
100
AcDbText
 10
-0.1499999999999999
 20
-0.295
 30
0.0
 40
0.01
  1
-1
100
AcDbAttributeDefinition
  3
Shading Rate
  2
SHADINGRATE
 70
     1
  0
ATTDEF
  5
69A
330
62E
100
AcDbEntity
  8
ASHADE
  6
Continuous
 62
     7
100
AcDbText
 10
-0.1499999999999999
 20
-0.2799999999999999
 30
0.0
 40
0.01
  1

100
AcDbAttributeDefinition
  3
Surface Parameters 4
  2
SURF4
 70
     1
  0
ATTDEF
  5
69B
330
62E
100
AcDbEntity
  8
ASHADE
  6
Continuous
 62
     7
100
AcDbText
 10
-0.1499999999999999
 20
-0.265
 30
0.0
 40
0.01
  1

100
AcDbAttributeDefinition
  3
Surface Parameters 3
  2
SURF3
 70
     1
  0
ATTDEF
  5
69C
330
62E
100
AcDbEntity
  8
ASHADE
  6
Continuous
 62
     7
100
AcDbText
 10
-0.1499999999999999
 20
-0.25
 30
0.0
 40
0.01
  1

100
AcDbAttributeDefinition
  3
Surface Parameters 2
  2
SURF2
 70
     1
  0
ATTDEF
  5
69D
330
62E
100
AcDbEntity
  8
ASHADE
  6
Continuous
 62
     7
100
AcDbText
 10
-0.1499999999999999
 20
-0.235
 30
0.0
 40
0.01
  1

100
AcDbAttributeDefinition
  3
Surface Parameters 1
  2
SURF1
 70
     1
  0
ATTDEF
  5
69E
330
62E
100
AcDbEntity
  8
ASHADE
  6
Continuous
 62
     7
100
AcDbText
 10
-0.1499999999999999
 20
-0.22
 30
0.0
 40
0.01
  1
("nullsurf" "")
100
AcDbAttributeDefinition
  3
Surface Shader
  2
SURFACE
 70
     1
  0
ATTDEF
  5
69F
330
62E
100
AcDbEntity
  8
ASHADE
  6
Continuous
 62
     7
100
AcDbText
 10
-0.1499999999999999
 20
-0.205
 30
0.0
 40
0.01
  1
1,1,1
100
AcDbAttributeDefinition
  3
Opacity
  2
OPACITY
 70
     1
  0
ATTDEF
  5
6A0
330
62E
100
AcDbEntity
  8
ASHADE
  6
Continuous
 62
     7
100
AcDbText
 10
-0.1499999999999999
 20
-0.19
 30
0.0
 40
0.01
  1
-1,-1,-1
100
AcDbAttributeDefinition
  3
RGB Color
  2
COLOR
 70
     1
  0
ATTDEF
  5
6A1
330
62E
100
AcDbEntity
  8
ASHADE
  6
Continuous
 62
     1
100
AcDbText
 10
0.2300000000000001
 20
-0.4750000000000001
 30
0.0000000000000002
 40
0.1000000000000001
  1
-1
  7
ASHADE
100
AcDbAttributeDefinition
  3
ACAD Color Index
  2
ACADCOLOR
 70
     1
  0
ENDBLK
  5
647
330
62E
100
AcDbEntity
  8
0
100
AcDbBlockEnd
  0
ENDSEC
  0
SECTION
  2
ENTITIES
  0
EXTRUDEDSURFACE
  5
2C0
330
1F
100
AcDbEntity
  8
0
 92
     1604
310
44060000350000000C00000013000000060000000C00000016000000000000C03C00000006000000020000000000000000000000000000000000D03F000000F0FF3F41400000000000000000000000000000E03C000000F0FF3F41400C000000130000000A0000000C00000016000000000000C03C00000006000000020000
310
000400000000000C40000000000000E03C000000F0FF3F41400000000000000000000000000000E03C000000F0FF3F41400C000000130000000E0000000C00000016000000000000C03C00000006000000020000000400000000000C40000000000000E03C000000F0FF3F41400400000000000C40000000000000D03F0000
310
00F0FF3F41400C00000013000000120000000C00000016000000000000C03C00000006000000020000000400000000000C40000000000000D03F000000F0FF3F41400000000000000000000000000000D03F000000F0FF3F41400C00000013000000050000000C00000016000000000000C03C000000060000000200000000
310
00000000000000002549922449A23F000000F0FF3F41400400000000000C40002549922449A23F000000F0FF3F41400C00000013000000050000000C00000016000000000000C03C00000006000000020000000000000000000000002549922449B23F000000F0FF3F41400400000000000C40002549922449B23F000000F0
310
FF3F41400C00000013000000050000000C00000016000000000000C03C0000000600000002000000000000000000000000B76DDBB66DBB3F000000F0FF3F41400400000000000C4000B76DDBB66DBB3F000000F0FF3F41400C00000013000000050000000C00000016000000000000C03C0000000600000002000000000000
310
0000000000C02449922449C23F000000F0FF3F41400400000000000C40C02449922449C23F000000F0FF3F41400C00000013000000050000000C00000016000000000000C03C00000006000000020000000000000000000000C06DDBB66DDBC63F000000F0FF3F41400400000000000C40C06DDBB66DDBC63F000000F0FF3F
310
41400C00000013000000050000000C00000016000000000000C03C0000000600000002000000000000000000000000B76DDBB66DCB3F000000F0FF3F41400400000000000C4000B76DDBB66DCB3F000000F0FF3F41400C00000013000000050000000C00000016000000000000C03C00000006000000020000000000000000
310
00E03F000000000000E03C010000F0FF3F4140000000000000E03F000000000000D03F000000F0FF3F41400C00000013000000050000000C00000016000000000000C03C0000000600000002000000000000000000F03F000000000000E03C010000F0FF3F4140000000000000F03F000000000000D03F000000F0FF3F4140
310
0C00000013000000050000000C00000016000000000000C03C0000000600000002000000000000000000F83F000000000000E03C010000F0FF3F4140000000000000F83F000000000000D03F000000F0FF3F41400C00000013000000050000000C00000016000000000000C03C000000060000000200000000000000000000
310
40000000000000E03C010000F0FF3F41400000000000000040000000000000D03F000000F0FF3F41400C00000013000000050000000C00000016000000000000C03C0000000600000002000000FCFFFFFFFFFF0340000000000000E03C010000F0FF3F4140FCFFFFFFFFFF0340000000000000D03F000000F0FF3F41400C00
310
000013000000050000000C00000016000000000000C03C0000000600000002000000FCFFFFFFFFFF0740000000000000E03C010000F0FF3F4140FCFFFFFFFFFF0740000000000000D03F000000F0FF3F41400C00000016000000000000C03C00000006000000020000000000000000000000000000000000D03F000000F0FF
310
3F41400000000000000000000000000000D03F000000F0FF3F41403C00000006000000020000000000000000000000000000000000E03C000000F0FF3F41400000000000000000000000000000E03C000000F0FF3F41403C00000006000000020000000400000000000C40000000000000E03C000000F0FF3F414004000000
310
00000C40000000000000E03C000000F0FF3F41403C00000006000000020000000400000000000C40000000000000D03F000000F0FF3F41400400000000000C40000000000000D03F000000F0FF3F4140
100
AcDbModelerGeometry
 70
     1
  1
koo ll n o          
  1
ni ^ *+0;:,4 ^ *+0\^ [ nf ^ LR mnhqoqoqkjol QK o  
  1
mjqlffffffffffffff fqfffffffffffffffj:rooh n:rono 
  1
=0;& {n {m {rn {rn |
  1
-:9@)+r:&:r>++-6= {rn {rn {rn {o {l {k |
  1
3*2/ {j {rn {i {o |
  1
:&:@-:961:2:1+ {rn j 8-6;  n l +-6 n k ,*-9 o l >;5 o k 8->; o f /0,+<7:<4 o k ,+03 oqomlgnkngglnikikkmk k 1+03 lo k ;,63 o g 93>+1:,, o h /6'>-:> o k 72>' o i 8-6;>- o j 28-6; looo j *8-6; o j )8-6; o no :1;@96:3;, |
  1
):-+:'@+:2/3>+: {rn l o n g |
  1
-:9@)+r:&:r>++-6= {rn {rn {rn {m {l {k |
  1
,7:33 {h {rn {rn {g {rn {m |
  1
-:9@)+r:&:r>++-6= {rn {rn {rn {i {l {k |
  1
9><: {f {rn {no {i {rn {nn 90-(>-; ;0*=3: 0*+ |
  1
92:,7r:&:r>++-6= {rn {nm {rn {g |
  1
300/ {rn {rn {nl {g |
  1
/3>1:r,*-9><: {rn lqjooooooooooooong oqmj lkqkffffgofmijnlih iqnmlmllffjhlihii:ronh nqkmnogjkhnjmomnjj:ronk n n o riqnmlmllffjhlihii:ronh 90-(>-;@) V V V V |
  1
-:9@)+r:&:r>++-6= {rn {rn {f {g {l {k |
  1
<0:;8: {rn {nk {nj {rn {ni 90-(>-; {no {rn |
  1
<0:;8: {rn {nh {nl {rn {ng -:):-,:; {no {rn |
  1
<0:;8: {rn {nl {nh {rn {nf 90-(>-; {no {rn |
  1
:;8: {rn {mo {mn {nl {mm 90-(>-; |
  1
<0:;8: {rn {nj {nk {rn {ml 90-(>-; {no {rn |
  1
:;8: {rn {mk {mn {nk {mj 90-(>-; |
  1
:;8: {rn {mi {mo {nj {mh 90-(>-; |
  1
):-+:' {rn {nf {mg |
  1
):-+:' {rn {ng {mf |
  1
,+->687+r<*-): {rn o nqhhiljiglfkoomjoj:ronj lkqkffffgofmijnlih gqhonilgghooionfji:roln rn nqkmnogjkhnjmomnjj:ronk V V |
  1
:;8: {rn {mk {mi {nh {lo 90-(>-; |
  1
):-+:' {rn {ml {ln |
  1
,+->687+r<*-): {rn lqjooooooooooooong nqhhiljiglfkoomjoj:ronj lkqkffffgofmijnlih rn o iqnmlmllffjhlihii:ronh V V |
  1
):-+:' {rn {ml {lm |
  1
,+->687+r<*-): {rn lqjooooooooooooong oqmj lkqkffffgofmijnlih rn o iqnmlmllffjhlihii:ronh V V |
  1
/061+ {rn o oqmj lkqkffffgofmijnlih |
  1
/061+ {rn o nqhhiljiglfkoomjoj:ronj lkqkffffgofmijnlih |
  1
,+->687+r<*-): {rn lqjooooooooooooong nqhhiljiglfkoomjoj:ronj lkqkffffgofmijnlih rgqhonilgghooionfji:roln n rnqkmnogjkhnjmomnjj:ronk V V |
  1
/061+ {rn lqjooooooooooooong nqhhiljiglfkoomjoj:ronj lkqkffffgofmijnlih |
  1
/061+ {rn lqjooooooooooooong oqmj lkqkffffgofmijnlih |
100
AcDbSurface
 71
     6
 72
     6
100
AcDbExtrudedSurface
 90
       19
 90
      536
310
01000000000003100000000000000E03C0000003C3FCFD05000400000000000C40000000000000340FC000000F0FF3F41400000000000003C2FE01D7050CC9A9A44F0CCC
 10
-3.5
 20
0.0
 30
0.0000000000000002
 40
0.0000000000000001
 40
0.0
 40
-1.0
 40
3.499999999999998
 40
0.0
 40
1.0
 40
0.0
 40
-6.120967689874748
 40
1.0
 40
0.0
 40
0.0000000000000001
 40
7.847033422808289
 40
0.0
 40
0.0
 40
0.0
 40
1.0
 42
0.0
 43
0.0
 44
0.0
 45
0.0
 48
1.0
 49
0.0
 46
0.0000000000000001
 46
0.0
 46
-1.0
 46
3.499999999999998
 46
0.0
 46
1.0
 46
0.0
 46
1.749999999999996
 46
1.0
 46
0.0
 46
0.0000000000000001
 46
25.04551322076187
 46
0.0
 46
0.0
 46
0.0
 46
1.0
 47
1.0
 47
0.0
 47
0.0
 47
0.0
 47
0.0
 47
1.0
 47
0.0
 47
0.0
 47
0.0
 47
0.0
 47
1.0
 47
0.0
 47
0.0
 47
0.0
 47
0.0
 47
1.0
290
     0
 70
     0
 71
     1
292
     1
293
     1
294
     0
295
     1
296
     0
 11
0.0
 21
0.0
 31
0.0
1001
ACAD
1000
AcDbSavedByObjectVersion
1070
     0
1000
AcDbSavedByObjectVersion
1070
     0
  0
EXTRUDEDSURFACE
  5
2C2
330
1F
100
AcDbEntity
  8
0
 92
     1604
310
44060000350000000C00000013000000060000000C00000016000000000000C03C000000060000000200000000000000000000000400000000000A40000000F0FF3F414000000000000000000400000000000C40000000F0FF3F41400C000000130000000A0000000C00000016000000000000C03C00000006000000020000
310
00FCFFFFFFFFFF0B400400000000000C40000000F0FF3F414000000000000000000400000000000C40000000F0FF3F41400C000000130000000E0000000C00000016000000000000C03C0000000600000002000000FCFFFFFFFFFF0B400400000000000C40000000F0FF3F4140FCFFFFFFFFFF0B400400000000000A400000
310
00F0FF3F41400C00000013000000120000000C00000016000000000000C03C0000000600000002000000FCFFFFFFFFFF0B400400000000000A40000000F0FF3F414000000000000000000400000000000A40000000F0FF3F41400C00000013000000050000000C00000016000000000000C03C0000000600000002000000FC
310
FFFFFFFFFF0B409824499224490A40000000F0FF3F414000000000000000009824499224490A40000000F0FF3F41400C00000013000000050000000C00000016000000000000C03C0000000600000002000000FCFFFFFFFFFF0B402849922449920A40000000F0FF3F414000000000000000002849922449920A40000000F0
310
FF3F41400C00000013000000050000000C00000016000000000000C03C0000000600000002000000FCFFFFFFFFFF0B40BC6DDBB66DDB0A40000000F0FF3F41400000000000000000BC6DDBB66DDB0A40000000F0FF3F41400C00000013000000050000000C00000016000000000000C03C0000000600000002000000FCFFFF
310
FFFFFF0B404C92244992240B40000000F0FF3F414000000000000000004C92244992240B40000000F0FF3F41400C00000013000000050000000C00000016000000000000C03C0000000600000002000000FCFFFFFFFFFF0B40E0B66DDBB66D0B40000000F0FF3F41400000000000000000E0B66DDBB66D0B40000000F0FF3F
310
41400C00000013000000050000000C00000016000000000000C03C0000000600000002000000FCFFFFFFFFFF0B4070DBB66DDBB60B40000000F0FF3F4140000000000000000070DBB66DDBB60B40000000F0FF3F41400C00000013000000050000000C00000016000000000000C03C0000000600000002000000FCFFFFFFFF
310
FF07400400000000000A40000000F0FF3F4140FCFFFFFFFFFF07400400000000000C40000000F0FF3F41400C00000013000000050000000C00000016000000000000C03C0000000600000002000000FCFFFFFFFFFF03400400000000000A40000000F0FF3F4140FCFFFFFFFFFF03400400000000000C40000000F0FF3F4140
310
0C00000013000000050000000C00000016000000000000C03C000000060000000200000000000000000000400400000000000A40000000F0FF3F414000000000000000400400000000000C40000000F0FF3F41400C00000013000000050000000C00000016000000000000C03C0000000600000002000000000000000000F8
310
3F0400000000000A40000000F0FF3F4140000000000000F83F0400000000000C40000000F0FF3F41400C00000013000000050000000C00000016000000000000C03C0000000600000002000000000000000000F03F0400000000000A40000000F0FF3F4140000000000000F03F0400000000000C40000000F0FF3F41400C00
310
000013000000050000000C00000016000000000000C03C0000000600000002000000000000000000E03F0400000000000A40000000F0FF3F4140000000000000E03F0400000000000C40000000F0FF3F41400C00000016000000000000C03C000000060000000200000000000000000000000400000000000A40000000F0FF
310
3F414000000000000000000400000000000A40000000F0FF3F41403C000000060000000200000000000000000000000400000000000C40000000F0FF3F414000000000000000000400000000000C40000000F0FF3F41403C0000000600000002000000FCFFFFFFFFFF0B400400000000000C40000000F0FF3F4140FCFFFFFF
310
FFFF0B400400000000000C40000000F0FF3F41403C0000000600000002000000FCFFFFFFFFFF0B400400000000000A40000000F0FF3F4140FCFFFFFFFFFF0B400400000000000A40000000F0FF3F4140
100
AcDbModelerGeometry
 70
     1
  1
koo ll n o          
  1
ni ^ *+0;:,4 ^ *+0\^ [ nf ^ LR mnhqoqoqkjol QK o  
  1
mjqlffffffffffffff fqfffffffffffffffj:rooh n:rono 
  1
=0;& {n {m {rn {rn |
  1
-:9@)+r:&:r>++-6= {rn {rn {rn {o {l {k |
  1
3*2/ {j {rn {i {o |
  1
:&:@-:961:2:1+ {rn j 8-6;  n l +-6 n k ,*-9 o l >;5 o k 8->; o f /0,+<7:<4 o k ,+03 oqomlgnkngglnikikkmk k 1+03 lo k ;,63 o g 93>+1:,, o h /6'>-:> o k 72>' o i 8-6;>- o j 28-6; looo j *8-6; o j )8-6; o no :1;@96:3;, |
  1
):-+:'@+:2/3>+: {rn l o n g |
  1
-:9@)+r:&:r>++-6= {rn {rn {rn {m {l {k |
  1
,7:33 {h {rn {rn {g {rn {m |
  1
-:9@)+r:&:r>++-6= {rn {rn {rn {i {l {k |
  1
9><: {f {rn {no {i {rn {nn 90-(>-; ;0*=3: 0*+ |
  1
92:,7r:&:r>++-6= {rn {nm {rn {g |
  1
300/ {rn {rn {nl {g |
  1
/3>1:r,*-9><: {rn lqkfffffffffffffgm lqmjoooooooooooong lkqkffffgofmijnlih riqnmlmllffjhlihii:ronh nqkmnogjkhnjmomook:ronk rn rn o iqnmlmllffjhlihii:ronh 90-(>-;@) V V V V |
  1
-:9@)+r:&:r>++-6= {rn {rn {f {g {l {k |
  1
<0:;8: {rn {nk {nj {rn {ni 90-(>-; {no {rn |
  1
<0:;8: {rn {nh {nl {rn {ng -:):-,:; {no {rn |
  1
<0:;8: {rn {nl {nh {rn {nf 90-(>-; {no {rn |
  1
:;8: {rn {mo {mn {nl {mm 90-(>-; |
  1
<0:;8: {rn {nj {nk {rn {ml 90-(>-; {no {rn |
  1
:;8: {rn {mk {mn {nk {mj 90-(>-; |
  1
:;8: {rn {mi {mo {nj {mh 90-(>-; |
  1
):-+:' {rn {nf {mg |
  1
):-+:' {rn {ng {mf |
  1
,+->687+r<*-): {rn o lqjooooooooooooong lkqkffffgofmijnlih gqhonilgghooionomg:roln n nqkmnogjkhnjmomook:ronk V V |
  1
:;8: {rn {mk {mi {nh {lo 90-(>-; |
  1
):-+:' {rn {ml {ln |
  1
,+->687+r<*-): {rn lqkfffffffffffffgm lqjooooooooooooong lkqkffffgofmijnlih rn o iqnmlmllffjhlihii:ronh V V |
  1
):-+:' {rn {ml {lm |
  1
,+->687+r<*-): {rn lqkfffffffffffffgm lqmjoooooooooooong lkqkffffgofmijnlih rn o iqnmlmllffjhlihii:ronh V V |
  1
/061+ {rn o lqmjoooooooooooong lkqkffffgofmijnlih |
  1
/061+ {rn o lqjooooooooooooong lkqkffffgofmijnlih |
  1
,+->687+r<*-): {rn lqkfffffffffffffgm lqjooooooooooooong lkqkffffgofmijnlih rgqhonilgghooionomg:roln rn rnqkmnogjkhnjmomook:ronk V V |
  1
/061+ {rn lqkfffffffffffffgm lqjooooooooooooong lkqkffffgofmijnlih |
  1
/061+ {rn lqkfffffffffffffgm lqmjoooooooooooong lkqkffffgofmijnlih |
100
AcDbSurface
 71
     6
 72
     6
100
AcDbExtrudedSurface
 90
       19
 90
      536
310
3F3FFFFFFFFFC2D000400000000000C400000003C3FCFD0500FCFFFFFFFFFF0B4001000000000002900000000F0FF3F41400000000000003C2FE01D7050CC9A9A44F0CCC
 10
-3.5
 20
0.0
 30
0.0000000000000002
 40
0.0000000000000001
 40
0.0
 40
-1.0
 40
3.499999999999998
 40
0.0
 40
1.0
 40
0.0
 40
-6.120967689874748
 40
1.0
 40
0.0
 40
0.0000000000000001
 40
7.847033422808289
 40
0.0
 40
0.0
 40
0.0
 40
1.0
 42
0.0
 43
0.0
 44
0.0
 45
0.0
 48
1.0
 49
0.0
 46
0.0000000000000001
 46
0.0
 46
-1.0
 46
3.499999999999998
 46
0.0
 46
1.0
 46
0.0
 46
1.749999999999996
 46
1.0
 46
0.0
 46
0.0000000000000001
 46
25.04551322076187
 46
0.0
 46
0.0
 46
0.0
 46
1.0
 47
1.0
 47
0.0
 47
0.0
 47
0.0
 47
0.0
 47
1.0
 47
0.0
 47
0.0
 47
0.0
 47
0.0
 47
1.0
 47
0.0
 47
0.0
 47
0.0
 47
0.0
 47
1.0
290
     0
 70
     0
 71
     1
292
     1
293
     1
294
     0
295
     1
296
     0
 11
0.0
 21
0.0
 31
0.0
1001
ACAD
1000
AcDbSavedByObjectVersion
1070
     0
1000
AcDbSavedByObjectVersion
1070
     0
  0
EXTRUDEDSURFACE
  5
407
330
1F
100
AcDbEntity
  8
0
 92
     1604
310
44060000350000000C00000013000000060000000C00000016000000000000C03C0000000600000002000000000000000000D03F0000000000000C40000000F0FF3F4140000000000000E03C0000000000000C40000000F0FF3F41400C000000130000000A0000000C00000016000000000000C03C00000006000000020000
310
00000000000000E03C0000000000000000000000F0FF3F4140000000000000E03C0000000000000C40000000F0FF3F41400C000000130000000E0000000C00000016000000000000C03C0000000600000002000000000000000000E03C0000000000000000000000F0FF3F4140000000000000D03F00000000000000000000
310
00F0FF3F41400C00000013000000120000000C00000016000000000000C03C0000000600000002000000000000000000D03F0000000000000000000000F0FF3F4140000000000000D03F0000000000000C40000000F0FF3F41400C00000013000000050000000C00000016000000000000C03C000000060000000200000000
310
2549922449A23F0000000000000C40000000F0FF3F4140002549922449A23F0000000000000000000000F0FF3F41400C00000013000000050000000C00000016000000000000C03C0000000600000002000000002549922449B23F0000000000000C40000000F0FF3F4140002549922449B23F0000000000000000000000F0
310
FF3F41400C00000013000000050000000C00000016000000000000C03C000000060000000200000000B76DDBB66DBB3F0000000000000C40000000F0FF3F414000B76DDBB66DBB3F0000000000000000000000F0FF3F41400C00000013000000050000000C00000016000000000000C03C0000000600000002000000C02449
310
922449C23F0000000000000C40000000F0FF3F4140C02449922449C23F0000000000000000000000F0FF3F41400C00000013000000050000000C00000016000000000000C03C0000000600000002000000C06DDBB66DDBC63F0000000000000C40000000F0FF3F4140C06DDBB66DDBC63F0000000000000000000000F0FF3F
310
41400C00000013000000050000000C00000016000000000000C03C000000060000000200000000B76DDBB66DCB3F0000000000000C40000000F0FF3F414000B76DDBB66DCB3F0000000000000000000000F0FF3F41400C00000013000000050000000C00000016000000000000C03C00000006000000020000000000000000
310
00E03C0000000000000840010000F0FF3F4140000000000000D03F0000000000000840000000F0FF3F41400C00000013000000050000000C00000016000000000000C03C0000000600000002000000000000000000E03C0000000000000440010000F0FF3F4140000000000000D03F0000000000000440000000F0FF3F4140
310
0C00000013000000050000000C00000016000000000000C03C0000000600000002000000000000000000E03C0000000000000040010000F0FF3F4140000000000000D03F0000000000000040000000F0FF3F41400C00000013000000050000000C00000016000000000000C03C0000000600000002000000000000000000E0
310
3C000000000000F83F010000F0FF3F4140000000000000D03F000000000000F83F000000F0FF3F41400C00000013000000050000000C00000016000000000000C03C0000000600000002000000000000000000E03C000000000000F03F010000F0FF3F4140000000000000D03F000000000000F03F000000F0FF3F41400C00
310
000013000000050000000C00000016000000000000C03C0000000600000002000000000000000000E03C000000000000E03F010000F0FF3F4140000000000000D03F000000000000E03F000000F0FF3F41400C00000016000000000000C03C0000000600000002000000000000000000D03F0000000000000C40000000F0FF
310
3F4140000000000000D03F0000000000000C40000000F0FF3F41403C0000000600000002000000000000000000E03C0000000000000C40000000F0FF3F4140000000000000E03C0000000000000C40000000F0FF3F41403C0000000600000002000000000000000000E03C0000000000000000000000F0FF3F414000000000
310
0000E03C0000000000000000000000F0FF3F41403C0000000600000002000000000000000000D03F0000000000000000000000F0FF3F4140000000000000D03F0000000000000000000000F0FF3F4140
100
AcDbModelerGeometry
 70
     1
  1
koo ll n o          
  1
ni ^ *+0;:,4 ^ *+0\^ [ nf ^ LR mnhqoqoqkjol QK o  
  1
mjqlffffffffffffff fqfffffffffffffffj:rooh n:rono 
  1
=0;& {n {m {rn {rn |
  1
-:9@)+r:&:r>++-6= {rn {rn {rn {o {l {k |
  1
3*2/ {j {rn {i {o |
  1
:&:@-:961:2:1+ {rn j 8-6;  n l +-6 n k ,*-9 o l >;5 o k 8->; o f /0,+<7:<4 o k ,+03 oqomlgnkngglnikikkmk k 1+03 lo k ;,63 o g 93>+1:,, o h /6'>-:> o k 72>' o i 8-6;>- o j 28-6; looo j *8-6; o j )8-6; o no :1;@96:3;, |
  1
):-+:'@+:2/3>+: {rn l o n g |
  1
-:9@)+r:&:r>++-6= {rn {rn {rn {m {l {k |
  1
,7:33 {h {rn {rn {g {rn {m |
  1
-:9@)+r:&:r>++-6= {rn {rn {rn {i {l {k |
  1
9><: {f {rn {no {i {rn {nn 90-(>-; ;0*=3: 0*+ |
  1
92:,7r:&:r>++-6= {rn {nm {rn {g |
  1
300/ {rn {rn {nl {g |
  1
/3>1:r,*-9><: {rn oqmj o lkqkffffgofmijnlih nqkmhmoghojjnjfjml:ronk gqhonilgghooionfji:roln n iqnmlmllffjhlihii:ronh rn rlqhkflffkjiijkikk:roll 90-(>-;@) V V V V |
  1
-:9@)+r:&:r>++-6= {rn {rn {f {g {l {k |
  1
<0:;8: {rn {nk {nj {rn {ni 90-(>-; {no {rn |
  1
<0:;8: {rn {nh {nl {rn {ng -:):-,:; {no {rn |
  1
<0:;8: {rn {nl {nh {rn {nf 90-(>-; {no {rn |
  1
:;8: {rn {mo {mn {nl {mm 90-(>-; |
  1
<0:;8: {rn {nj {nk {rn {ml 90-(>-; {no {rn |
  1
:;8: {rn {mk {mn {nk {mj 90-(>-; |
  1
:;8: {rn {mi {mo {nj {mh 90-(>-; |
  1
):-+:' {rn {nf {mg |
  1
):-+:' {rn {ng {mf |
  1
,+->687+r<*-): {rn nqhhiljiglfkoomjoj:ronj lqj lkqkffffgofmijnlih rn riqnmlmllffjhlihii:ronh nqkmhmoghojjnjfjml:ronk V V |
  1
:;8: {rn {mk {mi {nh {lo 90-(>-; |
  1
):-+:' {rn {ml {ln |
  1
,+->687+r<*-): {rn nqhhiljiglfkoomjoj:ronj o lkqkffffgofmijnlih riqnmlmllffjhlihii:ronh n lqhkflffkjiijkikk:roll V V |
  1
):-+:' {rn {ml {lm |
  1
,+->687+r<*-): {rn oqmj o lkqkffffgofmijnlih riqnmlmllffjhlihii:ronh n lqhkflffkjiijkikk:roll V V |
  1
/061+ {rn oqmj lqj lkqkffffgofmijnlih |
  1
/061+ {rn nqhhiljiglfkoomjoj:ronj lqj lkqkffffgofmijnlih |
  1
,+->687+r<*-): {rn nqhhiljiglfkoomjoj:ronj o lkqkffffgofmijnlih n iqnmlmllffjhlihii:ronh rnqkmhmoghojjnjfjml:ronk V V |
  1
/061+ {rn nqhhiljiglfkoomjoj:ronj o lkqkffffgofmijnlih |
  1
/061+ {rn oqmj o lkqkffffgofmijnlih |
100
AcDbSurface
 71
     6
 72
     6
100
AcDbExtrudedSurface
 90
       19
 90
      408
310
000000000000380F20000003C3FCFD0500000000000000D03F8000000F0FF3F414001D7050CC9A9A46F1121762A1739DCCCE4CCC
 10
-0.0000000000000002
 20
3.5
 30
0.0
 40
0.0000000000000001
 40
1.0
 40
-0.0000000000000001
 40
-6.12096768987474
 40
0.0
 40
0.0000000000000001
 40
1.0
 40
-0.0000000000000036
 40
1.0
 40
-0.0000000000000001
 40
0.0
 40
7.847033422808291
 40
0.0
 40
0.0
 40
0.0
 40
1.0
 42
0.0
 43
0.0
 44
0.0
 45
0.0
 48
1.0
 49
0.0
 46
0.0000000000000001
 46
1.0
 46
-0.0000000000000001
 46
1.75
 46
0.0
 46
0.0000000000000001
 46
1.0
 46
-0.0000000000000036
 46
1.0
 46
-0.0000000000000001
 46
0.0
 46
25.04551322076187
 46
0.0
 46
0.0
 46
0.0
 46
1.0
 47
1.0
 47
0.0
 47
0.0
 47
0.0
 47
0.0
 47
1.0
 47
0.0
 47
0.0
 47
0.0
 47
0.0
 47
1.0
 47
0.0
 47
0.0
 47
0.0
 47
0.0
 47
1.0
290
     0
 70
     0
 71
     1
292
     1
293
     1
294
     0
295
     1
296
     0
 11
0.0
 21
0.0
 31
0.0
1001
ACAD
1000
AcDbSavedByObjectVersion
1070
     0
1000
AcDbSavedByObjectVersion
1070
     0
  0
EXTRUDEDSURFACE
  5
409
330
1F
100
AcDbEntity
  8
0
 92
     1604
310
44060000350000000C00000013000000060000000C00000016000000000000C03C00000006000000020000000400000000000A400400000000000C40000000F0FF3F41400400000000000C400400000000000C40000000F0FF3F41400C000000130000000A0000000C00000016000000000000C03C00000006000000020000
310
000400000000000C40000000000000E03C000000F0FF3F41400400000000000C400400000000000C40000000F0FF3F41400C000000130000000E0000000C00000016000000000000C03C00000006000000020000000400000000000C40000000000000E03C000000F0FF3F41400400000000000A40000000000000E03C0000
310
00F0FF3F41400C00000013000000120000000C00000016000000000000C03C00000006000000020000000400000000000A40000000000000E03C000000F0FF3F41400400000000000A400400000000000C40000000F0FF3F41400C00000013000000050000000C00000016000000000000C03C00000006000000020000009C
310
24499224490A40000000000000E03C000000F0FF3F41409C24499224490A400400000000000C40000000F0FF3F41400C00000013000000050000000C00000016000000000000C03C00000006000000020000002C49922449920A40000000000000E03C000000F0FF3F41402C49922449920A400400000000000C40000000F0
310
FF3F41400C00000013000000050000000C00000016000000000000C03C0000000600000002000000BC6DDBB66DDB0A40000000000000E03C000000F0FF3F4140BC6DDBB66DDB0A400400000000000C40000000F0FF3F41400C00000013000000050000000C00000016000000000000C03C00000006000000020000004C9224
310
4992240B40000000000000E03C000000F0FF3F41404C92244992240B400400000000000C40000000F0FF3F41400C00000013000000050000000C00000016000000000000C03C0000000600000002000000DCB66DDBB66D0B40000000000000E03C000000F0FF3F4140DCB66DDBB66D0B400400000000000C40000000F0FF3F
310
41400C00000013000000050000000C00000016000000000000C03C00000006000000020000006CDBB66DDBB60B40000000000000E03C000000F0FF3F41406CDBB66DDBB60B400400000000000C40000000F0FF3F41400C00000013000000050000000C00000016000000000000C03C00000006000000020000000400000000
310
000A40100000000000E03F000000F0FF3F41400400000000000C40100000000000E03F000000F0FF3F41400C00000013000000050000000C00000016000000000000C03C00000006000000020000000400000000000A40080000000000F03F000000F0FF3F41400400000000000C40080000000000F03F000000F0FF3F4140
310
0C00000013000000050000000C00000016000000000000C03C00000006000000020000000400000000000A40080000000000F83F000000F0FF3F41400400000000000C40080000000000F83F000000F0FF3F41400C00000013000000050000000C00000016000000000000C03C00000006000000020000000400000000000A
310
400400000000000040000000F0FF3F41400400000000000C400400000000000040000000F0FF3F41400C00000013000000050000000C00000016000000000000C03C00000006000000020000000400000000000A400400000000000440000000F0FF3F41400400000000000C400400000000000440000000F0FF3F41400C00
310
000013000000050000000C00000016000000000000C03C00000006000000020000000400000000000A400400000000000840000000F0FF3F41400400000000000C400400000000000840000000F0FF3F41400C00000016000000000000C03C00000006000000020000000400000000000A400400000000000C40000000F0FF
310
3F41400400000000000A400400000000000C40000000F0FF3F41403C00000006000000020000000400000000000C400400000000000C40000000F0FF3F41400400000000000C400400000000000C40000000F0FF3F41403C00000006000000020000000400000000000C40000000000000E03C000000F0FF3F414004000000
310
00000C40000000000000E03C000000F0FF3F41403C00000006000000020000000400000000000A40000000000000E03C000000F0FF3F41400400000000000A40000000000000E03C000000F0FF3F4140
100
AcDbModelerGeometry
 70
     1
  1
koo ll n o          
  1
ni ^ *+0;:,4 ^ *+0\^ [ nf ^ LR mnhqoqoqkjol QK o  
  1
mjqlffffffffffffff fqfffffffffffffffj:rooh n:rono 
  1
=0;& {n {m {rn {rn |
  1
-:9@)+r:&:r>++-6= {rn {rn {rn {o {l {k |
  1
3*2/ {j {rn {i {o |
  1
:&:@-:961:2:1+ {rn j 8-6;  n l +-6 n k ,*-9 o l >;5 o k 8->; o f /0,+<7:<4 o k ,+03 oqomlgnkngglnikikkmk k 1+03 lo k ;,63 o g 93>+1:,, o h /6'>-:> o k 72>' o i 8-6;>- o j 28-6; looo j *8-6; o j )8-6; o no :1;@96:3;, |
  1
):-+:'@+:2/3>+: {rn l o n g |
  1
-:9@)+r:&:r>++-6= {rn {rn {rn {m {l {k |
  1
,7:33 {h {rn {rn {g {rn {m |
  1
-:9@)+r:&:r>++-6= {rn {rn {rn {i {l {k |
  1
9><: {f {rn {no {i {rn {nn 90-(>-; ;0*=3: 0*+ |
  1
92:,7r:&:r>++-6= {rn {nm {rn {g |
  1
300/ {rn {rn {nl {g |
  1
/3>1:r,*-9><: {rn lqmjoooooooooooong nqhhiljiglfkoomjoj:ronj lkqkffffgofmijnlih nqknkfimmlhjmkkili:ronk gqhonilgghooionomg:roln rn riqnmlmllffjhlihii:ronh n lqhkflffkjiijkikk:roll 90-(>-;@) V V V V |
  1
-:9@)+r:&:r>++-6= {rn {rn {f {g {l {k |
  1
<0:;8: {rn {nk {nj {rn {ni 90-(>-; {no {rn |
  1
<0:;8: {rn {nh {nl {rn {ng -:):-,:; {no {rn |
  1
<0:;8: {rn {nl {nh {rn {nf 90-(>-; {no {rn |
  1
:;8: {rn {mo {mn {nl {mm 90-(>-; |
  1
<0:;8: {rn {nj {nk {rn {ml 90-(>-; {no {rn |
  1
:;8: {rn {mk {mn {nk {mj 90-(>-; |
  1
:;8: {rn {mi {mo {nj {mh 90-(>-; |
  1
):-+:' {rn {nf {mg |
  1
):-+:' {rn {ng {mf |
  1
,+->687+r<*-): {rn lqjooooooooooooong lqjooooooooooooong lkqkffffgofmijnlih n iqnmlmllffjhlihii:ronh nqknkfimmlhjmkkili:ronk V V |
  1
:;8: {rn {mk {mi {nh {lo 90-(>-; |
  1
):-+:' {rn {ml {ln |
  1
,+->687+r<*-): {rn lqjooooooooooooong nqhhiljiglfkoomjoj:ronj lkqkffffgofmijnlih riqnmlmllffjhlihii:ronh n lqhkflffkjiijkikk:roll V V |
  1
):-+:' {rn {ml {lm |
  1
,+->687+r<*-): {rn lqmjoooooooooooong nqhhiljiglfkoomjoj:ronj lkqkffffgofmijnlih riqnmlmllffjhlihii:ronh n lqhkflffkjiijkikk:roll V V |
  1
/061+ {rn lqmjoooooooooooong lqjooooooooooooong lkqkffffgofmijnlih |
  1
/061+ {rn lqjooooooooooooong lqjooooooooooooong lkqkffffgofmijnlih |
  1
,+->687+r<*-): {rn lqjooooooooooooong nqhhiljiglfkoomjoj:ronj lkqkffffgofmijnlih rn riqnmlmllffjhlihii:ronh rnqknkfimmlhjmkkili:ronk V V |
  1
/061+ {rn lqjooooooooooooong nqhhiljiglfkoomjoj:ronj lkqkffffgofmijnlih |
  1
/061+ {rn lqmjoooooooooooong nqhhiljiglfkoomjoj:ronj lkqkffffgofmijnlih |
100
AcDbSurface
 71
     6
 72
     6
100
AcDbExtrudedSurface
 90
       19
 90
      536
310
01000000000003100000000000000E03C0000003C3FCFD05000400000000000A40000000000000380F0000000F0FF3F414001D7050CC9A9A46F1121762A1739DCCCE4CCC
 10
-0.0000000000000002
 20
3.5
 30
0.0
 40
0.0000000000000001
 40
1.0
 40
-0.0000000000000001
 40
-6.12096768987474
 40
0.0
 40
0.0000000000000001
 40
1.0
 40
-0.0000000000000036
 40
1.0
 40
-0.0000000000000001
 40
0.0
 40
7.847033422808291
 40
0.0
 40
0.0
 40
0.0
 40
1.0
 42
0.0
 43
0.0
 44
0.0
 45
0.0
 48
1.0
 49
0.0
 46
0.0000000000000001
 46
1.0
 46
-0.0000000000000001
 46
1.75
 46
0.0
 46
0.0000000000000001
 46
1.0
 46
-0.0000000000000036
 46
1.0
 46
-0.0000000000000001
 46
0.0
 46
25.04551322076187
 46
0.0
 46
0.0
 46
0.0
 46
1.0
 47
1.0
 47
0.0
 47
0.0
 47
0.0
 47
0.0
 47
1.0
 47
0.0
 47
0.0
 47
0.0
 47
0.0
 47
1.0
 47
0.0
 47
0.0
 47
0.0
 47
0.0
 47
1.0
290
     0
 70
     0
 71
     1
292
     1
293
     1
294
     0
295
     1
296
     0
 11
0.0
 21
0.0
 31
0.0
1001
ACAD
1000
AcDbSavedByObjectVersion
1070
     0
1000
AcDbSavedByObjectVersion
1070
     0
  0
INSERT
  5
43A
330
1F
100
AcDbEntity
  8
ASHADE
 62
     1
100
AcDbBlockReference
  2
AVE_GLOBAL
 10
0.0
 20
0.0
 30
0.0
1001
AVE_MATERIAL
1002
{
1000
*GLOBAL*
1000
2
1000
Global finish.
1002
{
1002
}
1002
{
1070
    63
1002
{
1002
{
1010
-1.0
1020
-1.0
1030
-1.0
1002
}
1040
0.6999999880790711
1000

1040
0.0
1002
{
1002
}
1040
0.0
1002
{
1002
}
1040
0.0
1002
}
1002
{
1002
{
1010
-1.0
1020
-1.0
1030
-1.0
1002
}
1040
1.0
1000

1040
0.0
1002
{
1002
}
1040
0.0
1002
{
1002
}
1040
0.0
1002
}
1002
{
1002
{
1010
-1.0
1020
-1.0
1030
-1.0
1002
}
1040
0.2000000029802322
1000

1040
0.0
1002
{
1002
}
1040
0.0
1002
{
1002
}
1040
0.0
1002
}
1002
{
1070
     0
1002
{
1070
     1
1002
{
1040
1.0
1040
1.0
1000

1040
0.0
1002
{
1002
}
1040
0.0
1002
{
1002
}
1040
0.0
1002
}
1002
}
1040
1.0
1040
0.0
1040
0.0
1002
}
1002
{
1040
1.0
1040
1.0
1000

1040
0.0
1002
{
1002
}
1040
0.0
1002
{
1002
}
1040
0.0
1002
}
1002
{
1040
0.5
1040
1.0
1000

1040
0.0
1002
{
1002
}
1040
0.0
1002
{
1002
}
1040
0.0
1002
}
1002
{
1070
     0
1040
0.0
1002
{
1002
}
1040
1.0
1002
{
1002
}
1040
0.0
1002
}
1002
{
1040
0.0
1002
{
1002
{
1010
0.0
1020
0.0
1030
0.0
1002
}
1040
1.0
1000

1040
0.0
1002
{
1002
}
1040
0.0
1002
{
1002
}
1040
0.0
1002
}
1002
}
1002
{
1002
{
1070
     1
1002
{
1040
0.0
1040
1.0
1000

1040
0.0
1002
{
1002
}
1040
0.0
1002
{
1002
}
1040
0.0
1002
}
1002
}
1040
0.0
1002
{
1002
}
1010
1.0
1020
0.0
1030
0.0
1010
0.0
1020
1.0
1030
0.0
1010
0.0
1020
0.0
1030
1.0
1070
     0
1002
}
1002
{
1002
{
1040
1.0
1040
1.0
1002
{
1070
     1
1002
{
1040
1.0
1040
1.0
1000

1040
0.0
1002
{
1002
}
1040
0.0
1002
{
1002
}
1040
0.0
1002
}
1002
}
1002
}
1070
     0
1040
0.0
1002
{
1002
}
1002
}
1002
{
1002
}
1002
}
1002
{
1071
        3
1070
     3
1070
     0
1002
{
1070
     2
1070
     0
1070
     0
1040
0.0
1002
}
1070
     0
1070
     2
1002
{
1002
}
1002
}
1002
{
1040
8030.0
1040
190.3000030517578
1040
0.3050000071525574
1040
228.0
1040
545.0
1040
14.0
1040
17.39999961853027
1040
0.4560000002384186
1002
}
1000

1002
}
  0
INSERT
  5
443
330
1F
100
AcDbEntity
  8
ASHADE
 62
     1
100
AcDbBlockReference
  2
AVE_RENDER
 10
0.0
 20
0.0
 30
0.0
1001
AVE_RENDER
1002
{
1070
     7
1000
Pref
1070
    50
1070
    20
1070
     1
1070
     0
1000

1070
    10
1070
     1
1070
    10
1040
1.0
1070
     1
1040
0.6999999880790711
1040
1.0
1040
0.2000000029802322
1040
2.0
1010
-1.0
1020
-1.0
1030
-1.0
1040
0.3000000119209289
1070
    49
1070
     0
1070
     0
1010
1.0
1020
1.0
1030
1.0
1040
45.0
1070
     1
1070
     0
1000
WCS
1040
0.0
1070
     0
1040
10.0
1002
}
  0
INSERT
  5
444
330
1F
100
AcDbEntity
  8
ASHADE
 62
     3
100
AcDbBlockReference
  2
AVE_RENDER
 10
0.0
 20
0.0
 30
0.0
1001
AVE_RENDER
1002
{
1070
     0
1000
Full Opt
1070
     0
1070
     1
1070
     1
1070
     1
1070
     0
1070
     0
1070
     0
1070
     1
1070
     1
1040
0.0001
1040
0.0001
1002
}
  0
INSERT
  5
445
330
1F
100
AcDbEntity
  8
ASHADE
 62
     4
100
AcDbBlockReference
  2
AVE_RENDER
 10
0.0
 20
0.0
 30
0.0
1001
AVE_RENDER
1002
{
1070
     0
1000
Quick Opt
1070
     0
1070
     1
1070
     1
1070
     1
1070
     0
1070
     0
1070
     1
1002
}
  0
INSERT
  5
446
330
1F
100
AcDbEntity
  8
ASHADE
 62
     5
100
AcDbBlockReference
  2
AVE_RENDER
 10
0.0
 20
0.0
 30
0.0
1001
AVE_RENDER
1002
{
1070
     1
1000
Scanl Opt
1070
     2
1070
     0
1070
     2
1040
2.0
1040
4.0
1070
     0
1070
     1
1070
     0
1040
0.03
1002
}
  0
INSERT
  5
447
330
1F
100
AcDbEntity
  8
ASHADE
 62
     6
100
AcDbBlockReference
  2
AVE_RENDER
 10
0.0
 20
0.0
 30
0.0
1001
AVE_RENDER
1002
{
1070
     2
1000
Raytr Opt
1070
     2
1070
     0
1070
     2
1040
2.0
1040
4.0
1070
     0
1070
     1
1070
     1
1040
0.03
1070
     3
1040
0.03
1002
}
  0
INSERT
  5
448
330
1F
100
AcDbEntity
  8
ASHADE
 62
     7
100
AcDbBlockReference
  2
AVE_RENDER
 10
0.0
 20
0.0
 30
0.0
1001
AVE_RENDER
1002
{
1070
     0
1000
RFile Opt
1070
     1
1070
   640
1070
   480
1070
 10000
1070
     1
1070
     8
1070
     8
1070
     0
1070
     0
1070
     0
1070
     0
1070
     0
1070
     0
1070
     0
1002
}
  0
INSERT
  5
449
330
1F
100
AcDbEntity
  8
ASHADE
 62
     8
100
AcDbBlockReference
  2
AVE_RENDER
 10
0.0
 20
0.0
 30
0.0
1001
AVE_RENDER
1002
{
1070
     0
1000
Fog Opt
1070
     0
1070
     0
1040
0.0
1040
1.0
1040
0.0
1040
1.0
1010
0.5
1020
0.5
1030
0.5
1002
}
  0
INSERT
  5
44A
330
1F
100
AcDbEntity
  8
ASHADE
 62
     9
100
AcDbBlockReference
  2
AVE_RENDER
 10
0.0
 20
0.0
 30
0.0
1001
AVE_RENDER
1002
{
1070
     0
1000
BG Opt
1070
     0
1070
     0
1010
0.0
1020
0.0
1030
0.0
1010
1.0
1020
0.0
1030
0.0
1010
0.0
1020
1.0
1030
0.0
1010
0.0
1020
0.0
1030
1.0
1040
0.5
1040
0.5
1040
0.0
1000

1070
     1
1000

1070
     1
1070
     1
1040
1.0
1040
1.0
1040
0.0
1040
0.0
1070
     0
1002
}
  0
POLYLINE
  5
450
330
1F
100
AcDbEntity
  8
0
 62
     7
100
AcDbPolyFaceMesh
 66
     1
 10
0.0
 20
0.0
 30
0.0
 70
    64
 71
   160
 72
   316
1001
AVE_ENTITY_MATERIAL
1002
{
1000

1002
{
1071
        0
1070
     0
1070
     0
1002
{
1070
     0
1070
     0
1070
     0
1040
0.0
1002
}
1070
     0
1070
     0
1002
{
1002
}
1002
}
1002
{
1002
}
1002
{
1002
}
1011
13.5
1021
-10.40239238739014
1031
-15.58316993713379
1011
13.5
1021
-10.40239238739014
1031
-14.58316993713379
1011
13.5
1021
-9.40239238739014
1031
-15.58316993713379
1011
12.5
1021
-10.40239238739014
1031
-15.58316993713379
1002
}
  0
VERTEX
  5
451
330
450
100
AcDbEntity
  8
0
 62
     7
100
AcDbVertex
100
AcDbPolyFaceMeshVertex
 10
0.0
 20
0.0
 30
0.0
 70
   192
  0
VERTEX
  5
452
330
450
100
AcDbEntity
  8
0
 62
     7
100
AcDbVertex
100
AcDbPolyFaceMeshVertex
 10
0.0
 20
3.499999999999991
 30
0.0
 70
   192
  0
VERTEX
  5
453
330
450
100
AcDbEntity
  8
0
 62
     7
100
AcDbVertex
100
AcDbPolyFaceMeshVertex
 10
3.499999999999998
 20
3.499999999999991
 30
0.0
 70
   192
  0
VERTEX
  5
454
330
450
100
AcDbEntity
  8
0
 62
     7
100
AcDbVertex
100
AcDbPolyFaceMeshVertex
 10
3.499999999999998
 20
0.0
 30
0.0
 70
   192
  0
VERTEX
  5
455
330
450
100
AcDbEntity
  8
0
 62
     7
100
AcDbVertex
100
AcDbPolyFaceMeshVertex
 10
0.0
 20
0.0
 30
6.0
 70
   192
  0
VERTEX
  5
456
330
450
100
AcDbEntity
  8
0
 62
     7
100
AcDbVertex
100
AcDbPolyFaceMeshVertex
 10
0.0
 20
3.499999999999991
 30
6.0
 70
   192
  0
VERTEX
  5
457
330
450
100
AcDbEntity
  8
0
 62
     7
100
AcDbVertex
100
AcDbPolyFaceMeshVertex
 10
3.499999999999998
 20
0.0
 30
6.0
 70
   192
  0
VERTEX
  5
458
330
450
100
AcDbEntity
  8
0
 62
     7
100
AcDbVertex
100
AcDbPolyFaceMeshVertex
 10
3.249999999999998
 20
3.249999999999991
 30
6.25
 70
   192
  0
VERTEX
  5
459
330
450
100
AcDbEntity
  8
0
 62
     7
100
AcDbVertex
100
AcDbPolyFaceMeshVertex
 10
3.249999999999998
 20
3.249999999999991
 30
6.0
 70
   192
  0
VERTEX
  5
45A
330
450
100
AcDbEntity
  8
0
 62
     7
100
AcDbVertex
100
AcDbPolyFaceMeshVertex
 10
0.25
 20
3.249999999999991
 30
6.0
 70
   192
  0
VERTEX
  5
45B
330
450
100
AcDbEntity
  8
0
 62
     7
100
AcDbVertex
100
AcDbPolyFaceMeshVertex
 10
0.25
 20
3.249999999999991
 30
6.25
 70
   192
  0
VERTEX
  5
45C
330
450
100
AcDbEntity
  8
0
 62
     7
100
AcDbVertex
100
AcDbPolyFaceMeshVertex
 10
0.25
 20
0.2499999999999911
 30
6.25
 70
   192
  0
VERTEX
  5
45D
330
450
100
AcDbEntity
  8
0
 62
     7
100
AcDbVertex
100
AcDbPolyFaceMeshVertex
 10
0.25
 20
0.2499999999999911
 30
6.0
 70
   192
  0
VERTEX
  5
45E
330
450
100
AcDbEntity
  8
0
 62
     7
100
AcDbVertex
100
AcDbPolyFaceMeshVertex
 10
3.249999999999998
 20
0.2499999999999911
 30
6.0
 70
   192
  0
VERTEX
  5
45F
330
450
100
AcDbEntity
  8
0
 62
     7
100
AcDbVertex
100
AcDbPolyFaceMeshVertex
 10
3.249999999999998
 20
0.2499999999999911
 30
6.25
 70
   192
  0
VERTEX
  5
460
330
450
100
AcDbEntity
  8
0
 62
     7
100
AcDbVertex
100
AcDbPolyFaceMeshVertex
 10
3.022910118103029
 20
3.022910118103018
 30
7.32227516174316
 70
   192
  0
VERTEX
  5
461
330
450
100
AcDbEntity
  8
0
 62
     7
100
AcDbVertex
100
AcDbPolyFaceMeshVertex
 10
0.4770898818969709
 20
3.022910118103018
 30
7.32227516174316
 70
   192
  0
VERTEX
  5
462
330
450
100
AcDbEntity
  8
0
 62
     7
100
AcDbVertex
100
AcDbPolyFaceMeshVertex
 10
0.5
 20
3.000000000000001
 30
7.585115432739261
 70
   192
  0
VERTEX
  5
463
330
450
100
AcDbEntity
  8
0
 62
     7
100
AcDbVertex
100
AcDbPolyFaceMeshVertex
 10
3.28388118743897
 20
3.283881187438959
 30
6.870082855224609
 70
   192
  0
VERTEX
  5
464
330
450
100
AcDbEntity
  8
0
 62
     7
100
AcDbVertex
100
AcDbPolyFaceMeshVertex
 10
3.499999999999998
 20
3.499999999999991
 30
6.71875
 70
   192
  0
VERTEX
  5
465
330
450
100
AcDbEntity
  8
0
 62
     7
100
AcDbVertex
100
AcDbPolyFaceMeshVertex
 10
0.2161188125610405
 20
3.283881187438959
 30
6.870082855224609
 70
   192
  0
VERTEX
  5
466
330
450
100
AcDbEntity
  8
0
 62
     7
100
AcDbVertex
100
AcDbPolyFaceMeshVertex
 10
3.120265960693357
 20
3.12026596069335
 30
7.07706069946289
 70
   192
  0
VERTEX
  5
467
330
450
100
AcDbEntity
  8
0
 62
     7
100
AcDbVertex
100
AcDbPolyFaceMeshVertex
 10
2.999999999999998
 20
3.000000000000001
 30
7.585115432739261
 70
   192
  0
VERTEX
  5
468
330
450
100
AcDbEntity
  8
0
 62
     7
100
AcDbVertex
100
AcDbPolyFaceMeshVertex
 10
0.3797340393066406
 20
3.12026596069335
 30
7.07706069946289
 70
   192
  0
VERTEX
  5
469
330
450
100
AcDbEntity
  8
0
 62
     7
100
AcDbVertex
100
AcDbPolyFaceMeshVertex
 10
0.0
 20
3.499999999999991
 30
6.71875
 70
   192
  0
VERTEX
  5
46A
330
450
100
AcDbEntity
  8
0
 62
     7
100
AcDbVertex
100
AcDbPolyFaceMeshVertex
 10
3.250000000000001
 20
0.2499999999999911
 30
28.24999809265136
 70
   192
  0
VERTEX
  5
46B
330
450
100
AcDbEntity
  8
0
 62
     7
100
AcDbVertex
100
AcDbPolyFaceMeshVertex
 10
3.250000000000001
 20
0.2499999999999911
 30
28.49999809265136
 70
   192
  0
VERTEX
  5
46C
330
450
100
AcDbEntity
  8
0
 62
     7
100
AcDbVertex
100
AcDbPolyFaceMeshVertex
 10
0.2500000000000018
 20
0.2499999999999911
 30
28.49999809265136
 70
   192
  0
VERTEX
  5
46D
330
450
100
AcDbEntity
  8
0
 62
     7
100
AcDbVertex
100
AcDbPolyFaceMeshVertex
 10
0.2500000000000018
 20
0.2499999999999911
 30
28.24999809265136
 70
   192
  0
VERTEX
  5
46E
330
450
100
AcDbEntity
  8
0
 62
     7
100
AcDbVertex
100
AcDbPolyFaceMeshVertex
 10
2.999999999999998
 20
3.000000000000001
 30
8.09375
 70
   192
  0
VERTEX
  5
46F
330
450
100
AcDbEntity
  8
0
 62
     7
100
AcDbVertex
100
AcDbPolyFaceMeshVertex
 10
0.5
 20
3.000000000000001
 30
8.09375
 70
   192
  0
VERTEX
  5
470
330
450
100
AcDbEntity
  8
0
 62
     7
100
AcDbVertex
100
AcDbPolyFaceMeshVertex
 10
3.022910118103029
 20
0.4770898818969691
 30
27.17772483825683
 70
   192
  0
VERTEX
  5
471
330
450
100
AcDbEntity
  8
0
 62
     7
100
AcDbVertex
100
AcDbPolyFaceMeshVertex
 10
0.4770898818969709
 20
0.4770898818969691
 30
27.17772483825683
 70
   192
  0
VERTEX
  5
472
330
450
100
AcDbEntity
  8
0
 62
     7
100
AcDbVertex
100
AcDbPolyFaceMeshVertex
 10
0.5
 20
0.4999999999999912
 30
26.91488456726074
 70
   192
  0
VERTEX
  5
473
330
450
100
AcDbEntity
  8
0
 62
     7
100
AcDbVertex
100
AcDbPolyFaceMeshVertex
 10
3.28388118743897
 20
0.2161188125610298
 30
27.62991523742676
 70
   192
  0
VERTEX
  5
474
330
450
100
AcDbEntity
  8
0
 62
     7
100
AcDbVertex
100
AcDbPolyFaceMeshVertex
 10
3.499999999999998
 20
0.0
 30
27.78124809265136
 70
   192
  0
VERTEX
  5
475
330
450
100
AcDbEntity
  8
0
 62
     7
100
AcDbVertex
100
AcDbPolyFaceMeshVertex
 10
0.2161188125610405
 20
0.2161188125610298
 30
27.62991523742676
 70
   192
  0
VERTEX
  5
476
330
450
100
AcDbEntity
  8
0
 62
     7
100
AcDbVertex
100
AcDbPolyFaceMeshVertex
 10
3.120265960693357
 20
0.3797340393066388
 30
27.42294120788574
 70
   192
  0
VERTEX
  5
477
330
450
100
AcDbEntity
  8
0
 62
     7
100
AcDbVertex
100
AcDbPolyFaceMeshVertex
 10
2.999999999999998
 20
0.4999999999999912
 30
26.91488456726074
 70
   192
  0
VERTEX
  5
478
330
450
100
AcDbEntity
  8
0
 62
     7
100
AcDbVertex
100
AcDbPolyFaceMeshVertex
 10
0.3797340393066406
 20
0.3797340393066388
 30
27.42294120788574
 70
   192
  0
VERTEX
  5
479
330
450
100
AcDbEntity
  8
0
 62
     7
100
AcDbVertex
100
AcDbPolyFaceMeshVertex
 10
0.0
 20
0.0
 30
27.78124809265136
 70
   192
  0
VERTEX
  5
47A
330
450
100
AcDbEntity
  8
0
 62
     7
100
AcDbVertex
100
AcDbPolyFaceMeshVertex
 10
2.999999999999998
 20
0.4999999999999912
 30
26.40624809265137
 70
   192
  0
VERTEX
  5
47B
330
450
100
AcDbEntity
  8
0
 62
     7
100
AcDbVertex
100
AcDbPolyFaceMeshVertex
 10
0.5
 20
0.4999999999999912
 30
26.40624809265137
 70
   192
  0
VERTEX
  5
47C
330
450
100
AcDbEntity
  8
0
 62
     7
100
AcDbVertex
100
AcDbPolyFaceMeshVertex
 10
3.249999999999998
 20
3.249999999999991
 30
8.8125
 70
   192
  0
VERTEX
  5
47D
330
450
100
AcDbEntity
  8
0
 62
     7
100
AcDbVertex
100
AcDbPolyFaceMeshVertex
 10
3.249999999999998
 20
3.249999999999991
 30
8.5625
 70
   192
  0
VERTEX
  5
47E
330
450
100
AcDbEntity
  8
0
 62
     7
100
AcDbVertex
100
AcDbPolyFaceMeshVertex
 10
0.25
 20
3.249999999999991
 30
8.5625
 70
   192
  0
VERTEX
  5
47F
330
450
100
AcDbEntity
  8
0
 62
     7
100
AcDbVertex
100
AcDbPolyFaceMeshVertex
 10
0.25
 20
3.249999999999991
 30
8.8125
 70
   192
  0
VERTEX
  5
480
330
450
100
AcDbEntity
  8
0
 62
     7
100
AcDbVertex
100
AcDbPolyFaceMeshVertex
 10
3.249999999999998
 20
0.2499999999999911
 30
25.68749809265136
 70
   192
  0
VERTEX
  5
481
330
450
100
AcDbEntity
  8
0
 62
     7
100
AcDbVertex
100
AcDbPolyFaceMeshVertex
 10
3.249999999999998
 20
0.2499999999999911
 30
25.93749809265137
 70
   192
  0
VERTEX
  5
482
330
450
100
AcDbEntity
  8
0
 62
     7
100
AcDbVertex
100
AcDbPolyFaceMeshVertex
 10
0.25
 20
0.2499999999999911
 30
25.93749809265137
 70
   192
  0
VERTEX
  5
483
330
450
100
AcDbEntity
  8
0
 62
     7
100
AcDbVertex
100
AcDbPolyFaceMeshVertex
 10
0.25
 20
0.2499999999999911
 30
25.68749809265136
 70
   192
  0
VERTEX
  5
484
330
450
100
AcDbEntity
  8
0
 62
     7
100
AcDbVertex
100
AcDbPolyFaceMeshVertex
 10
0.125
 20
0.3749999999999911
 30
9.1875
 70
   192
  0
VERTEX
  5
485
330
450
100
AcDbEntity
  8
0
 62
     7
100
AcDbVertex
100
AcDbPolyFaceMeshVertex
 10
0.125
 20
3.125000000000001
 30
9.1875
 70
   192
  0
VERTEX
  5
486
330
450
100
AcDbEntity
  8
0
 62
     7
100
AcDbVertex
100
AcDbPolyFaceMeshVertex
 10
0.0
 20
3.125000000000001
 30
9.1875
 70
   192
  0
VERTEX
  5
487
330
450
100
AcDbEntity
  8
0
 62
     7
100
AcDbVertex
100
AcDbPolyFaceMeshVertex
 10
0.0
 20
0.3749999999999911
 30
9.1875
 70
   192
  0
VERTEX
  5
488
330
450
100
AcDbEntity
  8
0
 62
     7
100
AcDbVertex
100
AcDbPolyFaceMeshVertex
 10
0.125
 20
3.125000000000001
 30
25.31249809265137
 70
   192
  0
VERTEX
  5
489
330
450
100
AcDbEntity
  8
0
 62
     7
100
AcDbVertex
100
AcDbPolyFaceMeshVertex
 10
0.0
 20
3.125000000000001
 30
25.31249809265137
 70
   192
  0
VERTEX
  5
48A
330
450
100
AcDbEntity
  8
0
 62
     7
100
AcDbVertex
100
AcDbPolyFaceMeshVertex
 10
0.125
 20
0.3749999999999911
 30
25.31249809265137
 70
   192
  0
VERTEX
  5
48B
330
450
100
AcDbEntity
  8
0
 62
     7
100
AcDbVertex
100
AcDbPolyFaceMeshVertex
 10
0.0
 20
0.3749999999999911
 30
25.31249809265137
 70
   192
  0
VERTEX
  5
48C
330
450
100
AcDbEntity
  8
0
 62
     7
100
AcDbVertex
100
AcDbPolyFaceMeshVertex
 10
3.499999999999998
 20
0.3749999999999911
 30
9.1875
 70
   192
  0
VERTEX
  5
48D
330
450
100
AcDbEntity
  8
0
 62
     7
100
AcDbVertex
100
AcDbPolyFaceMeshVertex
 10
3.499999999999998
 20
3.125000000000001
 30
9.1875
 70
   192
  0
VERTEX
  5
48E
330
450
100
AcDbEntity
  8
0
 62
     7
100
AcDbVertex
100
AcDbPolyFaceMeshVertex
 10
3.374999999999998
 20
3.125000000000001
 30
9.1875
 70
   192
  0
VERTEX
  5
48F
330
450
100
AcDbEntity
  8
0
 62
     7
100
AcDbVertex
100
AcDbPolyFaceMeshVertex
 10
3.374999999999998
 20
0.3749999999999911
 30
9.1875
 70
   192
  0
VERTEX
  5
490
330
450
100
AcDbEntity
  8
0
 62
     7
100
AcDbVertex
100
AcDbPolyFaceMeshVertex
 10
3.499999999999998
 20
3.125000000000001
 30
25.31249809265137
 70
   192
  0
VERTEX
  5
491
330
450
100
AcDbEntity
  8
0
 62
     7
100
AcDbVertex
100
AcDbPolyFaceMeshVertex
 10
3.374999999999998
 20
3.125000000000001
 30
25.31249809265137
 70
   192
  0
VERTEX
  5
492
330
450
100
AcDbEntity
  8
0
 62
     7
100
AcDbVertex
100
AcDbPolyFaceMeshVertex
 10
3.499999999999998
 20
0.3749999999999911
 30
25.31249809265137
 70
   192
  0
VERTEX
  5
493
330
450
100
AcDbEntity
  8
0
 62
     7
100
AcDbVertex
100
AcDbPolyFaceMeshVertex
 10
3.374999999999998
 20
0.3749999999999911
 30
25.31249809265137
 70
   192
  0
VERTEX
  5
494
330
450
100
AcDbEntity
  8
0
 62
     7
100
AcDbVertex
100
AcDbPolyFaceMeshVertex
 10
3.249999999999998
 20
0.2499999999999911
 30
8.5625
 70
   192
  0
VERTEX
  5
495
330
450
100
AcDbEntity
  8
0
 62
     7
100
AcDbVertex
100
AcDbPolyFaceMeshVertex
 10
3.249999999999998
 20
0.2499999999999911
 30
8.8125
 70
   192
  0
VERTEX
  5
496
330
450
100
AcDbEntity
  8
0
 62
     7
100
AcDbVertex
100
AcDbPolyFaceMeshVertex
 10
0.25
 20
0.2499999999999911
 30
8.8125
 70
   192
  0
VERTEX
  5
497
330
450
100
AcDbEntity
  8
0
 62
     7
100
AcDbVertex
100
AcDbPolyFaceMeshVertex
 10
0.25
 20
0.2499999999999911
 30
8.5625
 70
   192
  0
VERTEX
  5
498
330
450
100
AcDbEntity
  8
0
 62
     7
100
AcDbVertex
100
AcDbPolyFaceMeshVertex
 10
2.999999999999998
 20
0.4999999999999912
 30
7.585115432739261
 70
   192
  0
VERTEX
  5
499
330
450
100
AcDbEntity
  8
0
 62
     7
100
AcDbVertex
100
AcDbPolyFaceMeshVertex
 10
2.999999999999998
 20
0.4999999999999912
 30
8.09375
 70
   192
  0
VERTEX
  5
49A
330
450
100
AcDbEntity
  8
0
 62
     7
100
AcDbVertex
100
AcDbPolyFaceMeshVertex
 10
0.5
 20
0.4999999999999912
 30
8.09375
 70
   192
  0
VERTEX
  5
49B
330
450
100
AcDbEntity
  8
0
 62
     7
100
AcDbVertex
100
AcDbPolyFaceMeshVertex
 10
0.5
 20
0.4999999999999912
 30
7.585115432739261
 70
   192
  0
VERTEX
  5
49C
330
450
100
AcDbEntity
  8
0
 62
     7
100
AcDbVertex
100
AcDbPolyFaceMeshVertex
 10
3.28388118743897
 20
0.2161188125610298
 30
6.870082855224609
 70
   192
  0
VERTEX
  5
49D
330
450
100
AcDbEntity
  8
0
 62
     7
100
AcDbVertex
100
AcDbPolyFaceMeshVertex
 10
0.2161188125610405
 20
0.2161188125610298
 30
6.870082855224609
 70
   192
  0
VERTEX
  5
49E
330
450
100
AcDbEntity
  8
0
 62
     7
100
AcDbVertex
100
AcDbPolyFaceMeshVertex
 10
0.0
 20
0.0
 30
6.71875
 70
   192
  0
VERTEX
  5
49F
330
450
100
AcDbEntity
  8
0
 62
     7
100
AcDbVertex
100
AcDbPolyFaceMeshVertex
 10
3.022910118103029
 20
0.4770898818969691
 30
7.32227516174316
 70
   192
  0
VERTEX
  5
4A0
330
450
100
AcDbEntity
  8
0
 62
     7
100
AcDbVertex
100
AcDbPolyFaceMeshVertex
 10
0.4770898818969709
 20
0.4770898818969691
 30
7.32227516174316
 70
   192
  0
VERTEX
  5
4A1
330
450
100
AcDbEntity
  8
0
 62
     7
100
AcDbVertex
100
AcDbPolyFaceMeshVertex
 10
3.120265960693357
 20
0.3797340393066388
 30
7.07706069946289
 70
   192
  0
VERTEX
  5
4A2
330
450
100
AcDbEntity
  8
0
 62
     7
100
AcDbVertex
100
AcDbPolyFaceMeshVertex
 10
3.499999999999998
 20
0.0
 30
6.71875
 70
   192
  0
VERTEX
  5
4A3
330
450
100
AcDbEntity
  8
0
 62
     7
100
AcDbVertex
100
AcDbPolyFaceMeshVertex
 10
0.3797340393066406
 20
0.3797340393066388
 30
7.07706069946289
 70
   192
  0
VERTEX
  5
4A4
330
450
100
AcDbEntity
  8
0
 62
     7
100
AcDbVertex
100
AcDbPolyFaceMeshVertex
 10
3.249999999999998
 20
3.249999999999991
 30
25.93749809265137
 70
   192
  0
VERTEX
  5
4A5
330
450
100
AcDbEntity
  8
0
 62
     7
100
AcDbVertex
100
AcDbPolyFaceMeshVertex
 10
3.249999999999998
 20
3.249999999999991
 30
25.68749809265136
 70
   192
  0
VERTEX
  5
4A6
330
450
100
AcDbEntity
  8
0
 62
     7
100
AcDbVertex
100
AcDbPolyFaceMeshVertex
 10
0.25
 20
3.249999999999991
 30
25.68749809265136
 70
   192
  0
VERTEX
  5
4A7
330
450
100
AcDbEntity
  8
0
 62
     7
100
AcDbVertex
100
AcDbPolyFaceMeshVertex
 10
0.25
 20
3.249999999999991
 30
25.93749809265137
 70
   192
  0
VERTEX
  5
4A8
330
450
100
AcDbEntity
  8
0
 62
     7
100
AcDbVertex
100
AcDbPolyFaceMeshVertex
 10
2.999999999999998
 20
3.000000000000001
 30
26.91488456726074
 70
   192
  0
VERTEX
  5
4A9
330
450
100
AcDbEntity
  8
0
 62
     7
100
AcDbVertex
100
AcDbPolyFaceMeshVertex
 10
2.999999999999998
 20
3.000000000000001
 30
26.40624809265137
 70
   192
  0
VERTEX
  5
4AA
330
450
100
AcDbEntity
  8
0
 62
     7
100
AcDbVertex
100
AcDbPolyFaceMeshVertex
 10
0.5
 20
3.000000000000001
 30
26.40624809265137
 70
   192
  0
VERTEX
  5
4AB
330
450
100
AcDbEntity
  8
0
 62
     7
100
AcDbVertex
100
AcDbPolyFaceMeshVertex
 10
0.5
 20
3.000000000000001
 30
26.91488456726074
 70
   192
  0
VERTEX
  5
4AC
330
450
100
AcDbEntity
  8
0
 62
     7
100
AcDbVertex
100
AcDbPolyFaceMeshVertex
 10
3.28388118743897
 20
3.283881187438959
 30
27.62991523742676
 70
   192
  0
VERTEX
  5
4AD
330
450
100
AcDbEntity
  8
0
 62
     7
100
AcDbVertex
100
AcDbPolyFaceMeshVertex
 10
0.2161188125610405
 20
3.283881187438959
 30
27.62991523742676
 70
   192
  0
VERTEX
  5
4AE
330
450
100
AcDbEntity
  8
0
 62
     7
100
AcDbVertex
100
AcDbPolyFaceMeshVertex
 10
0.0
 20
3.499999999999991
 30
27.78124809265136
 70
   192
  0
VERTEX
  5
4AF
330
450
100
AcDbEntity
  8
0
 62
     7
100
AcDbVertex
100
AcDbPolyFaceMeshVertex
 10
3.022910118103029
 20
3.022910118103018
 30
27.17772483825683
 70
   192
  0
VERTEX
  5
4B0
330
450
100
AcDbEntity
  8
0
 62
     7
100
AcDbVertex
100
AcDbPolyFaceMeshVertex
 10
0.4770898818969709
 20
3.022910118103018
 30
27.17772483825683
 70
   192
  0
VERTEX
  5
4B1
330
450
100
AcDbEntity
  8
0
 62
     7
100
AcDbVertex
100
AcDbPolyFaceMeshVertex
 10
3.120265960693357
 20
3.12026596069335
 30
27.42294120788574
 70
   192
  0
VERTEX
  5
4B2
330
450
100
AcDbEntity
  8
0
 62
     7
100
AcDbVertex
100
AcDbPolyFaceMeshVertex
 10
3.499999999999998
 20
3.499999999999991
 30
27.78124809265136
 70
   192
  0
VERTEX
  5
4B3
330
450
100
AcDbEntity
  8
0
 62
     7
100
AcDbVertex
100
AcDbPolyFaceMeshVertex
 10
0.3797340393066406
 20
3.12026596069335
 30
27.42294120788574
 70
   192
  0
VERTEX
  5
4B4
330
450
100
AcDbEntity
  8
0
 62
     7
100
AcDbVertex
100
AcDbPolyFaceMeshVertex
 10
3.250000000000001
 20
3.249999999999991
 30
28.49999809265136
 70
   192
  0
VERTEX
  5
4B5
330
450
100
AcDbEntity
  8
0
 62
     7
100
AcDbVertex
100
AcDbPolyFaceMeshVertex
 10
3.250000000000001
 20
3.249999999999991
 30
28.24999809265136
 70
   192
  0
VERTEX
  5
4B6
330
450
100
AcDbEntity
  8
0
 62
     7
100
AcDbVertex
100
AcDbPolyFaceMeshVertex
 10
0.2500000000000018
 20
3.249999999999991
 30
28.24999809265136
 70
   192
  0
VERTEX
  5
4B7
330
450
100
AcDbEntity
  8
0
 62
     7
100
AcDbVertex
100
AcDbPolyFaceMeshVertex
 10
0.2500000000000018
 20
3.249999999999991
 30
28.49999809265136
 70
   192
  0
VERTEX
  5
4B8
330
450
100
AcDbEntity
  8
0
 62
     7
100
AcDbVertex
100
AcDbPolyFaceMeshVertex
 10
0.0
 20
3.499999999999991
 30
8.09375
 70
   192
  0
VERTEX
  5
4B9
330
450
100
AcDbEntity
  8
0
 62
     7
100
AcDbVertex
100
AcDbPolyFaceMeshVertex
 10
0.0
 20
0.0
 30
8.09375
 70
   192
  0
VERTEX
  5
4BA
330
450
100
AcDbEntity
  8
0
 62
     7
100
AcDbVertex
100
AcDbPolyFaceMeshVertex
 10
3.499999999999998
 20
0.0
 30
8.09375
 70
   192
  0
VERTEX
  5
4BB
330
450
100
AcDbEntity
  8
0
 62
     7
100
AcDbVertex
100
AcDbPolyFaceMeshVertex
 10
3.499999999999998
 20
3.499999999999991
 30
8.09375
 70
   192
  0
VERTEX
  5
4BC
330
450
100
AcDbEntity
  8
0
 62
     7
100
AcDbVertex
100
AcDbPolyFaceMeshVertex
 10
0.0
 20
3.499999999999991
 30
8.5625
 70
   192
  0
VERTEX
  5
4BD
330
450
100
AcDbEntity
  8
0
 62
     7
100
AcDbVertex
100
AcDbPolyFaceMeshVertex
 10
0.0
 20
0.0
 30
8.5625
 70
   192
  0
VERTEX
  5
4BE
330
450
100
AcDbEntity
  8
0
 62
     7
100
AcDbVertex
100
AcDbPolyFaceMeshVertex
 10
3.499999999999998
 20
3.499999999999991
 30
8.5625
 70
   192
  0
VERTEX
  5
4BF
330
450
100
AcDbEntity
  8
0
 62
     7
100
AcDbVertex
100
AcDbPolyFaceMeshVertex
 10
3.499999999999998
 20
0.0
 30
8.5625
 70
   192
  0
VERTEX
  5
4C0
330
450
100
AcDbEntity
  8
0
 62
     7
100
AcDbVertex
100
AcDbPolyFaceMeshVertex
 10
0.0
 20
3.499999999999991
 30
8.8125
 70
   192
  0
VERTEX
  5
4C1
330
450
100
AcDbEntity
  8
0
 62
     7
100
AcDbVertex
100
AcDbPolyFaceMeshVertex
 10
0.0
 20
0.0
 30
8.8125
 70
   192
  0
VERTEX
  5
4C2
330
450
100
AcDbEntity
  8
0
 62
     7
100
AcDbVertex
100
AcDbPolyFaceMeshVertex
 10
3.499999999999998
 20
0.0
 30
8.8125
 70
   192
  0
VERTEX
  5
4C3
330
450
100
AcDbEntity
  8
0
 62
     7
100
AcDbVertex
100
AcDbPolyFaceMeshVertex
 10
3.499999999999998
 20
3.499999999999991
 30
8.8125
 70
   192
  0
VERTEX
  5
4C4
330
450
100
AcDbEntity
  8
0
 62
     7
100
AcDbVertex
100
AcDbPolyFaceMeshVertex
 10
0.0
 20
3.499999999999991
 30
25.93749809265137
 70
   192
  0
VERTEX
  5
4C5
330
450
100
AcDbEntity
  8
0
 62
     7
100
AcDbVertex
100
AcDbPolyFaceMeshVertex
 10
0.0
 20
0.0
 30
25.93749809265137
 70
   192
  0
VERTEX
  5
4C6
330
450
100
AcDbEntity
  8
0
 62
     7
100
AcDbVertex
100
AcDbPolyFaceMeshVertex
 10
3.499999999999998
 20
0.0
 30
25.93749809265137
 70
   192
  0
VERTEX
  5
4C7
330
450
100
AcDbEntity
  8
0
 62
     7
100
AcDbVertex
100
AcDbPolyFaceMeshVertex
 10
3.499999999999998
 20
3.499999999999991
 30
25.93749809265137
 70
   192
  0
VERTEX
  5
4C8
330
450
100
AcDbEntity
  8
0
 62
     7
100
AcDbVertex
100
AcDbPolyFaceMeshVertex
 10
0.0
 20
3.499999999999991
 30
26.40624809265137
 70
   192
  0
VERTEX
  5
4C9
330
450
100
AcDbEntity
  8
0
 62
     7
100
AcDbVertex
100
AcDbPolyFaceMeshVertex
 10
3.499999999999998
 20
3.499999999999991
 30
26.40624809265137
 70
   192
  0
VERTEX
  5
4CA
330
450
100
AcDbEntity
  8
0
 62
     7
100
AcDbVertex
100
AcDbPolyFaceMeshVertex
 10
0.375
 20
3.499999999999991
 30
9.1875
 70
   192
  0
VERTEX
  5
4CB
330
450
100
AcDbEntity
  8
0
 62
     7
100
AcDbVertex
100
AcDbPolyFaceMeshVertex
 10
0.0
 20
3.499999999999991
 30
25.68749809265136
 70
   192
  0
VERTEX
  5
4CC
330
450
100
AcDbEntity
  8
0
 62
     7
100
AcDbVertex
100
AcDbPolyFaceMeshVertex
 10
0.375
 20
3.499999999999991
 30
25.31249809265137
 70
   192
  0
VERTEX
  5
4CD
330
450
100
AcDbEntity
  8
0
 62
     7
100
AcDbVertex
100
AcDbPolyFaceMeshVertex
 10
3.124999999999998
 20
3.499999999999991
 30
25.31249809265137
 70
   192
  0
VERTEX
  5
4CE
330
450
100
AcDbEntity
  8
0
 62
     7
100
AcDbVertex
100
AcDbPolyFaceMeshVertex
 10
3.124999999999998
 20
3.499999999999991
 30
9.1875
 70
   192
  0
VERTEX
  5
4CF
330
450
100
AcDbEntity
  8
0
 62
     7
100
AcDbVertex
100
AcDbPolyFaceMeshVertex
 10
3.499999999999998
 20
3.499999999999991
 30
25.68749809265136
 70
   192
  0
VERTEX
  5
4D0
330
450
100
AcDbEntity
  8
0
 62
     7
100
AcDbVertex
100
AcDbPolyFaceMeshVertex
 10
0.0000000000000018
 20
3.499999999999991
 30
28.24999809265136
 70
   192
  0
VERTEX
  5
4D1
330
450
100
AcDbEntity
  8
0
 62
     7
100
AcDbVertex
100
AcDbPolyFaceMeshVertex
 10
3.500000000000001
 20
3.499999999999991
 30
28.24999809265136
 70
   192
  0
VERTEX
  5
4D2
330
450
100
AcDbEntity
  8
0
 62
     7
100
AcDbVertex
100
AcDbPolyFaceMeshVertex
 10
0.0000000000000018
 20
3.499999999999991
 30
34.49999809265137
 70
   192
  0
VERTEX
  5
4D3
330
450
100
AcDbEntity
  8
0
 62
     7
100
AcDbVertex
100
AcDbPolyFaceMeshVertex
 10
3.500000000000001
 20
3.499999999999991
 30
34.49999809265137
 70
   192
  0
VERTEX
  5
4D4
330
450
100
AcDbEntity
  8
0
 62
     7
100
AcDbVertex
100
AcDbPolyFaceMeshVertex
 10
3.500000000000001
 20
3.499999999999991
 30
28.49999809265136
 70
   192
  0
VERTEX
  5
4D5
330
450
100
AcDbEntity
  8
0
 62
     7
100
AcDbVertex
100
AcDbPolyFaceMeshVertex
 10
0.0000000000000018
 20
3.499999999999991
 30
28.49999809265136
 70
   192
  0
VERTEX
  5
4D6
330
450
100
AcDbEntity
  8
0
 62
     7
100
AcDbVertex
100
AcDbPolyFaceMeshVertex
 10
3.499999999999998
 20
3.499999999999991
 30
6.25
 70
   192
  0
VERTEX
  5
4D7
330
450
100
AcDbEntity
  8
0
 62
     7
100
AcDbVertex
100
AcDbPolyFaceMeshVertex
 10
0.0
 20
3.499999999999991
 30
6.25
 70
   192
  0
VERTEX
  5
4D8
330
450
100
AcDbEntity
  8
0
 62
     7
100
AcDbVertex
100
AcDbPolyFaceMeshVertex
 10
3.499999999999998
 20
3.499999999999991
 30
6.0
 70
   192
  0
VERTEX
  5
4D9
330
450
100
AcDbEntity
  8
0
 62
     7
100
AcDbVertex
100
AcDbPolyFaceMeshVertex
 10
3.124999999999998
 20
0.0
 30
25.31249809265137
 70
   192
  0
VERTEX
  5
4DA
330
450
100
AcDbEntity
  8
0
 62
     7
100
AcDbVertex
100
AcDbPolyFaceMeshVertex
 10
0.0
 20
0.0
 30
25.68749809265136
 70
   192
  0
VERTEX
  5
4DB
330
450
100
AcDbEntity
  8
0
 62
     7
100
AcDbVertex
100
AcDbPolyFaceMeshVertex
 10
0.375
 20
0.0
 30
25.31249809265137
 70
   192
  0
VERTEX
  5
4DC
330
450
100
AcDbEntity
  8
0
 62
     7
100
AcDbVertex
100
AcDbPolyFaceMeshVertex
 10
3.499999999999998
 20
0.0
 30
25.68749809265136
 70
   192
  0
VERTEX
  5
4DD
330
450
100
AcDbEntity
  8
0
 62
     7
100
AcDbVertex
100
AcDbPolyFaceMeshVertex
 10
3.124999999999998
 20
0.0
 30
9.1875
 70
   192
  0
VERTEX
  5
4DE
330
450
100
AcDbEntity
  8
0
 62
     7
100
AcDbVertex
100
AcDbPolyFaceMeshVertex
 10
0.375
 20
0.0
 30
9.1875
 70
   192
  0
VERTEX
  5
4DF
330
450
100
AcDbEntity
  8
0
 62
     7
100
AcDbVertex
100
AcDbPolyFaceMeshVertex
 10
3.499999999999998
 20
0.0
 30
26.40624809265137
 70
   192
  0
VERTEX
  5
4E0
330
450
100
AcDbEntity
  8
0
 62
     7
100
AcDbVertex
100
AcDbPolyFaceMeshVertex
 10
0.0
 20
0.0
 30
26.40624809265137
 70
   192
  0
VERTEX
  5
4E1
330
450
100
AcDbEntity
  8
0
 62
     7
100
AcDbVertex
100
AcDbPolyFaceMeshVertex
 10
3.500000000000001
 20
0.0
 30
28.24999809265136
 70
   192
  0
VERTEX
  5
4E2
330
450
100
AcDbEntity
  8
0
 62
     7
100
AcDbVertex
100
AcDbPolyFaceMeshVertex
 10
0.0000000000000018
 20
0.0
 30
28.24999809265136
 70
   192
  0
VERTEX
  5
4E3
330
450
100
AcDbEntity
  8
0
 62
     7
100
AcDbVertex
100
AcDbPolyFaceMeshVertex
 10
3.500000000000001
 20
0.0
 30
34.49999809265137
 70
   192
  0
VERTEX
  5
4E4
330
450
100
AcDbEntity
  8
0
 62
     7
100
AcDbVertex
100
AcDbPolyFaceMeshVertex
 10
0.0000000000000018
 20
0.0
 30
34.49999809265137
 70
   192
  0
VERTEX
  5
4E5
330
450
100
AcDbEntity
  8
0
 62
     7
100
AcDbVertex
100
AcDbPolyFaceMeshVertex
 10
0.0000000000000018
 20
0.0
 30
28.49999809265136
 70
   192
  0
VERTEX
  5
4E6
330
450
100
AcDbEntity
  8
0
 62
     7
100
AcDbVertex
100
AcDbPolyFaceMeshVertex
 10
3.500000000000001
 20
0.0
 30
28.49999809265136
 70
   192
  0
VERTEX
  5
4E7
330
450
100
AcDbEntity
  8
0
 62
     7
100
AcDbVertex
100
AcDbPolyFaceMeshVertex
 10
0.0
 20
0.0
 30
6.25
 70
   192
  0
VERTEX
  5
4E8
330
450
100
AcDbEntity
  8
0
 62
     7
100
AcDbVertex
100
AcDbPolyFaceMeshVertex
 10
3.499999999999998
 20
0.0
 30
6.25
 70
   192
  0
VERTEX
  5
4E9
330
450
100
AcDbEntity
  8
0
 62
     7
100
AcDbVertex
100
AcDbPolyFaceMeshVertex
 10
0.375
 20
3.374999999999991
 30
9.1875
 70
   192
  0
VERTEX
  5
4EA
330
450
100
AcDbEntity
  8
0
 62
     7
100
AcDbVertex
100
AcDbPolyFaceMeshVertex
 10
3.124999999999998
 20
3.374999999999991
 30
9.1875
 70
   192
  0
VERTEX
  5
4EB
330
450
100
AcDbEntity
  8
0
 62
     7
100
AcDbVertex
100
AcDbPolyFaceMeshVertex
 10
3.124999999999998
 20
3.374999999999991
 30
25.31249809265137
 70
   192
  0
VERTEX
  5
4EC
330
450
100
AcDbEntity
  8
0
 62
     7
100
AcDbVertex
100
AcDbPolyFaceMeshVertex
 10
0.375
 20
3.374999999999991
 30
25.31249809265137
 70
   192
  0
VERTEX
  5
4ED
330
450
100
AcDbEntity
  8
0
 62
     7
100
AcDbVertex
100
AcDbPolyFaceMeshVertex
 10
3.124999999999998
 20
0.1249999999999911
 30
9.1875
 70
   192
  0
VERTEX
  5
4EE
330
450
100
AcDbEntity
  8
0
 62
     7
100
AcDbVertex
100
AcDbPolyFaceMeshVertex
 10
0.375
 20
0.1249999999999911
 30
9.1875
 70
   192
  0
VERTEX
  5
4EF
330
450
100
AcDbEntity
  8
0
 62
     7
100
AcDbVertex
100
AcDbPolyFaceMeshVertex
 10
3.124999999999998
 20
0.1249999999999911
 30
25.31249809265137
 70
   192
  0
VERTEX
  5
4F0
330
450
100
AcDbEntity
  8
0
 62
     7
100
AcDbVertex
100
AcDbPolyFaceMeshVertex
 10
0.375
 20
0.1249999999999911
 30
25.31249809265137
 70
   192
  0
VERTEX
  5
4F1
330
450
100
AcDbEntity
  8
0
 62
     7
100
AcDbFaceRecord
 10
0.0
 20
0.0
 30
0.0
 70
   128
 71
     1
 72
     2
 73
     3
  0
VERTEX
  5
4F2
330
450
100
AcDbEntity
  8
0
 62
     7
100
AcDbFaceRecord
 10
0.0
 20
0.0
 30
0.0
 70
   128
 71
     4
 72
     1
 73
     3
  0
VERTEX
  5
4F3
330
450
100
AcDbEntity
  8
0
 62
     7
100
AcDbFaceRecord
 10
0.0
 20
0.0
 30
0.0
 70
   128
 71
     1
 72
     5
 73
     6
  0
VERTEX
  5
4F4
330
450
100
AcDbEntity
  8
0
 62
     7
100
AcDbFaceRecord
 10
0.0
 20
0.0
 30
0.0
 70
   128
 71
     2
 72
     1
 73
     6
  0
VERTEX
  5
4F5
330
450
100
AcDbEntity
  8
0
 62
     7
100
AcDbFaceRecord
 10
0.0
 20
0.0
 30
0.0
 70
   128
 71
     7
 72
     5
 73
     1
  0
VERTEX
  5
4F6
330
450
100
AcDbEntity
  8
0
 62
     7
100
AcDbFaceRecord
 10
0.0
 20
0.0
 30
0.0
 70
   128
 71
     4
 72
     7
 73
     1
  0
VERTEX
  5
4F7
330
450
100
AcDbEntity
  8
0
 62
     7
100
AcDbFaceRecord
 10
0.0
 20
0.0
 30
0.0
 70
   128
 71
     8
 72
     9
 73
    10
  0
VERTEX
  5
4F8
330
450
100
AcDbEntity
  8
0
 62
     7
100
AcDbFaceRecord
 10
0.0
 20
0.0
 30
0.0
 70
   128
 71
    11
 72
     8
 73
    10
  0
VERTEX
  5
4F9
330
450
100
AcDbEntity
  8
0
 62
     7
100
AcDbFaceRecord
 10
0.0
 20
0.0
 30
0.0
 70
   128
 71
    12
 72
    13
 73
    14
  0
VERTEX
  5
4FA
330
450
100
AcDbEntity
  8
0
 62
     7
100
AcDbFaceRecord
 10
0.0
 20
0.0
 30
0.0
 70
   128
 71
    15
 72
    12
 73
    14
  0
VERTEX
  5
4FB
330
450
100
AcDbEntity
  8
0
 62
     7
100
AcDbFaceRecord
 10
0.0
 20
0.0
 30
0.0
 70
   128
 71
    16
 72
    17
 73
    18
  0
VERTEX
  5
4FC
330
450
100
AcDbEntity
  8
0
 62
     7
100
AcDbFaceRecord
 10
0.0
 20
0.0
 30
0.0
 70
   128
 71
    19
 72
    20
 73
    21
  0
VERTEX
  5
4FD
330
450
100
AcDbEntity
  8
0
 62
     7
100
AcDbFaceRecord
 10
0.0
 20
0.0
 30
0.0
 70
   128
 71
    22
 72
    19
 73
    21
  0
VERTEX
  5
4FE
330
450
100
AcDbEntity
  8
0
 62
     7
100
AcDbFaceRecord
 10
0.0
 20
0.0
 30
0.0
 70
   128
 71
    23
 72
    16
 73
    18
  0
VERTEX
  5
4FF
330
450
100
AcDbEntity
  8
0
 62
     7
100
AcDbFaceRecord
 10
0.0
 20
0.0
 30
0.0
 70
   128
 71
    24
 72
    17
 73
    16
  0
VERTEX
  5
500
330
450
100
AcDbEntity
  8
0
 62
     7
100
AcDbFaceRecord
 10
0.0
 20
0.0
 30
0.0
 70
   128
 71
    22
 72
    24
 73
    16
  0
VERTEX
  5
501
330
450
100
AcDbEntity
  8
0
 62
     7
100
AcDbFaceRecord
 10
0.0
 20
0.0
 30
0.0
 70
   128
 71
    24
 72
    22
 73
    21
  0
VERTEX
  5
502
330
450
100
AcDbEntity
  8
0
 62
     7
100
AcDbFaceRecord
 10
0.0
 20
0.0
 30
0.0
 70
   128
 71
    25
 72
    21
 73
    20
  0
VERTEX
  5
503
330
450
100
AcDbEntity
  8
0
 62
     7
100
AcDbFaceRecord
 10
0.0
 20
0.0
 30
0.0
 70
   128
 71
    26
 72
    27
 73
    28
  0
VERTEX
  5
504
330
450
100
AcDbEntity
  8
0
 62
     7
100
AcDbFaceRecord
 10
0.0
 20
0.0
 30
0.0
 70
   128
 71
    29
 72
    26
 73
    28
  0
VERTEX
  5
505
330
450
100
AcDbEntity
  8
0
 62
     7
100
AcDbFaceRecord
 10
0.0
 20
0.0
 30
0.0
 70
   128
 71
    30
 72
    23
 73
    18
  0
VERTEX
  5
506
330
450
100
AcDbEntity
  8
0
 62
     7
100
AcDbFaceRecord
 10
0.0
 20
0.0
 30
0.0
 70
   128
 71
    31
 72
    30
 73
    18
  0
VERTEX
  5
507
330
450
100
AcDbEntity
  8
0
 62
     7
100
AcDbFaceRecord
 10
0.0
 20
0.0
 30
0.0
 70
   128
 71
    32
 72
    33
 73
    34
  0
VERTEX
  5
508
330
450
100
AcDbEntity
  8
0
 62
     7
100
AcDbFaceRecord
 10
0.0
 20
0.0
 30
0.0
 70
   128
 71
    35
 72
    36
 73
    37
  0
VERTEX
  5
509
330
450
100
AcDbEntity
  8
0
 62
     7
100
AcDbFaceRecord
 10
0.0
 20
0.0
 30
0.0
 70
   128
 71
    38
 72
    35
 73
    37
  0
VERTEX
  5
50A
330
450
100
AcDbEntity
  8
0
 62
     7
100
AcDbFaceRecord
 10
0.0
 20
0.0
 30
0.0
 70
   128
 71
    39
 72
    32
 73
    34
  0
VERTEX
  5
50B
330
450
100
AcDbEntity
  8
0
 62
     7
100
AcDbFaceRecord
 10
0.0
 20
0.0
 30
0.0
 70
   128
 71
    40
 72
    33
 73
    32
  0
VERTEX
  5
50C
330
450
100
AcDbEntity
  8
0
 62
     7
100
AcDbFaceRecord
 10
0.0
 20
0.0
 30
0.0
 70
   128
 71
    38
 72
    40
 73
    32
  0
VERTEX
  5
50D
330
450
100
AcDbEntity
  8
0
 62
     7
100
AcDbFaceRecord
 10
0.0
 20
0.0
 30
0.0
 70
   128
 71
    40
 72
    38
 73
    37
  0
VERTEX
  5
50E
330
450
100
AcDbEntity
  8
0
 62
     7
100
AcDbFaceRecord
 10
0.0
 20
0.0
 30
0.0
 70
   128
 71
    41
 72
    37
 73
    36
  0
VERTEX
  5
50F
330
450
100
AcDbEntity
  8
0
 62
     7
100
AcDbFaceRecord
 10
0.0
 20
0.0
 30
0.0
 70
   128
 71
    42
 72
    39
 73
    34
  0
VERTEX
  5
510
330
450
100
AcDbEntity
  8
0
 62
     7
100
AcDbFaceRecord
 10
0.0
 20
0.0
 30
0.0
 70
   128
 71
    43
 72
    42
 73
    34
  0
VERTEX
  5
511
330
450
100
AcDbEntity
  8
0
 62
     7
100
AcDbFaceRecord
 10
0.0
 20
0.0
 30
0.0
 70
   128
 71
    44
 72
    45
 73
    46
  0
VERTEX
  5
512
330
450
100
AcDbEntity
  8
0
 62
     7
100
AcDbFaceRecord
 10
0.0
 20
0.0
 30
0.0
 70
   128
 71
    47
 72
    44
 73
    46
  0
VERTEX
  5
513
330
450
100
AcDbEntity
  8
0
 62
     7
100
AcDbFaceRecord
 10
0.0
 20
0.0
 30
0.0
 70
   128
 71
    48
 72
    49
 73
    50
  0
VERTEX
  5
514
330
450
100
AcDbEntity
  8
0
 62
     7
100
AcDbFaceRecord
 10
0.0
 20
0.0
 30
0.0
 70
   128
 71
    51
 72
    48
 73
    50
  0
VERTEX
  5
515
330
450
100
AcDbEntity
  8
0
 62
     7
100
AcDbFaceRecord
 10
0.0
 20
0.0
 30
0.0
 70
   128
 71
    52
 72
    53
 73
    54
  0
VERTEX
  5
516
330
450
100
AcDbEntity
  8
0
 62
     7
100
AcDbFaceRecord
 10
0.0
 20
0.0
 30
0.0
 70
   128
 71
    55
 72
    52
 73
    54
  0
VERTEX
  5
517
330
450
100
AcDbEntity
  8
0
 62
     7
100
AcDbFaceRecord
 10
0.0
 20
0.0
 30
0.0
 70
   128
 71
    53
 72
    56
 73
    57
  0
VERTEX
  5
518
330
450
100
AcDbEntity
  8
0
 62
     7
100
AcDbFaceRecord
 10
0.0
 20
0.0
 30
0.0
 70
   128
 71
    54
 72
    53
 73
    57
  0
VERTEX
  5
519
330
450
100
AcDbEntity
  8
0
 62
     7
100
AcDbFaceRecord
 10
0.0
 20
0.0
 30
0.0
 70
   128
 71
    56
 72
    58
 73
    59
  0
VERTEX
  5
51A
330
450
100
AcDbEntity
  8
0
 62
     7
100
AcDbFaceRecord
 10
0.0
 20
0.0
 30
0.0
 70
   128
 71
    57
 72
    56
 73
    59
  0
VERTEX
  5
51B
330
450
100
AcDbEntity
  8
0
 62
     7
100
AcDbFaceRecord
 10
0.0
 20
0.0
 30
0.0
 70
   128
 71
    58
 72
    52
 73
    55
  0
VERTEX
  5
51C
330
450
100
AcDbEntity
  8
0
 62
     7
100
AcDbFaceRecord
 10
0.0
 20
0.0
 30
0.0
 70
   128
 71
    59
 72
    58
 73
    55
  0
VERTEX
  5
51D
330
450
100
AcDbEntity
  8
0
 62
     7
100
AcDbFaceRecord
 10
0.0
 20
0.0
 30
0.0
 70
   128
 71
    58
 72
    56
 73
    53
  0
VERTEX
  5
51E
330
450
100
AcDbEntity
  8
0
 62
     7
100
AcDbFaceRecord
 10
0.0
 20
0.0
 30
0.0
 70
   128
 71
    52
 72
    58
 73
    53
  0
VERTEX
  5
51F
330
450
100
AcDbEntity
  8
0
 62
     7
100
AcDbFaceRecord
 10
0.0
 20
0.0
 30
0.0
 70
   128
 71
    60
 72
    61
 73
    62
  0
VERTEX
  5
520
330
450
100
AcDbEntity
  8
0
 62
     7
100
AcDbFaceRecord
 10
0.0
 20
0.0
 30
0.0
 70
   128
 71
    63
 72
    60
 73
    62
  0
VERTEX
  5
521
330
450
100
AcDbEntity
  8
0
 62
     7
100
AcDbFaceRecord
 10
0.0
 20
0.0
 30
0.0
 70
   128
 71
    61
 72
    64
 73
    65
  0
VERTEX
  5
522
330
450
100
AcDbEntity
  8
0
 62
     7
100
AcDbFaceRecord
 10
0.0
 20
0.0
 30
0.0
 70
   128
 71
    62
 72
    61
 73
    65
  0
VERTEX
  5
523
330
450
100
AcDbEntity
  8
0
 62
     7
100
AcDbFaceRecord
 10
0.0
 20
0.0
 30
0.0
 70
   128
 71
    64
 72
    66
 73
    67
  0
VERTEX
  5
524
330
450
100
AcDbEntity
  8
0
 62
     7
100
AcDbFaceRecord
 10
0.0
 20
0.0
 30
0.0
 70
   128
 71
    65
 72
    64
 73
    67
  0
VERTEX
  5
525
330
450
100
AcDbEntity
  8
0
 62
     7
100
AcDbFaceRecord
 10
0.0
 20
0.0
 30
0.0
 70
   128
 71
    66
 72
    60
 73
    63
  0
VERTEX
  5
526
330
450
100
AcDbEntity
  8
0
 62
     7
100
AcDbFaceRecord
 10
0.0
 20
0.0
 30
0.0
 70
   128
 71
    67
 72
    66
 73
    63
  0
VERTEX
  5
527
330
450
100
AcDbEntity
  8
0
 62
     7
100
AcDbFaceRecord
 10
0.0
 20
0.0
 30
0.0
 70
   128
 71
    65
 72
    67
 73
    63
  0
VERTEX
  5
528
330
450
100
AcDbEntity
  8
0
 62
     7
100
AcDbFaceRecord
 10
0.0
 20
0.0
 30
0.0
 70
   128
 71
    62
 72
    65
 73
    63
  0
VERTEX
  5
529
330
450
100
AcDbEntity
  8
0
 62
     7
100
AcDbFaceRecord
 10
0.0
 20
0.0
 30
0.0
 70
   128
 71
    68
 72
    69
 73
    70
  0
VERTEX
  5
52A
330
450
100
AcDbEntity
  8
0
 62
     7
100
AcDbFaceRecord
 10
0.0
 20
0.0
 30
0.0
 70
   128
 71
    71
 72
    68
 73
    70
  0
VERTEX
  5
52B
330
450
100
AcDbEntity
  8
0
 62
     7
100
AcDbFaceRecord
 10
0.0
 20
0.0
 30
0.0
 70
   128
 71
    72
 72
    73
 73
    74
  0
VERTEX
  5
52C
330
450
100
AcDbEntity
  8
0
 62
     7
100
AcDbFaceRecord
 10
0.0
 20
0.0
 30
0.0
 70
   128
 71
    75
 72
    72
 73
    74
  0
VERTEX
  5
52D
330
450
100
AcDbEntity
  8
0
 62
     7
100
AcDbFaceRecord
 10
0.0
 20
0.0
 30
0.0
 70
   128
 71
    76
 72
    77
 73
    78
  0
VERTEX
  5
52E
330
450
100
AcDbEntity
  8
0
 62
     7
100
AcDbFaceRecord
 10
0.0
 20
0.0
 30
0.0
 70
   128
 71
    79
 72
    72
 73
    80
  0
VERTEX
  5
52F
330
450
100
AcDbEntity
  8
0
 62
     7
100
AcDbFaceRecord
 10
0.0
 20
0.0
 30
0.0
 70
   128
 71
    81
 72
    79
 73
    80
  0
VERTEX
  5
530
330
450
100
AcDbEntity
  8
0
 62
     7
100
AcDbFaceRecord
 10
0.0
 20
0.0
 30
0.0
 70
   128
 71
    82
 72
    76
 73
    78
  0
VERTEX
  5
531
330
450
100
AcDbEntity
  8
0
 62
     7
100
AcDbFaceRecord
 10
0.0
 20
0.0
 30
0.0
 70
   128
 71
    83
 72
    77
 73
    76
  0
VERTEX
  5
532
330
450
100
AcDbEntity
  8
0
 62
     7
100
AcDbFaceRecord
 10
0.0
 20
0.0
 30
0.0
 70
   128
 71
    81
 72
    83
 73
    76
  0
VERTEX
  5
533
330
450
100
AcDbEntity
  8
0
 62
     7
100
AcDbFaceRecord
 10
0.0
 20
0.0
 30
0.0
 70
   128
 71
    83
 72
    81
 73
    80
  0
VERTEX
  5
534
330
450
100
AcDbEntity
  8
0
 62
     7
100
AcDbFaceRecord
 10
0.0
 20
0.0
 30
0.0
 70
   128
 71
    75
 72
    80
 73
    72
  0
VERTEX
  5
535
330
450
100
AcDbEntity
  8
0
 62
     7
100
AcDbFaceRecord
 10
0.0
 20
0.0
 30
0.0
 70
   128
 71
    84
 72
    85
 73
    86
  0
VERTEX
  5
536
330
450
100
AcDbEntity
  8
0
 62
     7
100
AcDbFaceRecord
 10
0.0
 20
0.0
 30
0.0
 70
   128
 71
    87
 72
    84
 73
    86
  0
VERTEX
  5
537
330
450
100
AcDbEntity
  8
0
 62
     7
100
AcDbFaceRecord
 10
0.0
 20
0.0
 30
0.0
 70
   128
 71
    88
 72
    89
 73
    90
  0
VERTEX
  5
538
330
450
100
AcDbEntity
  8
0
 62
     7
100
AcDbFaceRecord
 10
0.0
 20
0.0
 30
0.0
 70
   128
 71
    91
 72
    88
 73
    90
  0
VERTEX
  5
539
330
450
100
AcDbEntity
  8
0
 62
     7
100
AcDbFaceRecord
 10
0.0
 20
0.0
 30
0.0
 70
   128
 71
    92
 72
    93
 73
    94
  0
VERTEX
  5
53A
330
450
100
AcDbEntity
  8
0
 62
     7
100
AcDbFaceRecord
 10
0.0
 20
0.0
 30
0.0
 70
   128
 71
    95
 72
    88
 73
    96
  0
VERTEX
  5
53B
330
450
100
AcDbEntity
  8
0
 62
     7
100
AcDbFaceRecord
 10
0.0
 20
0.0
 30
0.0
 70
   128
 71
    97
 72
    95
 73
    96
  0
VERTEX
  5
53C
330
450
100
AcDbEntity
  8
0
 62
     7
100
AcDbFaceRecord
 10
0.0
 20
0.0
 30
0.0
 70
   128
 71
    98
 72
    92
 73
    94
  0
VERTEX
  5
53D
330
450
100
AcDbEntity
  8
0
 62
     7
100
AcDbFaceRecord
 10
0.0
 20
0.0
 30
0.0
 70
   128
 71
    99
 72
    93
 73
    92
  0
VERTEX
  5
53E
330
450
100
AcDbEntity
  8
0
 62
     7
100
AcDbFaceRecord
 10
0.0
 20
0.0
 30
0.0
 70
   128
 71
    97
 72
    99
 73
    92
  0
VERTEX
  5
53F
330
450
100
AcDbEntity
  8
0
 62
     7
100
AcDbFaceRecord
 10
0.0
 20
0.0
 30
0.0
 70
   128
 71
    99
 72
    97
 73
    96
  0
VERTEX
  5
540
330
450
100
AcDbEntity
  8
0
 62
     7
100
AcDbFaceRecord
 10
0.0
 20
0.0
 30
0.0
 70
   128
 71
    91
 72
    96
 73
    88
  0
VERTEX
  5
541
330
450
100
AcDbEntity
  8
0
 62
     7
100
AcDbFaceRecord
 10
0.0
 20
0.0
 30
0.0
 70
   128
 71
   100
 72
   101
 73
   102
  0
VERTEX
  5
542
330
450
100
AcDbEntity
  8
0
 62
     7
100
AcDbFaceRecord
 10
0.0
 20
0.0
 30
0.0
 70
   128
 71
   103
 72
   100
 73
   102
  0
VERTEX
  5
543
330
450
100
AcDbEntity
  8
0
 62
     7
100
AcDbFaceRecord
 10
0.0
 20
0.0
 30
0.0
 70
   128
 71
    15
 72
    14
 73
     9
  0
VERTEX
  5
544
330
450
100
AcDbEntity
  8
0
 62
     7
100
AcDbFaceRecord
 10
0.0
 20
0.0
 30
0.0
 70
   128
 71
     8
 72
    15
 73
     9
  0
VERTEX
  5
545
330
450
100
AcDbEntity
  8
0
 62
     7
100
AcDbFaceRecord
 10
0.0
 20
0.0
 30
0.0
 70
   128
 71
    29
 72
    28
 73
   103
  0
VERTEX
  5
546
330
450
100
AcDbEntity
  8
0
 62
     7
100
AcDbFaceRecord
 10
0.0
 20
0.0
 30
0.0
 70
   128
 71
   102
 72
    29
 73
   103
  0
VERTEX
  5
547
330
450
100
AcDbEntity
  8
0
 62
     7
100
AcDbFaceRecord
 10
0.0
 20
0.0
 30
0.0
 70
   128
 71
    79
 72
    16
 73
    23
  0
VERTEX
  5
548
330
450
100
AcDbEntity
  8
0
 62
     7
100
AcDbFaceRecord
 10
0.0
 20
0.0
 30
0.0
 70
   128
 71
    76
 72
    82
 73
    19
  0
VERTEX
  5
549
330
450
100
AcDbEntity
  8
0
 62
     7
100
AcDbFaceRecord
 10
0.0
 20
0.0
 30
0.0
 70
   128
 71
    81
 72
    76
 73
    19
  0
VERTEX
  5
54A
330
450
100
AcDbEntity
  8
0
 62
     7
100
AcDbFaceRecord
 10
0.0
 20
0.0
 30
0.0
 70
   128
 71
    72
 72
    79
 73
    23
  0
VERTEX
  5
54B
330
450
100
AcDbEntity
  8
0
 62
     7
100
AcDbFaceRecord
 10
0.0
 20
0.0
 30
0.0
 70
   128
 71
    22
 72
    16
 73
    79
  0
VERTEX
  5
54C
330
450
100
AcDbEntity
  8
0
 62
     7
100
AcDbFaceRecord
 10
0.0
 20
0.0
 30
0.0
 70
   128
 71
    81
 72
    22
 73
    79
  0
VERTEX
  5
54D
330
450
100
AcDbEntity
  8
0
 62
     7
100
AcDbFaceRecord
 10
0.0
 20
0.0
 30
0.0
 70
   128
 71
    22
 72
    81
 73
    19
  0
VERTEX
  5
54E
330
450
100
AcDbEntity
  8
0
 62
     7
100
AcDbFaceRecord
 10
0.0
 20
0.0
 30
0.0
 70
   128
 71
    20
 72
    19
 73
    82
  0
VERTEX
  5
54F
330
450
100
AcDbEntity
  8
0
 62
     7
100
AcDbFaceRecord
 10
0.0
 20
0.0
 30
0.0
 70
   128
 71
    73
 72
    72
 73
    23
  0
VERTEX
  5
550
330
450
100
AcDbEntity
  8
0
 62
     7
100
AcDbFaceRecord
 10
0.0
 20
0.0
 30
0.0
 70
   128
 71
    30
 72
    73
 73
    23
  0
VERTEX
  5
551
330
450
100
AcDbEntity
  8
0
 62
     7
100
AcDbFaceRecord
 10
0.0
 20
0.0
 30
0.0
 70
   128
 71
    74
 72
   104
 73
    31
  0
VERTEX
  5
552
330
450
100
AcDbEntity
  8
0
 62
     7
100
AcDbFaceRecord
 10
0.0
 20
0.0
 30
0.0
 70
   128
 71
   105
 72
   104
 73
    74
  0
VERTEX
  5
553
330
450
100
AcDbEntity
  8
0
 62
     7
100
AcDbFaceRecord
 10
0.0
 20
0.0
 30
0.0
 70
   128
 71
   105
 72
    73
 73
   106
  0
VERTEX
  5
554
330
450
100
AcDbEntity
  8
0
 62
     7
100
AcDbFaceRecord
 10
0.0
 20
0.0
 30
0.0
 70
   128
 71
    73
 72
   105
 73
    74
  0
VERTEX
  5
555
330
450
100
AcDbEntity
  8
0
 62
     7
100
AcDbFaceRecord
 10
0.0
 20
0.0
 30
0.0
 70
   128
 71
    30
 72
   106
 73
    73
  0
VERTEX
  5
556
330
450
100
AcDbEntity
  8
0
 62
     7
100
AcDbFaceRecord
 10
0.0
 20
0.0
 30
0.0
 70
   128
 71
    30
 72
   107
 73
   106
  0
VERTEX
  5
557
330
450
100
AcDbEntity
  8
0
 62
     7
100
AcDbFaceRecord
 10
0.0
 20
0.0
 30
0.0
 70
   128
 71
    30
 72
   104
 73
   107
  0
VERTEX
  5
558
330
450
100
AcDbEntity
  8
0
 62
     7
100
AcDbFaceRecord
 10
0.0
 20
0.0
 30
0.0
 70
   128
 71
    30
 72
    31
 73
   104
  0
VERTEX
  5
559
330
450
100
AcDbEntity
  8
0
 62
     7
100
AcDbFaceRecord
 10
0.0
 20
0.0
 30
0.0
 70
   128
 71
    33
 72
    96
 73
    91
  0
VERTEX
  5
55A
330
450
100
AcDbEntity
  8
0
 62
     7
100
AcDbFaceRecord
 10
0.0
 20
0.0
 30
0.0
 70
   128
 71
    37
 72
    41
 73
    93
  0
VERTEX
  5
55B
330
450
100
AcDbEntity
  8
0
 62
     7
100
AcDbFaceRecord
 10
0.0
 20
0.0
 30
0.0
 70
   128
 71
    40
 72
    37
 73
    93
  0
VERTEX
  5
55C
330
450
100
AcDbEntity
  8
0
 62
     7
100
AcDbFaceRecord
 10
0.0
 20
0.0
 30
0.0
 70
   128
 71
    34
 72
    33
 73
    91
  0
VERTEX
  5
55D
330
450
100
AcDbEntity
  8
0
 62
     7
100
AcDbFaceRecord
 10
0.0
 20
0.0
 30
0.0
 70
   128
 71
    99
 72
    96
 73
    33
  0
VERTEX
  5
55E
330
450
100
AcDbEntity
  8
0
 62
     7
100
AcDbFaceRecord
 10
0.0
 20
0.0
 30
0.0
 70
   128
 71
    40
 72
    99
 73
    33
  0
VERTEX
  5
55F
330
450
100
AcDbEntity
  8
0
 62
     7
100
AcDbFaceRecord
 10
0.0
 20
0.0
 30
0.0
 70
   128
 71
    99
 72
    40
 73
    93
  0
VERTEX
  5
560
330
450
100
AcDbEntity
  8
0
 62
     7
100
AcDbFaceRecord
 10
0.0
 20
0.0
 30
0.0
 70
   128
 71
    94
 72
    93
 73
    41
  0
VERTEX
  5
561
330
450
100
AcDbEntity
  8
0
 62
     7
100
AcDbFaceRecord
 10
0.0
 20
0.0
 30
0.0
 70
   128
 71
    43
 72
    34
 73
    91
  0
VERTEX
  5
562
330
450
100
AcDbEntity
  8
0
 62
     7
100
AcDbFaceRecord
 10
0.0
 20
0.0
 30
0.0
 70
   128
 71
    90
 72
    43
 73
    91
  0
VERTEX
  5
563
330
450
100
AcDbEntity
  8
0
 62
     7
100
AcDbFaceRecord
 10
0.0
 20
0.0
 30
0.0
 70
   128
 71
    46
 72
   108
 73
   109
  0
VERTEX
  5
564
330
450
100
AcDbEntity
  8
0
 62
     7
100
AcDbFaceRecord
 10
0.0
 20
0.0
 30
0.0
 70
   128
 71
    71
 72
    46
 73
   109
  0
VERTEX
  5
565
330
450
100
AcDbEntity
  8
0
 62
     7
100
AcDbFaceRecord
 10
0.0
 20
0.0
 30
0.0
 70
   128
 71
    68
 72
    71
 73
   109
  0
VERTEX
  5
566
330
450
100
AcDbEntity
  8
0
 62
     7
100
AcDbFaceRecord
 10
0.0
 20
0.0
 30
0.0
 70
   128
 71
    45
 72
    68
 73
   110
  0
VERTEX
  5
567
330
450
100
AcDbEntity
  8
0
 62
     7
100
AcDbFaceRecord
 10
0.0
 20
0.0
 30
0.0
 70
   128
 71
   111
 72
   110
 73
    68
  0
VERTEX
  5
568
330
450
100
AcDbEntity
  8
0
 62
     7
100
AcDbFaceRecord
 10
0.0
 20
0.0
 30
0.0
 70
   128
 71
   111
 72
    68
 73
   109
  0
VERTEX
  5
569
330
450
100
AcDbEntity
  8
0
 62
     7
100
AcDbFaceRecord
 10
0.0
 20
0.0
 30
0.0
 70
   128
 71
    45
 72
   108
 73
    46
  0
VERTEX
  5
56A
330
450
100
AcDbEntity
  8
0
 62
     7
100
AcDbFaceRecord
 10
0.0
 20
0.0
 30
0.0
 70
   128
 71
   108
 72
    45
 73
   110
  0
VERTEX
  5
56B
330
450
100
AcDbEntity
  8
0
 62
     7
100
AcDbFaceRecord
 10
0.0
 20
0.0
 30
0.0
 70
   128
 71
    70
 72
   112
 73
    47
  0
VERTEX
  5
56C
330
450
100
AcDbEntity
  8
0
 62
     7
100
AcDbFaceRecord
 10
0.0
 20
0.0
 30
0.0
 70
   128
 71
   113
 72
   112
 73
    70
  0
VERTEX
  5
56D
330
450
100
AcDbEntity
  8
0
 62
     7
100
AcDbFaceRecord
 10
0.0
 20
0.0
 30
0.0
 70
   128
 71
   113
 72
    69
 73
   114
  0
VERTEX
  5
56E
330
450
100
AcDbEntity
  8
0
 62
     7
100
AcDbFaceRecord
 10
0.0
 20
0.0
 30
0.0
 70
   128
 71
    69
 72
   113
 73
    70
  0
VERTEX
  5
56F
330
450
100
AcDbEntity
  8
0
 62
     7
100
AcDbFaceRecord
 10
0.0
 20
0.0
 30
0.0
 70
   128
 71
    44
 72
   114
 73
    69
  0
VERTEX
  5
570
330
450
100
AcDbEntity
  8
0
 62
     7
100
AcDbFaceRecord
 10
0.0
 20
0.0
 30
0.0
 70
   128
 71
    44
 72
   115
 73
   114
  0
VERTEX
  5
571
330
450
100
AcDbEntity
  8
0
 62
     7
100
AcDbFaceRecord
 10
0.0
 20
0.0
 30
0.0
 70
   128
 71
    44
 72
   112
 73
   115
  0
VERTEX
  5
572
330
450
100
AcDbEntity
  8
0
 62
     7
100
AcDbFaceRecord
 10
0.0
 20
0.0
 30
0.0
 70
   128
 71
    44
 72
    47
 73
   112
  0
VERTEX
  5
573
330
450
100
AcDbEntity
  8
0
 62
     7
100
AcDbFaceRecord
 10
0.0
 20
0.0
 30
0.0
 70
   128
 71
    50
 72
   116
 73
    87
  0
VERTEX
  5
574
330
450
100
AcDbEntity
  8
0
 62
     7
100
AcDbFaceRecord
 10
0.0
 20
0.0
 30
0.0
 70
   128
 71
   117
 72
   116
 73
    50
  0
VERTEX
  5
575
330
450
100
AcDbEntity
  8
0
 62
     7
100
AcDbFaceRecord
 10
0.0
 20
0.0
 30
0.0
 70
   128
 71
   117
 72
    49
 73
   118
  0
VERTEX
  5
576
330
450
100
AcDbEntity
  8
0
 62
     7
100
AcDbFaceRecord
 10
0.0
 20
0.0
 30
0.0
 70
   128
 71
    49
 72
   117
 73
    50
  0
VERTEX
  5
577
330
450
100
AcDbEntity
  8
0
 62
     7
100
AcDbFaceRecord
 10
0.0
 20
0.0
 30
0.0
 70
   128
 71
    84
 72
   118
 73
    49
  0
VERTEX
  5
578
330
450
100
AcDbEntity
  8
0
 62
     7
100
AcDbFaceRecord
 10
0.0
 20
0.0
 30
0.0
 70
   128
 71
    84
 72
   119
 73
   118
  0
VERTEX
  5
579
330
450
100
AcDbEntity
  8
0
 62
     7
100
AcDbFaceRecord
 10
0.0
 20
0.0
 30
0.0
 70
   128
 71
    84
 72
   116
 73
   119
  0
VERTEX
  5
57A
330
450
100
AcDbEntity
  8
0
 62
     7
100
AcDbFaceRecord
 10
0.0
 20
0.0
 30
0.0
 70
   128
 71
    84
 72
    87
 73
   116
  0
VERTEX
  5
57B
330
450
100
AcDbEntity
  8
0
 62
     7
100
AcDbFaceRecord
 10
0.0
 20
0.0
 30
0.0
 70
   128
 71
    69
 72
    68
 73
    45
  0
VERTEX
  5
57C
330
450
100
AcDbEntity
  8
0
 62
     7
100
AcDbFaceRecord
 10
0.0
 20
0.0
 30
0.0
 70
   128
 71
    44
 72
    69
 73
    45
  0
VERTEX
  5
57D
330
450
100
AcDbEntity
  8
0
 62
     7
100
AcDbFaceRecord
 10
0.0
 20
0.0
 30
0.0
 70
   128
 71
   119
 72
   116
 73
   120
  0
VERTEX
  5
57E
330
450
100
AcDbEntity
  8
0
 62
     7
100
AcDbFaceRecord
 10
0.0
 20
0.0
 30
0.0
 70
   128
 71
   121
 72
   119
 73
   120
  0
VERTEX
  5
57F
330
450
100
AcDbEntity
  8
0
 62
     7
100
AcDbFaceRecord
 10
0.0
 20
0.0
 30
0.0
 70
   128
 71
   122
 72
   112
 73
   123
  0
VERTEX
  5
580
330
450
100
AcDbEntity
  8
0
 62
     7
100
AcDbFaceRecord
 10
0.0
 20
0.0
 30
0.0
 70
   128
 71
   124
 72
   122
 73
   123
  0
VERTEX
  5
581
330
450
100
AcDbEntity
  8
0
 62
     7
100
AcDbFaceRecord
 10
0.0
 20
0.0
 30
0.0
 70
   128
 71
   125
 72
   124
 73
   123
  0
VERTEX
  5
582
330
450
100
AcDbEntity
  8
0
 62
     7
100
AcDbFaceRecord
 10
0.0
 20
0.0
 30
0.0
 70
   128
 71
   126
 72
   125
 73
   115
  0
VERTEX
  5
583
330
450
100
AcDbEntity
  8
0
 62
     7
100
AcDbFaceRecord
 10
0.0
 20
0.0
 30
0.0
 70
   128
 71
   127
 72
   115
 73
   125
  0
VERTEX
  5
584
330
450
100
AcDbEntity
  8
0
 62
     7
100
AcDbFaceRecord
 10
0.0
 20
0.0
 30
0.0
 70
   128
 71
   127
 72
   125
 73
   123
  0
VERTEX
  5
585
330
450
100
AcDbEntity
  8
0
 62
     7
100
AcDbFaceRecord
 10
0.0
 20
0.0
 30
0.0
 70
   128
 71
   126
 72
   112
 73
   122
  0
VERTEX
  5
586
330
450
100
AcDbEntity
  8
0
 62
     7
100
AcDbFaceRecord
 10
0.0
 20
0.0
 30
0.0
 70
   128
 71
   112
 72
   126
 73
   115
  0
VERTEX
  5
587
330
450
100
AcDbEntity
  8
0
 62
     7
100
AcDbFaceRecord
 10
0.0
 20
0.0
 30
0.0
 70
   128
 71
    98
 72
    94
 73
   128
  0
VERTEX
  5
588
330
450
100
AcDbEntity
  8
0
 62
     7
100
AcDbFaceRecord
 10
0.0
 20
0.0
 30
0.0
 70
   128
 71
   129
 72
    98
 73
   128
  0
VERTEX
  5
589
330
450
100
AcDbEntity
  8
0
 62
     7
100
AcDbFaceRecord
 10
0.0
 20
0.0
 30
0.0
 70
   128
 71
   108
 72
   110
 73
   107
  0
VERTEX
  5
58A
330
450
100
AcDbEntity
  8
0
 62
     7
100
AcDbFaceRecord
 10
0.0
 20
0.0
 30
0.0
 70
   128
 71
   104
 72
   108
 73
   107
  0
VERTEX
  5
58B
330
450
100
AcDbEntity
  8
0
 62
     7
100
AcDbFaceRecord
 10
0.0
 20
0.0
 30
0.0
 70
   128
 71
   130
 72
   131
 73
   132
  0
VERTEX
  5
58C
330
450
100
AcDbEntity
  8
0
 62
     7
100
AcDbFaceRecord
 10
0.0
 20
0.0
 30
0.0
 70
   128
 71
   133
 72
   130
 73
   132
  0
VERTEX
  5
58D
330
450
100
AcDbEntity
  8
0
 62
     7
100
AcDbFaceRecord
 10
0.0
 20
0.0
 30
0.0
 70
   128
 71
    25
 72
    20
 73
   134
  0
VERTEX
  5
58E
330
450
100
AcDbEntity
  8
0
 62
     7
100
AcDbFaceRecord
 10
0.0
 20
0.0
 30
0.0
 70
   128
 71
   135
 72
    25
 73
   134
  0
VERTEX
  5
58F
330
450
100
AcDbEntity
  8
0
 62
     7
100
AcDbFaceRecord
 10
0.0
 20
0.0
 30
0.0
 70
   128
 71
     6
 72
   136
 73
     3
  0
VERTEX
  5
590
330
450
100
AcDbEntity
  8
0
 62
     7
100
AcDbFaceRecord
 10
0.0
 20
0.0
 30
0.0
 70
   128
 71
     2
 72
     6
 73
     3
  0
VERTEX
  5
591
330
450
100
AcDbEntity
  8
0
 62
     7
100
AcDbFaceRecord
 10
0.0
 20
0.0
 30
0.0
 70
   128
 71
    51
 72
    50
 73
    87
  0
VERTEX
  5
592
330
450
100
AcDbEntity
  8
0
 62
     7
100
AcDbFaceRecord
 10
0.0
 20
0.0
 30
0.0
 70
   128
 71
    86
 72
    51
 73
    87
  0
VERTEX
  5
593
330
450
100
AcDbEntity
  8
0
 62
     7
100
AcDbFaceRecord
 10
0.0
 20
0.0
 30
0.0
 70
   128
 71
   137
 72
   138
 73
   139
  0
VERTEX
  5
594
330
450
100
AcDbEntity
  8
0
 62
     7
100
AcDbFaceRecord
 10
0.0
 20
0.0
 30
0.0
 70
   128
 71
   140
 72
   138
 73
   137
  0
VERTEX
  5
595
330
450
100
AcDbEntity
  8
0
 62
     7
100
AcDbFaceRecord
 10
0.0
 20
0.0
 30
0.0
 70
   128
 71
   114
 72
   140
 73
   141
  0
VERTEX
  5
596
330
450
100
AcDbEntity
  8
0
 62
     7
100
AcDbFaceRecord
 10
0.0
 20
0.0
 30
0.0
 70
   128
 71
   113
 72
   114
 73
   141
  0
VERTEX
  5
597
330
450
100
AcDbEntity
  8
0
 62
     7
100
AcDbFaceRecord
 10
0.0
 20
0.0
 30
0.0
 70
   128
 71
   141
 72
   140
 73
   137
  0
VERTEX
  5
598
330
450
100
AcDbEntity
  8
0
 62
     7
100
AcDbFaceRecord
 10
0.0
 20
0.0
 30
0.0
 70
   128
 71
   113
 72
   139
 73
   138
  0
VERTEX
  5
599
330
450
100
AcDbEntity
  8
0
 62
     7
100
AcDbFaceRecord
 10
0.0
 20
0.0
 30
0.0
 70
   128
 71
   142
 72
   139
 73
   113
  0
VERTEX
  5
59A
330
450
100
AcDbEntity
  8
0
 62
     7
100
AcDbFaceRecord
 10
0.0
 20
0.0
 30
0.0
 70
   128
 71
   142
 72
   113
 73
   141
  0
VERTEX
  5
59B
330
450
100
AcDbEntity
  8
0
 62
     7
100
AcDbFaceRecord
 10
0.0
 20
0.0
 30
0.0
 70
   128
 71
   117
 72
   118
 73
   143
  0
VERTEX
  5
59C
330
450
100
AcDbEntity
  8
0
 62
     7
100
AcDbFaceRecord
 10
0.0
 20
0.0
 30
0.0
 70
   128
 71
   144
 72
   117
 73
   143
  0
VERTEX
  5
59D
330
450
100
AcDbEntity
  8
0
 62
     7
100
AcDbFaceRecord
 10
0.0
 20
0.0
 30
0.0
 70
   128
 71
   111
 72
   109
 73
   105
  0
VERTEX
  5
59E
330
450
100
AcDbEntity
  8
0
 62
     7
100
AcDbFaceRecord
 10
0.0
 20
0.0
 30
0.0
 70
   128
 71
   106
 72
   111
 73
   105
  0
VERTEX
  5
59F
330
450
100
AcDbEntity
  8
0
 62
     7
100
AcDbFaceRecord
 10
0.0
 20
0.0
 30
0.0
 70
   128
 71
    41
 72
    36
 73
   145
  0
VERTEX
  5
5A0
330
450
100
AcDbEntity
  8
0
 62
     7
100
AcDbFaceRecord
 10
0.0
 20
0.0
 30
0.0
 70
   128
 71
   146
 72
    41
 73
   145
  0
VERTEX
  5
5A1
330
450
100
AcDbEntity
  8
0
 62
     7
100
AcDbFaceRecord
 10
0.0
 20
0.0
 30
0.0
 70
   128
 71
   147
 72
   148
 73
   149
  0
VERTEX
  5
5A2
330
450
100
AcDbEntity
  8
0
 62
     7
100
AcDbFaceRecord
 10
0.0
 20
0.0
 30
0.0
 70
   128
 71
   150
 72
   147
 73
   149
  0
VERTEX
  5
5A3
330
450
100
AcDbEntity
  8
0
 62
     7
100
AcDbFaceRecord
 10
0.0
 20
0.0
 30
0.0
 70
   128
 71
    82
 72
    78
 73
   151
  0
VERTEX
  5
5A4
330
450
100
AcDbEntity
  8
0
 62
     7
100
AcDbFaceRecord
 10
0.0
 20
0.0
 30
0.0
 70
   128
 71
   152
 72
    82
 73
   151
  0
VERTEX
  5
5A5
330
450
100
AcDbEntity
  8
0
 62
     7
100
AcDbFaceRecord
 10
0.0
 20
0.0
 30
0.0
 70
   128
 71
    54
 72
   113
 73
    55
  0
VERTEX
  5
5A6
330
450
100
AcDbEntity
  8
0
 62
     7
100
AcDbFaceRecord
 10
0.0
 20
0.0
 30
0.0
 70
   128
 71
   112
 72
   113
 73
    54
  0
VERTEX
  5
5A7
330
450
100
AcDbEntity
  8
0
 62
     7
100
AcDbFaceRecord
 10
0.0
 20
0.0
 30
0.0
 70
   128
 71
    57
 72
    59
 73
   123
  0
VERTEX
  5
5A8
330
450
100
AcDbEntity
  8
0
 62
     7
100
AcDbFaceRecord
 10
0.0
 20
0.0
 30
0.0
 70
   128
 71
    59
 72
    55
 73
   113
  0
VERTEX
  5
5A9
330
450
100
AcDbEntity
  8
0
 62
     7
100
AcDbFaceRecord
 10
0.0
 20
0.0
 30
0.0
 70
   128
 71
   138
 72
   123
 73
    59
  0
VERTEX
  5
5AA
330
450
100
AcDbEntity
  8
0
 62
     7
100
AcDbFaceRecord
 10
0.0
 20
0.0
 30
0.0
 70
   128
 71
   138
 72
    59
 73
   113
  0
VERTEX
  5
5AB
330
450
100
AcDbEntity
  8
0
 62
     7
100
AcDbFaceRecord
 10
0.0
 20
0.0
 30
0.0
 70
   128
 71
    57
 72
   112
 73
    54
  0
VERTEX
  5
5AC
330
450
100
AcDbEntity
  8
0
 62
     7
100
AcDbFaceRecord
 10
0.0
 20
0.0
 30
0.0
 70
   128
 71
   112
 72
    57
 73
   123
  0
VERTEX
  5
5AD
330
450
100
AcDbEntity
  8
0
 62
     7
100
AcDbFaceRecord
 10
0.0
 20
0.0
 30
0.0
 70
   128
 71
    60
 72
   115
 73
    61
  0
VERTEX
  5
5AE
330
450
100
AcDbEntity
  8
0
 62
     7
100
AcDbFaceRecord
 10
0.0
 20
0.0
 30
0.0
 70
   128
 71
   114
 72
    66
 73
   140
  0
VERTEX
  5
5AF
330
450
100
AcDbEntity
  8
0
 62
     7
100
AcDbFaceRecord
 10
0.0
 20
0.0
 30
0.0
 70
   128
 71
    60
 72
    66
 73
   114
  0
VERTEX
  5
5B0
330
450
100
AcDbEntity
  8
0
 62
     7
100
AcDbFaceRecord
 10
0.0
 20
0.0
 30
0.0
 70
   128
 71
    64
 72
    61
 73
   115
  0
VERTEX
  5
5B1
330
450
100
AcDbEntity
  8
0
 62
     7
100
AcDbFaceRecord
 10
0.0
 20
0.0
 30
0.0
 70
   128
 71
   115
 72
    60
 73
   114
  0
VERTEX
  5
5B2
330
450
100
AcDbEntity
  8
0
 62
     7
100
AcDbFaceRecord
 10
0.0
 20
0.0
 30
0.0
 70
   128
 71
    64
 72
   140
 73
    66
  0
VERTEX
  5
5B3
330
450
100
AcDbEntity
  8
0
 62
     7
100
AcDbFaceRecord
 10
0.0
 20
0.0
 30
0.0
 70
   128
 71
   127
 72
   140
 73
    64
  0
VERTEX
  5
5B4
330
450
100
AcDbEntity
  8
0
 62
     7
100
AcDbFaceRecord
 10
0.0
 20
0.0
 30
0.0
 70
   128
 71
   127
 72
    64
 73
   115
  0
VERTEX
  5
5B5
330
450
100
AcDbEntity
  8
0
 62
     7
100
AcDbFaceRecord
 10
0.0
 20
0.0
 30
0.0
 70
   128
 71
   153
 72
   154
 73
   126
  0
VERTEX
  5
5B6
330
450
100
AcDbEntity
  8
0
 62
     7
100
AcDbFaceRecord
 10
0.0
 20
0.0
 30
0.0
 70
   128
 71
   122
 72
   153
 73
   126
  0
VERTEX
  5
5B7
330
450
100
AcDbEntity
  8
0
 62
     7
100
AcDbFaceRecord
 10
0.0
 20
0.0
 30
0.0
 70
   128
 71
   154
 72
   155
 73
   125
  0
VERTEX
  5
5B8
330
450
100
AcDbEntity
  8
0
 62
     7
100
AcDbFaceRecord
 10
0.0
 20
0.0
 30
0.0
 70
   128
 71
   126
 72
   154
 73
   125
  0
VERTEX
  5
5B9
330
450
100
AcDbEntity
  8
0
 62
     7
100
AcDbFaceRecord
 10
0.0
 20
0.0
 30
0.0
 70
   128
 71
   155
 72
   156
 73
   124
  0
VERTEX
  5
5BA
330
450
100
AcDbEntity
  8
0
 62
     7
100
AcDbFaceRecord
 10
0.0
 20
0.0
 30
0.0
 70
   128
 71
   125
 72
   155
 73
   124
  0
VERTEX
  5
5BB
330
450
100
AcDbEntity
  8
0
 62
     7
100
AcDbFaceRecord
 10
0.0
 20
0.0
 30
0.0
 70
   128
 71
   156
 72
   153
 73
   122
  0
VERTEX
  5
5BC
330
450
100
AcDbEntity
  8
0
 62
     7
100
AcDbFaceRecord
 10
0.0
 20
0.0
 30
0.0
 70
   128
 71
   124
 72
   156
 73
   122
  0
VERTEX
  5
5BD
330
450
100
AcDbEntity
  8
0
 62
     7
100
AcDbFaceRecord
 10
0.0
 20
0.0
 30
0.0
 70
   128
 71
   156
 72
   155
 73
   154
  0
VERTEX
  5
5BE
330
450
100
AcDbEntity
  8
0
 62
     7
100
AcDbFaceRecord
 10
0.0
 20
0.0
 30
0.0
 70
   128
 71
   153
 72
   156
 73
   154
  0
VERTEX
  5
5BF
330
450
100
AcDbEntity
  8
0
 62
     7
100
AcDbFaceRecord
 10
0.0
 20
0.0
 30
0.0
 70
   128
 71
   142
 72
   141
 73
   157
  0
VERTEX
  5
5C0
330
450
100
AcDbEntity
  8
0
 62
     7
100
AcDbFaceRecord
 10
0.0
 20
0.0
 30
0.0
 70
   128
 71
   158
 72
   142
 73
   157
  0
VERTEX
  5
5C1
330
450
100
AcDbEntity
  8
0
 62
     7
100
AcDbFaceRecord
 10
0.0
 20
0.0
 30
0.0
 70
   128
 71
   141
 72
   137
 73
   159
  0
VERTEX
  5
5C2
330
450
100
AcDbEntity
  8
0
 62
     7
100
AcDbFaceRecord
 10
0.0
 20
0.0
 30
0.0
 70
   128
 71
   157
 72
   141
 73
   159
  0
VERTEX
  5
5C3
330
450
100
AcDbEntity
  8
0
 62
     7
100
AcDbFaceRecord
 10
0.0
 20
0.0
 30
0.0
 70
   128
 71
   137
 72
   139
 73
   160
  0
VERTEX
  5
5C4
330
450
100
AcDbEntity
  8
0
 62
     7
100
AcDbFaceRecord
 10
0.0
 20
0.0
 30
0.0
 70
   128
 71
   159
 72
   137
 73
   160
  0
VERTEX
  5
5C5
330
450
100
AcDbEntity
  8
0
 62
     7
100
AcDbFaceRecord
 10
0.0
 20
0.0
 30
0.0
 70
   128
 71
   139
 72
   142
 73
   158
  0
VERTEX
  5
5C6
330
450
100
AcDbEntity
  8
0
 62
     7
100
AcDbFaceRecord
 10
0.0
 20
0.0
 30
0.0
 70
   128
 71
   160
 72
   139
 73
   158
  0
VERTEX
  5
5C7
330
450
100
AcDbEntity
  8
0
 62
     7
100
AcDbFaceRecord
 10
0.0
 20
0.0
 30
0.0
 70
   128
 71
   159
 72
   160
 73
   158
  0
VERTEX
  5
5C8
330
450
100
AcDbEntity
  8
0
 62
     7
100
AcDbFaceRecord
 10
0.0
 20
0.0
 30
0.0
 70
   128
 71
   157
 72
   159
 73
   158
  0
VERTEX
  5
5C9
330
450
100
AcDbEntity
  8
0
 62
     7
100
AcDbFaceRecord
 10
0.0
 20
0.0
 30
0.0
 70
   128
 71
    71
 72
    70
 73
    47
  0
VERTEX
  5
5CA
330
450
100
AcDbEntity
  8
0
 62
     7
100
AcDbFaceRecord
 10
0.0
 20
0.0
 30
0.0
 70
   128
 71
    46
 72
    71
 73
    47
  0
VERTEX
  5
5CB
330
450
100
AcDbEntity
  8
0
 62
     7
100
AcDbFaceRecord
 10
0.0
 20
0.0
 30
0.0
 70
   128
 71
   105
 72
   109
 73
   108
  0
VERTEX
  5
5CC
330
450
100
AcDbEntity
  8
0
 62
     7
100
AcDbFaceRecord
 10
0.0
 20
0.0
 30
0.0
 70
   128
 71
   104
 72
   105
 73
   108
  0
VERTEX
  5
5CD
330
450
100
AcDbEntity
  8
0
 62
     7
100
AcDbFaceRecord
 10
0.0
 20
0.0
 30
0.0
 70
   128
 71
    75
 72
    74
 73
    31
  0
VERTEX
  5
5CE
330
450
100
AcDbEntity
  8
0
 62
     7
100
AcDbFaceRecord
 10
0.0
 20
0.0
 30
0.0
 70
   128
 71
    18
 72
    75
 73
    31
  0
VERTEX
  5
5CF
330
450
100
AcDbEntity
  8
0
 62
     7
100
AcDbFaceRecord
 10
0.0
 20
0.0
 30
0.0
 70
   128
 71
    77
 72
    21
 73
    25
  0
VERTEX
  5
5D0
330
450
100
AcDbEntity
  8
0
 62
     7
100
AcDbFaceRecord
 10
0.0
 20
0.0
 30
0.0
 70
   128
 71
    80
 72
    75
 73
    17
  0
VERTEX
  5
5D1
330
450
100
AcDbEntity
  8
0
 62
     7
100
AcDbFaceRecord
 10
0.0
 20
0.0
 30
0.0
 70
   128
 71
    83
 72
    80
 73
    17
  0
VERTEX
  5
5D2
330
450
100
AcDbEntity
  8
0
 62
     7
100
AcDbFaceRecord
 10
0.0
 20
0.0
 30
0.0
 70
   128
 71
    78
 72
    77
 73
    25
  0
VERTEX
  5
5D3
330
450
100
AcDbEntity
  8
0
 62
     7
100
AcDbFaceRecord
 10
0.0
 20
0.0
 30
0.0
 70
   128
 71
    24
 72
    21
 73
    77
  0
VERTEX
  5
5D4
330
450
100
AcDbEntity
  8
0
 62
     7
100
AcDbFaceRecord
 10
0.0
 20
0.0
 30
0.0
 70
   128
 71
    83
 72
    24
 73
    77
  0
VERTEX
  5
5D5
330
450
100
AcDbEntity
  8
0
 62
     7
100
AcDbFaceRecord
 10
0.0
 20
0.0
 30
0.0
 70
   128
 71
    24
 72
    83
 73
    17
  0
VERTEX
  5
5D6
330
450
100
AcDbEntity
  8
0
 62
     7
100
AcDbFaceRecord
 10
0.0
 20
0.0
 30
0.0
 70
   128
 71
    18
 72
    17
 73
    75
  0
VERTEX
  5
5D7
330
450
100
AcDbEntity
  8
0
 62
     7
100
AcDbFaceRecord
 10
0.0
 20
0.0
 30
0.0
 70
   128
 71
   151
 72
    78
 73
    25
  0
VERTEX
  5
5D8
330
450
100
AcDbEntity
  8
0
 62
     7
100
AcDbFaceRecord
 10
0.0
 20
0.0
 30
0.0
 70
   128
 71
   135
 72
   151
 73
    25
  0
VERTEX
  5
5D9
330
450
100
AcDbEntity
  8
0
 62
     7
100
AcDbFaceRecord
 10
0.0
 20
0.0
 30
0.0
 70
   128
 71
    13
 72
    12
 73
    11
  0
VERTEX
  5
5DA
330
450
100
AcDbEntity
  8
0
 62
     7
100
AcDbFaceRecord
 10
0.0
 20
0.0
 30
0.0
 70
   128
 71
    10
 72
    13
 73
    11
  0
VERTEX
  5
5DB
330
450
100
AcDbEntity
  8
0
 62
     7
100
AcDbFaceRecord
 10
0.0
 20
0.0
 30
0.0
 70
   128
 71
     3
 72
   136
 73
     7
  0
VERTEX
  5
5DC
330
450
100
AcDbEntity
  8
0
 62
     7
100
AcDbFaceRecord
 10
0.0
 20
0.0
 30
0.0
 70
   128
 71
     4
 72
     3
 73
     7
  0
VERTEX
  5
5DD
330
450
100
AcDbEntity
  8
0
 62
     7
100
AcDbFaceRecord
 10
0.0
 20
0.0
 30
0.0
 70
   128
 71
    10
 72
     6
 73
     5
  0
VERTEX
  5
5DE
330
450
100
AcDbEntity
  8
0
 62
     7
100
AcDbFaceRecord
 10
0.0
 20
0.0
 30
0.0
 70
   128
 71
    13
 72
    10
 73
     5
  0
VERTEX
  5
5DF
330
450
100
AcDbEntity
  8
0
 62
     7
100
AcDbFaceRecord
 10
0.0
 20
0.0
 30
0.0
 70
   128
 71
    14
 72
    13
 73
     5
  0
VERTEX
  5
5E0
330
450
100
AcDbEntity
  8
0
 62
     7
100
AcDbFaceRecord
 10
0.0
 20
0.0
 30
0.0
 70
   128
 71
     9
 72
    14
 73
   136
  0
VERTEX
  5
5E1
330
450
100
AcDbEntity
  8
0
 62
     7
100
AcDbFaceRecord
 10
0.0
 20
0.0
 30
0.0
 70
   128
 71
     7
 72
   136
 73
    14
  0
VERTEX
  5
5E2
330
450
100
AcDbEntity
  8
0
 62
     7
100
AcDbFaceRecord
 10
0.0
 20
0.0
 30
0.0
 70
   128
 71
     7
 72
    14
 73
     5
  0
VERTEX
  5
5E3
330
450
100
AcDbEntity
  8
0
 62
     7
100
AcDbFaceRecord
 10
0.0
 20
0.0
 30
0.0
 70
   128
 71
     9
 72
     6
 73
    10
  0
VERTEX
  5
5E4
330
450
100
AcDbEntity
  8
0
 62
     7
100
AcDbFaceRecord
 10
0.0
 20
0.0
 30
0.0
 70
   128
 71
     6
 72
     9
 73
   136
  0
VERTEX
  5
5E5
330
450
100
AcDbEntity
  8
0
 62
     7
100
AcDbFaceRecord
 10
0.0
 20
0.0
 30
0.0
 70
   128
 71
    12
 72
   135
 73
    11
  0
VERTEX
  5
5E6
330
450
100
AcDbEntity
  8
0
 62
     7
100
AcDbFaceRecord
 10
0.0
 20
0.0
 30
0.0
 70
   128
 71
   151
 72
   135
 73
    12
  0
VERTEX
  5
5E7
330
450
100
AcDbEntity
  8
0
 62
     7
100
AcDbFaceRecord
 10
0.0
 20
0.0
 30
0.0
 70
   128
 71
   151
 72
    15
 73
   152
  0
VERTEX
  5
5E8
330
450
100
AcDbEntity
  8
0
 62
     7
100
AcDbFaceRecord
 10
0.0
 20
0.0
 30
0.0
 70
   128
 71
    15
 72
   151
 73
    12
  0
VERTEX
  5
5E9
330
450
100
AcDbEntity
  8
0
 62
     7
100
AcDbFaceRecord
 10
0.0
 20
0.0
 30
0.0
 70
   128
 71
     8
 72
   152
 73
    15
  0
VERTEX
  5
5EA
330
450
100
AcDbEntity
  8
0
 62
     7
100
AcDbFaceRecord
 10
0.0
 20
0.0
 30
0.0
 70
   128
 71
     8
 72
   134
 73
   152
  0
VERTEX
  5
5EB
330
450
100
AcDbEntity
  8
0
 62
     7
100
AcDbFaceRecord
 10
0.0
 20
0.0
 30
0.0
 70
   128
 71
     8
 72
   135
 73
   134
  0
VERTEX
  5
5EC
330
450
100
AcDbEntity
  8
0
 62
     7
100
AcDbFaceRecord
 10
0.0
 20
0.0
 30
0.0
 70
   128
 71
     8
 72
    11
 73
   135
  0
VERTEX
  5
5ED
330
450
100
AcDbEntity
  8
0
 62
     7
100
AcDbFaceRecord
 10
0.0
 20
0.0
 30
0.0
 70
   128
 71
    82
 72
   152
 73
   134
  0
VERTEX
  5
5EE
330
450
100
AcDbEntity
  8
0
 62
     7
100
AcDbFaceRecord
 10
0.0
 20
0.0
 30
0.0
 70
   128
 71
    20
 72
    82
 73
   134
  0
VERTEX
  5
5EF
330
450
100
AcDbEntity
  8
0
 62
     7
100
AcDbFaceRecord
 10
0.0
 20
0.0
 30
0.0
 70
   128
 71
   111
 72
   106
 73
   107
  0
VERTEX
  5
5F0
330
450
100
AcDbEntity
  8
0
 62
     7
100
AcDbFaceRecord
 10
0.0
 20
0.0
 30
0.0
 70
   128
 71
   110
 72
   111
 73
   107
  0
VERTEX
  5
5F1
330
450
100
AcDbEntity
  8
0
 62
     7
100
AcDbFaceRecord
 10
0.0
 20
0.0
 30
0.0
 70
   128
 71
    49
 72
    48
 73
    85
  0
VERTEX
  5
5F2
330
450
100
AcDbEntity
  8
0
 62
     7
100
AcDbFaceRecord
 10
0.0
 20
0.0
 30
0.0
 70
   128
 71
    84
 72
    49
 73
    85
  0
VERTEX
  5
5F3
330
450
100
AcDbEntity
  8
0
 62
     7
100
AcDbFaceRecord
 10
0.0
 20
0.0
 30
0.0
 70
   128
 71
   143
 72
   118
 73
   119
  0
VERTEX
  5
5F4
330
450
100
AcDbEntity
  8
0
 62
     7
100
AcDbFaceRecord
 10
0.0
 20
0.0
 30
0.0
 70
   128
 71
   121
 72
   143
 73
   119
  0
VERTEX
  5
5F5
330
450
100
AcDbEntity
  8
0
 62
     7
100
AcDbFaceRecord
 10
0.0
 20
0.0
 30
0.0
 70
   128
 71
    39
 72
    42
 73
    89
  0
VERTEX
  5
5F6
330
450
100
AcDbEntity
  8
0
 62
     7
100
AcDbFaceRecord
 10
0.0
 20
0.0
 30
0.0
 70
   128
 71
    88
 72
    39
 73
    89
  0
VERTEX
  5
5F7
330
450
100
AcDbEntity
  8
0
 62
     7
100
AcDbFaceRecord
 10
0.0
 20
0.0
 30
0.0
 70
   128
 71
    35
 72
    92
 73
    98
  0
VERTEX
  5
5F8
330
450
100
AcDbEntity
  8
0
 62
     7
100
AcDbFaceRecord
 10
0.0
 20
0.0
 30
0.0
 70
   128
 71
    32
 72
    39
 73
    95
  0
VERTEX
  5
5F9
330
450
100
AcDbEntity
  8
0
 62
     7
100
AcDbFaceRecord
 10
0.0
 20
0.0
 30
0.0
 70
   128
 71
    38
 72
    32
 73
    95
  0
VERTEX
  5
5FA
330
450
100
AcDbEntity
  8
0
 62
     7
100
AcDbFaceRecord
 10
0.0
 20
0.0
 30
0.0
 70
   128
 71
    36
 72
    35
 73
    98
  0
VERTEX
  5
5FB
330
450
100
AcDbEntity
  8
0
 62
     7
100
AcDbFaceRecord
 10
0.0
 20
0.0
 30
0.0
 70
   128
 71
    97
 72
    92
 73
    35
  0
VERTEX
  5
5FC
330
450
100
AcDbEntity
  8
0
 62
     7
100
AcDbFaceRecord
 10
0.0
 20
0.0
 30
0.0
 70
   128
 71
    38
 72
    97
 73
    35
  0
VERTEX
  5
5FD
330
450
100
AcDbEntity
  8
0
 62
     7
100
AcDbFaceRecord
 10
0.0
 20
0.0
 30
0.0
 70
   128
 71
    97
 72
    38
 73
    95
  0
VERTEX
  5
5FE
330
450
100
AcDbEntity
  8
0
 62
     7
100
AcDbFaceRecord
 10
0.0
 20
0.0
 30
0.0
 70
   128
 71
    88
 72
    95
 73
    39
  0
VERTEX
  5
5FF
330
450
100
AcDbEntity
  8
0
 62
     7
100
AcDbFaceRecord
 10
0.0
 20
0.0
 30
0.0
 70
   128
 71
   145
 72
    36
 73
    98
  0
VERTEX
  5
600
330
450
100
AcDbEntity
  8
0
 62
     7
100
AcDbFaceRecord
 10
0.0
 20
0.0
 30
0.0
 70
   128
 71
   129
 72
   145
 73
    98
  0
VERTEX
  5
601
330
450
100
AcDbEntity
  8
0
 62
     7
100
AcDbFaceRecord
 10
0.0
 20
0.0
 30
0.0
 70
   128
 71
    27
 72
    26
 73
   101
  0
VERTEX
  5
602
330
450
100
AcDbEntity
  8
0
 62
     7
100
AcDbFaceRecord
 10
0.0
 20
0.0
 30
0.0
 70
   128
 71
   100
 72
    27
 73
   101
  0
VERTEX
  5
603
330
450
100
AcDbEntity
  8
0
 62
     7
100
AcDbFaceRecord
 10
0.0
 20
0.0
 30
0.0
 70
   128
 71
   147
 72
   150
 73
   132
  0
VERTEX
  5
604
330
450
100
AcDbEntity
  8
0
 62
     7
100
AcDbFaceRecord
 10
0.0
 20
0.0
 30
0.0
 70
   128
 71
   131
 72
   147
 73
   132
  0
VERTEX
  5
605
330
450
100
AcDbEntity
  8
0
 62
     7
100
AcDbFaceRecord
 10
0.0
 20
0.0
 30
0.0
 70
   128
 71
   148
 72
   147
 73
   131
  0
VERTEX
  5
606
330
450
100
AcDbEntity
  8
0
 62
     7
100
AcDbFaceRecord
 10
0.0
 20
0.0
 30
0.0
 70
   128
 71
   130
 72
   148
 73
   131
  0
VERTEX
  5
607
330
450
100
AcDbEntity
  8
0
 62
     7
100
AcDbFaceRecord
 10
0.0
 20
0.0
 30
0.0
 70
   128
 71
   149
 72
   148
 73
   130
  0
VERTEX
  5
608
330
450
100
AcDbEntity
  8
0
 62
     7
100
AcDbFaceRecord
 10
0.0
 20
0.0
 30
0.0
 70
   128
 71
   133
 72
   149
 73
   130
  0
VERTEX
  5
609
330
450
100
AcDbEntity
  8
0
 62
     7
100
AcDbFaceRecord
 10
0.0
 20
0.0
 30
0.0
 70
   128
 71
    28
 72
   133
 73
   103
  0
VERTEX
  5
60A
330
450
100
AcDbEntity
  8
0
 62
     7
100
AcDbFaceRecord
 10
0.0
 20
0.0
 30
0.0
 70
   128
 71
   149
 72
   133
 73
    28
  0
VERTEX
  5
60B
330
450
100
AcDbEntity
  8
0
 62
     7
100
AcDbFaceRecord
 10
0.0
 20
0.0
 30
0.0
 70
   128
 71
   149
 72
    27
 73
   150
  0
VERTEX
  5
60C
330
450
100
AcDbEntity
  8
0
 62
     7
100
AcDbFaceRecord
 10
0.0
 20
0.0
 30
0.0
 70
   128
 71
    27
 72
   149
 73
    28
  0
VERTEX
  5
60D
330
450
100
AcDbEntity
  8
0
 62
     7
100
AcDbFaceRecord
 10
0.0
 20
0.0
 30
0.0
 70
   128
 71
   100
 72
   150
 73
    27
  0
VERTEX
  5
60E
330
450
100
AcDbEntity
  8
0
 62
     7
100
AcDbFaceRecord
 10
0.0
 20
0.0
 30
0.0
 70
   128
 71
   100
 72
   132
 73
   150
  0
VERTEX
  5
60F
330
450
100
AcDbEntity
  8
0
 62
     7
100
AcDbFaceRecord
 10
0.0
 20
0.0
 30
0.0
 70
   128
 71
   100
 72
   133
 73
   132
  0
VERTEX
  5
610
330
450
100
AcDbEntity
  8
0
 62
     7
100
AcDbFaceRecord
 10
0.0
 20
0.0
 30
0.0
 70
   128
 71
   100
 72
   103
 73
   133
  0
VERTEX
  5
611
330
450
100
AcDbEntity
  8
0
 62
     7
100
AcDbFaceRecord
 10
0.0
 20
0.0
 30
0.0
 70
   128
 71
   102
 72
   128
 73
   146
  0
VERTEX
  5
612
330
450
100
AcDbEntity
  8
0
 62
     7
100
AcDbFaceRecord
 10
0.0
 20
0.0
 30
0.0
 70
   128
 71
    29
 72
   102
 73
   146
  0
VERTEX
  5
613
330
450
100
AcDbEntity
  8
0
 62
     7
100
AcDbFaceRecord
 10
0.0
 20
0.0
 30
0.0
 70
   128
 71
    26
 72
    29
 73
   146
  0
VERTEX
  5
614
330
450
100
AcDbEntity
  8
0
 62
     7
100
AcDbFaceRecord
 10
0.0
 20
0.0
 30
0.0
 70
   128
 71
   101
 72
    26
 73
   129
  0
VERTEX
  5
615
330
450
100
AcDbEntity
  8
0
 62
     7
100
AcDbFaceRecord
 10
0.0
 20
0.0
 30
0.0
 70
   128
 71
   145
 72
   129
 73
    26
  0
VERTEX
  5
616
330
450
100
AcDbEntity
  8
0
 62
     7
100
AcDbFaceRecord
 10
0.0
 20
0.0
 30
0.0
 70
   128
 71
   145
 72
    26
 73
   146
  0
VERTEX
  5
617
330
450
100
AcDbEntity
  8
0
 62
     7
100
AcDbFaceRecord
 10
0.0
 20
0.0
 30
0.0
 70
   128
 71
   101
 72
   128
 73
   102
  0
VERTEX
  5
618
330
450
100
AcDbEntity
  8
0
 62
     7
100
AcDbFaceRecord
 10
0.0
 20
0.0
 30
0.0
 70
   128
 71
   128
 72
   101
 73
   129
  0
VERTEX
  5
619
330
450
100
AcDbEntity
  8
0
 62
     7
100
AcDbFaceRecord
 10
0.0
 20
0.0
 30
0.0
 70
   128
 71
    41
 72
   146
 73
   128
  0
VERTEX
  5
61A
330
450
100
AcDbEntity
  8
0
 62
     7
100
AcDbFaceRecord
 10
0.0
 20
0.0
 30
0.0
 70
   128
 71
    94
 72
    41
 73
   128
  0
VERTEX
  5
61B
330
450
100
AcDbEntity
  8
0
 62
     7
100
AcDbFaceRecord
 10
0.0
 20
0.0
 30
0.0
 70
   128
 71
    90
 72
   120
 73
   144
  0
VERTEX
  5
61C
330
450
100
AcDbEntity
  8
0
 62
     7
100
AcDbFaceRecord
 10
0.0
 20
0.0
 30
0.0
 70
   128
 71
    43
 72
    90
 73
   144
  0
VERTEX
  5
61D
330
450
100
AcDbEntity
  8
0
 62
     7
100
AcDbFaceRecord
 10
0.0
 20
0.0
 30
0.0
 70
   128
 71
    42
 72
    43
 73
   144
  0
VERTEX
  5
61E
330
450
100
AcDbEntity
  8
0
 62
     7
100
AcDbFaceRecord
 10
0.0
 20
0.0
 30
0.0
 70
   128
 71
    89
 72
    42
 73
   121
  0
VERTEX
  5
61F
330
450
100
AcDbEntity
  8
0
 62
     7
100
AcDbFaceRecord
 10
0.0
 20
0.0
 30
0.0
 70
   128
 71
   143
 72
   121
 73
    42
  0
VERTEX
  5
620
330
450
100
AcDbEntity
  8
0
 62
     7
100
AcDbFaceRecord
 10
0.0
 20
0.0
 30
0.0
 70
   128
 71
   143
 72
    42
 73
   144
  0
VERTEX
  5
621
330
450
100
AcDbEntity
  8
0
 62
     7
100
AcDbFaceRecord
 10
0.0
 20
0.0
 30
0.0
 70
   128
 71
    89
 72
   120
 73
    90
  0
VERTEX
  5
622
330
450
100
AcDbEntity
  8
0
 62
     7
100
AcDbFaceRecord
 10
0.0
 20
0.0
 30
0.0
 70
   128
 71
   120
 72
    89
 73
   121
  0
VERTEX
  5
623
330
450
100
AcDbEntity
  8
0
 62
     7
100
AcDbFaceRecord
 10
0.0
 20
0.0
 30
0.0
 70
   128
 71
   117
 72
   144
 73
   120
  0
VERTEX
  5
624
330
450
100
AcDbEntity
  8
0
 62
     7
100
AcDbFaceRecord
 10
0.0
 20
0.0
 30
0.0
 70
   128
 71
   116
 72
   117
 73
   120
  0
VERTEX
  5
625
330
450
100
AcDbEntity
  8
0
 62
     7
100
AcDbFaceRecord
 10
0.0
 20
0.0
 30
0.0
 70
   128
 71
    86
 72
   123
 73
   138
  0
VERTEX
  5
626
330
450
100
AcDbEntity
  8
0
 62
     7
100
AcDbFaceRecord
 10
0.0
 20
0.0
 30
0.0
 70
   128
 71
    51
 72
    86
 73
   138
  0
VERTEX
  5
627
330
450
100
AcDbEntity
  8
0
 62
     7
100
AcDbFaceRecord
 10
0.0
 20
0.0
 30
0.0
 70
   128
 71
    48
 72
    51
 73
   138
  0
VERTEX
  5
628
330
450
100
AcDbEntity
  8
0
 62
     7
100
AcDbFaceRecord
 10
0.0
 20
0.0
 30
0.0
 70
   128
 71
    85
 72
    48
 73
   127
  0
VERTEX
  5
629
330
450
100
AcDbEntity
  8
0
 62
     7
100
AcDbFaceRecord
 10
0.0
 20
0.0
 30
0.0
 70
   128
 71
   140
 72
   127
 73
    48
  0
VERTEX
  5
62A
330
450
100
AcDbEntity
  8
0
 62
     7
100
AcDbFaceRecord
 10
0.0
 20
0.0
 30
0.0
 70
   128
 71
   140
 72
    48
 73
   138
  0
VERTEX
  5
62B
330
450
100
AcDbEntity
  8
0
 62
     7
100
AcDbFaceRecord
 10
0.0
 20
0.0
 30
0.0
 70
   128
 71
    85
 72
   123
 73
    86
  0
VERTEX
  5
62C
330
450
100
AcDbEntity
  8
0
 62
     7
100
AcDbFaceRecord
 10
0.0
 20
0.0
 30
0.0
 70
   128
 71
   123
 72
    85
 73
   127
  0
SEQEND
  5
62D
330
450
100
AcDbEntity
  8
0
 62
     7
  0
INSERT
  5
648
330
1F
100
AcDbEntity
  8
0
100
AcDbBlockReference
 66
     1
  2
RM_SDB
 10
0.0
 20
0.0
 30
0.0
1001
AVE_MATERIAL
1002
{
1000
*GLOBAL*01
1000
2
1000

1002
{
1002
}
1002
{
1070
    39
1002
{
1002
{
1010
1.428571462631224
1020
1.428571462631224
1030
1.428571462631224
1002
}
1040
0.6999999880790711
1000

1040
0.0
1002
{
1002
}
1040
0.0
1002
{
1002
}
1040
0.0
1002
}
1002
{
1002
{
1010
1.0
1020
1.0
1030
1.0
1002
}
1040
1.0
1000

1040
0.0
1002
{
1002
}
1040
0.0
1002
{
1002
}
1040
0.0
1002
}
1002
{
1002
{
1010
5.0
1020
5.0
1030
5.0
1002
}
1040
0.2000000029802322
1000

1040
0.0
1002
{
1002
}
1040
0.0
1002
{
1002
}
1040
0.0
1002
}
1002
{
1070
     0
1002
{
1070
     1
1002
{
1040
1.0
1040
1.0
1000

1040
0.0
1002
{
1002
}
1040
0.0
1002
{
1002
}
1040
0.0
1002
}
1002
}
1040
0.0
1040
0.0
1040
0.0
1002
}
1002
{
1040
0.0
1040
0.0
1000

1040
0.0
1002
{
1002
}
1040
0.0
1002
{
1002
}
1040
0.0
1002
}
1002
{
1040
0.5
1040
1.0
1000

1040
0.0
1002
{
1002
}
1040
0.0
1002
{
1002
}
1040
0.0
1002
}
1002
{
1070
     0
1040
0.0
1002
{
1002
}
1040
0.0
1002
{
1002
}
1040
0.0
1002
}
1002
{
1040
0.0
1002
{
1002
{
1010
0.0
1020
0.0
1030
0.0
1002
}
1040
0.0
1000

1040
0.0
1002
{
1002
}
1040
0.0
1002
{
1002
}
1040
0.0
1002
}
1002
}
1002
{
1002
{
1070
     1
1002
{
1040
0.0
1040
1.0
1000

1040
0.0
1002
{
1002
}
1040
0.0
1002
{
1002
}
1040
0.0
1002
}
1002
}
1040
0.0
1002
{
1002
}
1010
0.0
1020
0.0
1030
0.0
1010
0.0
1020
0.0
1030
0.0
1010
0.0
1020
0.0
1030
0.0
1070
     0
1002
}
1002
{
1002
{
1040
0.0
1040
0.0
1002
{
1070
     0
1002
}
1002
}
1070
     0
1040
0.0
1002
{
1002
}
1002
}
1002
{
1002
}
1002
}
1002
{
1071
        3
1070
     3
1070
     0
1002
{
1070
     2
1070
     1
1070
     0
1040
0.0
1002
}
1070
     0
1070
     2
1002
{
1002
}
1002
}
1002
{
1040
8030.0
1040
190.3000030517578
1040
0.3050000071525574
1040
228.0
1040
545.0
1040
14.0
1040
17.39999961853027
1040
0.4560000002384186
1002
}
1000
661
1002
}
  0
ATTRIB
  5
649
330
648
100
AcDbEntity
  8
0
100
AcDbText
 10
0.0
 20
0.0
 30
0.0
 40
0.2
  1
*GLOBAL*01
100
AcDbAttribute
  2
NAME
 70
     1
  0
ATTRIB
  5
64A
330
648
100
AcDbEntity
  8
0
100
AcDbText
 10
0.0
 20
0.0
 30
0.0
 40
0.2
  1

100
AcDbAttribute
  2
ACADCOLOR
 70
     1
  0
ATTRIB
  5
64B
330
648
100
AcDbEntity
  8
0
100
AcDbText
 10
0.0
 20
0.0
 30
0.0
 40
0.2
  1
1.0000,1.0000,1.0000
100
AcDbAttribute
  2
COLOR
 70
     1
  0
ATTRIB
  5
64C
330
648
100
AcDbEntity
  8
0
100
AcDbText
 10
0.0
 20
0.0
 30
0.0
 40
0.2
  1
1.0,1.0,1.0
100
AcDbAttribute
  2
OPACITY
 70
     1
  0
ATTRIB
  5
64D
330
648
100
AcDbEntity
  8
0
100
AcDbText
 10
0.0
 20
0.0
 30
0.0
 40
0.2
  1
("nullsurf" "")
100
AcDbAttribute
  2
SURFACE
 70
     1
  0
ATTRIB
  5
64E
330
648
100
AcDbEntity
  8
0
100
AcDbText
 10
0.0
 20
0.0
 30
0.0
 40
0.2
  1
(11 "Ka" "0.7")(11 "Kd" "1")(11 "Ks" "0.2")(11 "roughness" "0.5")
100
AcDbAttribute
  2
SURF1
 70
     1
  0
ATTRIB
  5
64F
330
648
100
AcDbEntity
  8
0
100
AcDbText
 10
0.0
 20
0.0
 30
0.0
 40
0.2
  1

100
AcDbAttribute
  2
SURF2
 70
     1
  0
ATTRIB
  5
650
330
648
100
AcDbEntity
  8
0
100
AcDbText
 10
0.0
 20
0.0
 30
0.0
 40
0.2
  1

100
AcDbAttribute
  2
SURF3
 70
     1
  0
ATTRIB
  5
651
330
648
100
AcDbEntity
  8
0
100
AcDbText
 10
0.0
 20
0.0
 30
0.0
 40
0.2
  1

100
AcDbAttribute
  2
SURF4
 70
     1
  0
ATTRIB
  5
652
330
648
100
AcDbEntity
  8
0
100
AcDbText
 10
0.0
 20
0.0
 30
0.0
 40
0.2
  1
-1.0
100
AcDbAttribute
  2
SHADINGRATE
 70
     1
  0
ATTRIB
  5
653
330
648
100
AcDbEntity
  8
0
100
AcDbText
 10
0.0
 20
0.0
 30
0.0
 40
0.2
  1
("nulldisp" "")
100
AcDbAttribute
  2
DISPLACEMENT
 70
     1
  0
ATTRIB
  5
654
330
648
100
AcDbEntity
  8
0
100
AcDbText
 10
0.0
 20
0.0
 30
0.0
 40
0.2
  1

100
AcDbAttribute
  2
DISP1
 70
     1
  0
ATTRIB
  5
655
330
648
100
AcDbEntity
  8
0
100
AcDbText
 10
0.0
 20
0.0
 30
0.0
 40
0.2
  1

100
AcDbAttribute
  2
DISP2
 70
     1
  0
ATTRIB
  5
656
330
648
100
AcDbEntity
  8
0
100
AcDbText
 10
0.0
 20
0.0
 30
0.0
 40
0.2
  1

100
AcDbAttribute
  2
DISP3
 70
     1
  0
ATTRIB
  5
657
330
648
100
AcDbEntity
  8
0
100
AcDbText
 10
0.0
 20
0.0
 30
0.0
 40
0.2
  1

100
AcDbAttribute
  2
DISP4
 70
     1
  0
ATTRIB
  5
658
330
648
100
AcDbEntity
  8
0
100
AcDbText
 10
0.0
 20
0.0
 30
0.0
 40
0.2
  1
0.0
100
AcDbAttribute
  2
DBOUND
 70
     1
  0
ATTRIB
  5
659
330
648
100
AcDbEntity
  8
0
100
AcDbText
 10
0.0
 20
0.0
 30
0.0
 40
0.2
  1
0
100
AcDbAttribute
  2
SMOOTH
 70
     1
  0
ATTRIB
  5
65A
330
648
100
AcDbEntity
  8
0
100
AcDbText
 10
0.0
 20
0.0
 30
0.0
 40
0.2
  1
("" "")
100
AcDbAttribute
  2
ATMOSHPERE
 70
     1
  0
ATTRIB
  5
65B
330
648
100
AcDbEntity
  8
0
100
AcDbText
 10
0.0
 20
0.0
 30
0.0
 40
0.2
  1

100
AcDbAttribute
  2
ATMO1
 70
     1
  0
ATTRIB
  5
65C
330
648
100
AcDbEntity
  8
0
100
AcDbText
 10
0.0
 20
0.0
 30
0.0
 40
0.2
  1

100
AcDbAttribute
  2
ATMO2
 70
     1
  0
ATTRIB
  5
65D
330
648
100
AcDbEntity
  8
0
100
AcDbText
 10
0.0
 20
0.0
 30
0.0
 40
0.2
  1

100
AcDbAttribute
  2
ATMO3
 70
     1
  0
ATTRIB
  5
65E
330
648
100
AcDbEntity
  8
0
100
AcDbText
 10
0.0
 20
0.0
 30
0.0
 40
0.2
  1

100
AcDbAttribute
  2
ATMO4
 70
     1
  0
ATTRIB
  5
65F
330
648
100
AcDbEntity
  8
0
100
AcDbText
 10
0.0
 20
0.0
 30
0.0
 40
0.2
  1
0.0 0.0 1.0 0.0 0.0 1.0 1.0 1.0
100
AcDbAttribute
  2
TCCORD
 70
     1
  0
SEQEND
  5
660
330
648
100
AcDbEntity
  8
0
  0
ENDSEC
  0
SECTION
  2
OBJECTS
  0
DICTIONARY
  5
C
330
0
100
AcDbDictionary
281
     1
  3
ACAD_2007HEADERVARS_RT
350
6C4
  3
ACAD_ASSOCPERSSUBENTMANAGER
350
685
  3
ACAD_BACKGROUND
350
3A9
  3
ACAD_CIP_PREVIOUS_PRODUCT_INFO
350
687
  3
ACAD_COLOR
350
B5
  3
ACAD_GROUP
350
D
  3
ACAD_LAYOUT
350
1A
  3
ACAD_MATERIAL
350
B4
  3
ACAD_MLEADERSTYLE
350
1B3
  3
ACAD_MLINESTYLE
350
17
  3
ACAD_PERSUBENTMGR
350
1F9
  3
ACAD_PLOTSETTINGS
350
19
  3
ACAD_PLOTSTYLENAME
350
E
  3
ACAD_SCALELIST
350
191
  3
ACAD_TABLESTYLE
350
B6
  3
ACAD_VISUALSTYLE
350
180
  3
ACDB_RECOMPOSE_DATA
350
6C2
  3
AcDbVariableDictionary
350
15F
  3
AVE_ACITABLE
350
43B
  3
DWGPROPS
350
6C3
  0
DICTIONARY
  5
689
330
2
100
AcDbDictionary
280
     1
281
     1
  3
ACAD_LAYERSTATES
360
68A
  0
DICTIONARY
  5
3CE
330
10
100
AcDbDictionary
280
     1
281
     1
  3
ADSK_XREC_LAYER_RECONCILED
360
3CF
  0
DICTIONARY
  5
3D0
330
AB
100
AcDbDictionary
280
     1
281
     1
  3
ADSK_XREC_LAYER_RECONCILED
360
3D1
  0
DICTIONARY
  5
204
330
1F
100
AcDbDictionary
280
     1
281
     1
  3
ACAD_SORTENTS
360
205
  0
DICTIONARY
  5
6C4
102
{ACAD_REACTORS
330
C
102
}
330
C
100
AcDbDictionary
281
     1
  3
DIMFXL
350
6C5
  0
ACDBASSOCPERSSUBENTMANAGER
  5
685
102
{ACAD_REACTORS
330
C
102
}
330
C
100
AcDbAssocPersSubentManager
 90
        1
 90
        3
 90
        0
 90
        2
 90
        8
 90
        0
 90
        0
 90
        0
290
     0
  0
DICTIONARY
  5
3A9
102
{ACAD_REACTORS
330
C
102
}
330
C
100
AcDbDictionary
281
     1
  0
XRECORD
  5
687
102
{ACAD_REACTORS
330
C
102
}
330
C
100
AcDbXrecord
280
     1
300
ACD
300
2012
300
ACD_F_S
  0
DICTIONARY
  5
B5
102
{ACAD_REACTORS
330
C
102
}
330
C
100
AcDbDictionary
281
     1
  0
DICTIONARY
  5
D
102
{ACAD_REACTORS
330
C
102
}
330
C
100
AcDbDictionary
281
     1
  0
DICTIONARY
  5
1A
102
{ACAD_REACTORS
330
C
102
}
330
C
100
AcDbDictionary
281
     1
  3
Layout1
350
1E
  3
Layout2
350
26
  3
Model
350
22
  0
DICTIONARY
  5
B4
102
{ACAD_REACTORS
330
C
102
}
330
C
100
AcDbDictionary
281
     1
  3
_GLOBAL_01
350
661
  3
ByBlock
350
170
  3
ByLayer
350
168
  3
Global
350
178
  0
DICTIONARY
  5
1B3
102
{ACAD_REACTORS
330
C
102
}
330
C
100
AcDbDictionary
281
     1
  3
Standard
350
1B4
  0
DICTIONARY
  5
17
102
{ACAD_REACTORS
330
C
102
}
330
C
100
AcDbDictionary
281
     1
  3
Standard
350
18
  0
ACDBPERSSUBENTMANAGER
  5
1F9
102
{ACAD_REACTORS
330
C
102
}
330
C
100
AcDbPersSubentManager
 90
        2
 90
        0
 90
        2
 90
        8
 90
        0
 90
        2
 90
        1
 90
        2
  0
DICTIONARY
  5
19
102
{ACAD_REACTORS
330
C
102
}
330
C
100
AcDbDictionary
281
     1
  0
ACDBDICTIONARYWDFLT
  5
E
102
{ACAD_REACTORS
330
C
102
}
330
C
100
AcDbDictionary
281
     1
  3
ByLayer
350
688
  3
Normal
350
F
100
AcDbDictionaryWithDefault
340
F
  0
DICTIONARY
  5
191
102
{ACAD_REACTORS
330
C
102
}
330
C
100
AcDbDictionary
281
     1
  3
A0
350
192
  3
A1
350
193
  3
A2
350
194
  3
A3
350
195
  3
A4
350
196
  3
A5
350
197
  3
A6
350
198
  3
A7
350
199
  3
A8
350
19A
  3
A9
350
19B
  3
B0
350
19C
  3
B1
350
19D
  3
B2
350
19E
  3
B3
350
19F
  3
B4
350
1A0
  3
B5
350
1A1
  3
B6
350
1A2
  3
B7
350
1A3
  3
B8
350
1A4
  3
B9
350
1A5
  3
C0
350
1A6
  3
C1
350
1A7
  3
C2
350
1A8
  3
C3
350
1A9
  3
C4
350
1AA
  3
C5
350
1AB
  3
C6
350
1AC
  3
C7
350
1AD
  3
C8
350
1AE
  3
C9
350
1AF
  3
D0
350
1B0
  3
D1
350
1B1
  3
D2
350
1B2
  0
DICTIONARY
  5
B6
102
{ACAD_REACTORS
330
C
102
}
330
C
100
AcDbDictionary
281
     1
  3
Standard
350
B7
  0
DICTIONARY
  5
180
102
{ACAD_REACTORS
330
C
102
}
330
C
100
AcDbDictionary
281
     1
  3
2dWireframe
350
186
  3
3D Hidden
350
188
  3
3dWireframe
350
187
  3
Basic
350
185
  3
Brighten
350
18C
  3
ColorChange
350
190
  3
Conceptual
350
189
  3
Dim
350
18B
  3
EdgeColorOff
350
684
  3
Facepattern
350
18F
  3
Flat
350
181
  3
FlatWithEdges
350
182
  3
Gouraud
350
183
  3
GouraudWithEdges
350
184
  3
Hidden
350
67C
  3
JitterOff
350
682
  3
Linepattern
350
18E
  3
OverhangOff
350
683
  3
Realistic
350
18A
  3
Shaded
350
681
  3
Shaded with edges
350
680
  3
Shades of Gray
350
67D
  3
Sketchy
350
67E
  3
Thicken
350
18D
  3
Wireframe
350
67B
  3
X-Ray
350
67F
  0
XRECORD
  5
6C2
102
{ACAD_REACTORS
330
C
102
}
330
C
100
AcDbXrecord
280
     1
 90
        1
330
B7
  0
DICTIONARY
  5
15F
102
{ACAD_REACTORS
330
C
102
}
330
C
100
AcDbDictionary
281
     1
  3
CANNOSCALE
350
1E5
  3
CMLEADERSTYLE
350
1E3
  3
CTABLESTYLE
350
160
  3
DIMASSOC
350
41E
  3
INDEXCTL
350
41D
  3
LIGHTINGUNITS
350
1E6
  3
LOFTANG1
350
6BD
  3
LOFTANG2
350
6BE
  3
MSLTSCALE
350
1E4
  3
SORTENTS
350
41C
  3
XCLIPFRAME
350
6BF
  0
DICTIONARY
  5
43B
102
{ACAD_REACTORS
330
C
102
}
330
C
100
AcDbDictionary
281
     1
  0
XRECORD
  5
6C3
102
{ACAD_REACTORS
330
C
102
}
330
C
100
AcDbXrecord
280
     1
  1
DWGPROPS COOKIE
  2

  3

  4

  6

  7

  8
Haden
  9

300
=
301
=
302
=
303
=
304
=
305
=
306
=
307
=
308
=
309
=
 40
0.0474063888888889
 41
2454575.419547095
 42
2455967.396095313
  1

 90
        0
  0
DICTIONARY
  5
68A
102
{ACAD_REACTORS
330
689
102
}
330
689
100
AcDbDictionary
281
     1
  0
XRECORD
  5
3CF
102
{ACAD_REACTORS
330
3CE
102
}
330
3CE
100
AcDbXrecord
280
     1
290
     1
  0
XRECORD
  5
3D1
102
{ACAD_REACTORS
330
3D0
102
}
330
3D0
100
AcDbXrecord
280
     1
290
     1
  0
SORTENTSTABLE
  5
205
102
{ACAD_REACTORS
330
204
102
}
330
204
100
AcDbSortentsTable
330
1F
331
2C0
  5
2C0
331
2C2
  5
2C2
  0
XRECORD
  5
6C5
102
{ACAD_REACTORS
330
6C4
102
}
330
6C4
100
AcDbXrecord
280
     1
 40
0.18
  0
LAYOUT
  5
1E
102
{ACAD_XDICTIONARY
360
6C6
102
}
102
{ACAD_REACTORS
330
1A
102
}
330
1A
100
AcDbPlotSettings
  1

  2

  4

  6

 40
0.0
 41
0.0
 42
0.0
 43
0.0
 44
0.0
 45
0.0
 46
0.0
 47
0.0
 48
0.0
 49
0.0
140
0.0
141
0.0
142
1.0
143
1.0
 70
   688
 72
     0
 73
     0
 74
     5
  7

 75
    16
147
1.0
148
0.0
149
0.0
100
AcDbLayout
  1
Layout1
 70
     1
 71
     1
 10
0.0
 20
0.0
 11
12.0
 21
9.0
 12
0.0
 22
0.0
 32
0.0
 14
1.000000000000000E+20
 24
1.000000000000000E+20
 34
1.000000000000000E+20
 15
-1.000000000000000E+20
 25
-1.000000000000000E+20
 35
-1.000000000000000E+20
146
0.0
 13
0.0
 23
0.0
 33
0.0
 16
1.0
 26
0.0
 36
0.0
 17
0.0
 27
1.0
 37
0.0
 76
     0
330
1B
  0
LAYOUT
  5
26
102
{ACAD_XDICTIONARY
360
6CA
102
}
102
{ACAD_REACTORS
330
1A
102
}
330
1A
100
AcDbPlotSettings
  1

  2

  4

  6

 40
0.0
 41
0.0
 42
0.0
 43
0.0
 44
0.0
 45
0.0
 46
0.0
 47
0.0
 48
0.0
 49
0.0
140
0.0
141
0.0
142
1.0
143
1.0
 70
   688
 72
     0
 73
     0
 74
     5
  7

 75
    16
147
1.0
148
0.0
149
0.0
100
AcDbLayout
  1
Layout2
 70
     1
 71
     2
 10
0.0
 20
0.0
 11
12.0
 21
9.0
 12
0.0
 22
0.0
 32
0.0
 14
0.0
 24
0.0
 34
0.0
 15
0.0
 25
0.0
 35
0.0
146
0.0
 13
0.0
 23
0.0
 33
0.0
 16
1.0
 26
0.0
 36
0.0
 17
0.0
 27
1.0
 37
0.0
 76
     0
330
23
  0
LAYOUT
  5
22
102
{ACAD_XDICTIONARY
360
6C8
102
}
102
{ACAD_REACTORS
330
1A
102
}
330
1A
100
AcDbPlotSettings
  1

  2

  4

  6

 40
0.0
 41
0.0
 42
0.0
 43
0.0
 44
0.0
 45
0.0
 46
0.0
 47
0.0
 48
0.0
 49
0.0
140
0.0
141
0.0
142
1.0
143
1.0
 70
  1712
 72
     0
 73
     0
 74
     0
  7

 75
     0
147
1.0
148
0.0
149
0.0
100
AcDbLayout
  1
Model
 70
     1
 71
     0
 10
0.0
 20
0.0
 11
12.0
 21
9.0
 12
0.0
 22
0.0
 32
0.0
 14
0.0
 24
0.0
 34
0.0
 15
0.0
 25
0.0
 35
0.0
146
0.0
 13
0.0
 23
0.0
 33
0.0
 16
1.0
 26
0.0
 36
0.0
 17
0.0
 27
1.0
 37
0.0
 76
     0
330
1F
331
166
  0
MATERIAL
  5
661
102
{ACAD_XDICTIONARY
360
662
102
}
102
{ACAD_REACTORS
330
B4
102
}
330
B4
100
AcDbMaterial
  1
_GLOBAL_01
 70
     1
 40
0.6999999880790711
 90
-1033081748
 71
     1
 91
-1023410177
 72
     0
 76
     1
 45
0.2000000029802322
 92
-1023673349
 77
     0
171
     0
175
     0
179
     0
  0
MATERIAL
  5
170
102
{ACAD_XDICTIONARY
360
171
102
}
102
{ACAD_REACTORS
330
B4
102
}
330
B4
100
AcDbMaterial
  1
ByBlock
 72
     0
 43
0.0208333333333333
 43
0.0
 43
0.0
 43
0.0
 43
0.0
 43
0.0208333333333333
 43
0.0
 43
0.0
 43
0.0
 43
0.0
 43
1.0
 43
0.0
 43
0.0
 43
0.0
 43
0.0
 43
1.0
 77
     0
 47
0.0208333333333333
 47
0.0
 47
0.0
 47
0.0
 47
0.0
 47
0.0208333333333333
 47
0.0
 47
0.0
 47
0.0
 47
0.0
 47
1.0
 47
0.0
 47
0.0
 47
0.0
 47
0.0
 47
1.0
171
     0
 49
0.0208333333333333
 49
0.0
 49
0.0
 49
0.0
 49
0.0
 49
0.0208333333333333
 49
0.0
 49
0.0
 49
0.0
 49
0.0
 49
1.0
 49
0.0
 49
0.0
 49
0.0
 49
0.0
 49
1.0
175
     0
142
0.0208333333333333
142
0.0
142
0.0
142
0.0
142
0.0
142
0.0208333333333333
142
0.0
142
0.0
142
0.0
142
0.0
142
1.0
142
0.0
142
0.0
142
0.0
142
0.0
142
1.0
179
     0
144
0.0208333333333333
144
0.0
144
0.0
144
0.0
144
0.0
144
0.0208333333333333
144
0.0
144
0.0
144
0.0
144
0.0
144
1.0
144
0.0
144
0.0
144
0.0
144
0.0
144
1.0
147
0.0208333333333333
147
0.0
147
0.0
147
0.0
147
0.0
147
0.0208333333333333
147
0.0
147
0.0
147
0.0
147
0.0
147
1.0
147
0.0
147
0.0
147
0.0
147
0.0
147
1.0
  0
MATERIAL
  5
168
102
{ACAD_XDICTIONARY
360
169
102
}
102
{ACAD_REACTORS
330
B4
102
}
330
B4
100
AcDbMaterial
  1
ByLayer
 72
     0
 43
0.0208333333333333
 43
0.0
 43
0.0
 43
0.0
 43
0.0
 43
0.0208333333333333
 43
0.0
 43
0.0
 43
0.0
 43
0.0
 43
1.0
 43
0.0
 43
0.0
 43
0.0
 43
0.0
 43
1.0
 77
     0
 47
0.0208333333333333
 47
0.0
 47
0.0
 47
0.0
 47
0.0
 47
0.0208333333333333
 47
0.0
 47
0.0
 47
0.0
 47
0.0
 47
1.0
 47
0.0
 47
0.0
 47
0.0
 47
0.0
 47
1.0
171
     0
 49
0.0208333333333333
 49
0.0
 49
0.0
 49
0.0
 49
0.0
 49
0.0208333333333333
 49
0.0
 49
0.0
 49
0.0
 49
0.0
 49
1.0
 49
0.0
 49
0.0
 49
0.0
 49
0.0
 49
1.0
175
     0
142
0.0208333333333333
142
0.0
142
0.0
142
0.0
142
0.0
142
0.0208333333333333
142
0.0
142
0.0
142
0.0
142
0.0
142
1.0
142
0.0
142
0.0
142
0.0
142
0.0
142
1.0
179
     0
144
0.0208333333333333
144
0.0
144
0.0
144
0.0
144
0.0
144
0.0208333333333333
144
0.0
144
0.0
144
0.0
144
0.0
144
1.0
144
0.0
144
0.0
144
0.0
144
0.0
144
1.0
147
0.0208333333333333
147
0.0
147
0.0
147
0.0
147
0.0
147
0.0208333333333333
147
0.0
147
0.0
147
0.0
147
0.0
147
1.0
147
0.0
147
0.0
147
0.0
147
0.0
147
1.0
  0
MATERIAL
  5
178
102
{ACAD_XDICTIONARY
360
179
102
}
102
{ACAD_REACTORS
330
B4
102
}
330
B4
100
AcDbMaterial
  1
Global
 72
     0
 43
0.0208333333333333
 43
0.0
 43
0.0
 43
0.0
 43
0.0
 43
0.0208333333333333
 43
0.0
 43
0.0
 43
0.0
 43
0.0
 43
1.0
 43
0.0
 43
0.0
 43
0.0
 43
0.0
 43
1.0
 77
     0
 47
0.0208333333333333
 47
0.0
 47
0.0
 47
0.0
 47
0.0
 47
0.0208333333333333
 47
0.0
 47
0.0
 47
0.0
 47
0.0
 47
1.0
 47
0.0
 47
0.0
 47
0.0
 47
0.0
 47
1.0
171
     0
 49
0.0208333333333333
 49
0.0
 49
0.0
 49
0.0
 49
0.0
 49
0.0208333333333333
 49
0.0
 49
0.0
 49
0.0
 49
0.0
 49
1.0
 49
0.0
 49
0.0
 49
0.0
 49
0.0
 49
1.0
175
     0
142
0.0208333333333333
142
0.0
142
0.0
142
0.0
142
0.0
142
0.0208333333333333
142
0.0
142
0.0
142
0.0
142
0.0
142
1.0
142
0.0
142
0.0
142
0.0
142
0.0
142
1.0
179
     0
144
0.0208333333333333
144
0.0
144
0.0
144
0.0
144
0.0
144
0.0208333333333333
144
0.0
144
0.0
144
0.0
144
0.0
144
1.0
144
0.0
144
0.0
144
0.0
144
0.0
144
1.0
147
0.0208333333333333
147
0.0
147
0.0
147
0.0
147
0.0
147
0.0208333333333333
147
0.0
147
0.0
147
0.0
147
0.0
147
1.0
147
0.0
147
0.0
147
0.0
147
0.0
147
1.0
  0
MLEADERSTYLE
  5
1B4
102
{ACAD_REACTORS
330
1B3
102
}
330
1B3
100
AcDbMLeaderStyle
170
     2
171
     1
172
     0
 90
        2
 40
0.0
 41
0.0
173
     1
 91
-1056964608
340
14
 92
       -2
290
     1
 42
0.09
291
     1
 43
0.36
  3
Standard
 44
0.18
300

342
11
174
     1
178
     6
175
     1
176
     0
 93
-1056964608
 45
0.18
292
     0
297
     0
 46
0.18
 94
-1056964608
 47
1.0
 49
1.0
140
1.0
293
     1
141
0.0
294
     1
177
     0
142
1.0
295
     0
296
     0
143
0.125
1001
ACAD_MLEADERVER
1070
     2
  0
MLINESTYLE
  5
18
102
{ACAD_REACTORS
330
17
102
}
330
17
100
AcDbMlineStyle
  2
STANDARD
 70
     0
  3

 62
   256
 51
90.0
 52
90.0
 71
     2
 49
0.5
 62
   256
  6
BYLAYER
 49
-0.5
 62
   256
  6
BYLAYER
  0
ACDBPLACEHOLDER
  5
688
102
{ACAD_REACTORS
330
E
102
}
330
E
  0
ACDBPLACEHOLDER
  5
F
102
{ACAD_REACTORS
330
E
102
}
330
E
  0
SCALE
  5
192
102
{ACAD_REACTORS
330
191
102
}
330
191
100
AcDbScale
 70
     0
300
1:1
140
1.0
141
1.0
290
     1
  0
SCALE
  5
193
102
{ACAD_REACTORS
330
191
102
}
330
191
100
AcDbScale
 70
     0
300
1:2
140
1.0
141
2.0
290
     0
  0
SCALE
  5
194
102
{ACAD_REACTORS
330
191
102
}
330
191
100
AcDbScale
 70
     0
300
1:4
140
1.0
141
4.0
290
     0
  0
SCALE
  5
195
102
{ACAD_REACTORS
330
191
102
}
330
191
100
AcDbScale
 70
     0
300
1:5
140
1.0
141
5.0
290
     0
  0
SCALE
  5
196
102
{ACAD_REACTORS
330
191
102
}
330
191
100
AcDbScale
 70
     0
300
1:8
140
1.0
141
8.0
290
     0
  0
SCALE
  5
197
102
{ACAD_REACTORS
330
191
102
}
330
191
100
AcDbScale
 70
     0
300
1:10
140
1.0
141
10.0
290
     0
  0
SCALE
  5
198
102
{ACAD_REACTORS
330
191
102
}
330
191
100
AcDbScale
 70
     0
300
1:16
140
1.0
141
16.0
290
     0
  0
SCALE
  5
199
102
{ACAD_REACTORS
330
191
102
}
330
191
100
AcDbScale
 70
     0
300
1:20
140
1.0
141
20.0
290
     0
  0
SCALE
  5
19A
102
{ACAD_REACTORS
330
191
102
}
330
191
100
AcDbScale
 70
     0
300
1:30
140
1.0
141
30.0
290
     0
  0
SCALE
  5
19B
102
{ACAD_REACTORS
330
191
102
}
330
191
100
AcDbScale
 70
     0
300
1:40
140
1.0
141
40.0
290
     0
  0
SCALE
  5
19C
102
{ACAD_REACTORS
330
191
102
}
330
191
100
AcDbScale
 70
     0
300
1:50
140
1.0
141
50.0
290
     0
  0
SCALE
  5
19D
102
{ACAD_REACTORS
330
191
102
}
330
191
100
AcDbScale
 70
     0
300
1:100
140
1.0
141
100.0
290
     0
  0
SCALE
  5
19E
102
{ACAD_REACTORS
330
191
102
}
330
191
100
AcDbScale
 70
     0
300
2:1
140
2.0
141
1.0
290
     0
  0
SCALE
  5
19F
102
{ACAD_REACTORS
330
191
102
}
330
191
100
AcDbScale
 70
     0
300
4:1
140
4.0
141
1.0
290
     0
  0
SCALE
  5
1A0
102
{ACAD_REACTORS
330
191
102
}
330
191
100
AcDbScale
 70
     0
300
8:1
140
8.0
141
1.0
290
     0
  0
SCALE
  5
1A1
102
{ACAD_REACTORS
330
191
102
}
330
191
100
AcDbScale
 70
     0
300
10:1
140
10.0
141
1.0
290
     0
  0
SCALE
  5
1A2
102
{ACAD_REACTORS
330
191
102
}
330
191
100
AcDbScale
 70
     0
300
100:1
140
100.0
141
1.0
290
     0
  0
SCALE
  5
1A3
102
{ACAD_REACTORS
330
191
102
}
330
191
100
AcDbScale
 70
     0
300
1/128" = 1'-0"
140
0.0078125
141
12.0
290
     0
  0
SCALE
  5
1A4
102
{ACAD_REACTORS
330
191
102
}
330
191
100
AcDbScale
 70
     0
300
1/64" = 1'-0"
140
0.015625
141
12.0
290
     0
  0
SCALE
  5
1A5
102
{ACAD_REACTORS
330
191
102
}
330
191
100
AcDbScale
 70
     0
300
1/32" = 1'-0"
140
0.03125
141
12.0
290
     0
  0
SCALE
  5
1A6
102
{ACAD_REACTORS
330
191
102
}
330
191
100
AcDbScale
 70
     0
300
1/16" = 1'-0"
140
0.0625
141
12.0
290
     0
  0
SCALE
  5
1A7
102
{ACAD_REACTORS
330
191
102
}
330
191
100
AcDbScale
 70
     0
300
3/32" = 1'-0"
140
0.09375
141
12.0
290
     0
  0
SCALE
  5
1A8
102
{ACAD_REACTORS
330
191
102
}
330
191
100
AcDbScale
 70
     0
300
1/8" = 1'-0"
140
0.125
141
12.0
290
     0
  0
SCALE
  5
1A9
102
{ACAD_REACTORS
330
191
102
}
330
191
100
AcDbScale
 70
     0
300
3/16" = 1'-0"
140
0.1875
141
12.0
290
     0
  0
SCALE
  5
1AA
102
{ACAD_REACTORS
330
191
102
}
330
191
100
AcDbScale
 70
     0
300
1/4" = 1'-0"
140
0.25
141
12.0
290
     0
  0
SCALE
  5
1AB
102
{ACAD_REACTORS
330
191
102
}
330
191
100
AcDbScale
 70
     0
300
3/8" = 1'-0"
140
0.375
141
12.0
290
     0
  0
SCALE
  5
1AC
102
{ACAD_REACTORS
330
191
102
}
330
191
100
AcDbScale
 70
     0
300
1/2" = 1'-0"
140
0.5
141
12.0
290
     0
  0
SCALE
  5
1AD
102
{ACAD_REACTORS
330
191
102
}
330
191
100
AcDbScale
 70
     0
300
3/4" = 1'-0"
140
0.75
141
12.0
290
     0
  0
SCALE
  5
1AE
102
{ACAD_REACTORS
330
191
102
}
330
191
100
AcDbScale
 70
     0
300
1" = 1'-0"
140
1.0
141
12.0
290
     0
  0
SCALE
  5
1AF
102
{ACAD_REACTORS
330
191
102
}
330
191
100
AcDbScale
 70
     0
300
1-1/2" = 1'-0"
140
1.5
141
12.0
290
     0
  0
SCALE
  5
1B0
102
{ACAD_REACTORS
330
191
102
}
330
191
100
AcDbScale
 70
     0
300
3" = 1'-0"
140
3.0
141
12.0
290
     0
  0
SCALE
  5
1B1
102
{ACAD_REACTORS
330
191
102
}
330
191
100
AcDbScale
 70
     0
300
6" = 1'-0"
140
6.0
141
12.0
290
     0
  0
SCALE
  5
1B2
102
{ACAD_REACTORS
330
191
102
}
330
191
100
AcDbScale
 70
     0
300
1'-0" = 1'-0"
140
12.0
141
12.0
290
     0
  0
TABLESTYLE
  5
B7
102
{ACAD_XDICTIONARY
360
1E0
102
}
102
{ACAD_REACTORS
330
B6
102
}
330
B6
100
AcDbTableStyle
  3
Standard
 70
     0
 71
     0
 40
0.06
 41
0.06
280
     0
281
     0
  7
Standard
140
0.18
170
     2
 62
     0
 63
     7
283
     0
274
    -2
284
     1
 64
     0
275
    -2
285
     1
 65
     0
276
    -2
286
     1
 66
     0
277
    -2
287
     1
 67
     0
278
    -2
288
     1
 68
     0
279
    -2
289
     1
 69
     0
  7
Standard
140
0.25
170
     5
 62
     0
 63
     7
283
     0
274
    -2
284
     1
 64
     0
275
    -2
285
     1
 65
     0
276
    -2
286
     1
 66
     0
277
    -2
287
     1
 67
     0
278
    -2
288
     1
 68
     0
279
    -2
289
     1
 69
     0
  7
Standard
140
0.18
170
     5
 62
     0
 63
     7
283
     0
274
    -2
284
     1
 64
     0
275
    -2
285
     1
 65
     0
276
    -2
286
     1
 66
     0
277
    -2
287
     1
 67
     0
278
    -2
288
     1
 68
     0
279
    -2
289
     1
 69
     0
  0
VISUALSTYLE
  5
186
102
{ACAD_XDICTIONARY
360
6D7
102
}
102
{ACAD_REACTORS
330
180
102
}
330
180
100
AcDbVisualStyle
  2

 70
     4
 71
     0
 72
     2
 73
     0
 90
        0
 40
-0.6
 41
-30.0
 62
     5
 63
     7
 74
     1
 91
        4
 64
     7
 65
   257
 75
     1
175
     1
 42
1.0
 92
        0
 66
   257
 43
1.0
 76
     1
 77
     6
 78
     2
 67
     7
 79
     5
170
     0
171
     0
290
     0
174
     0
 93
        1
 44
0.0
173
     0
291
     0
 45
0.0
1001
ACAD
1000
AcDbSavedByObjectVersion
1070
     0
  0
VISUALSTYLE
  5
188
102
{ACAD_XDICTIONARY
360
6DB
102
}
102
{ACAD_REACTORS
330
180
102
}
330
180
100
AcDbVisualStyle
  2

 70
     6
 71
     1
 72
     2
 73
     2
 90
        0
 40
-0.6
 41
-30.0
 62
     5
 63
     7
 74
     2
 91
        2
 64
     7
 65
   257
 75
     2
175
     1
 42
40.0
 92
        0
 66
   257
 43
1.0
 76
     1
 77
     6
 78
     2
 67
     7
 79
     3
170
     0
171
     0
290
     0
174
     0
 93
        1
 44
0.0
173
     0
291
     0
 45
0.0
1001
ACAD
1000
AcDbSavedByObjectVersion
1070
     0
  0
VISUALSTYLE
  5
187
102
{ACAD_XDICTIONARY
360
6D9
102
}
102
{ACAD_REACTORS
330
180
102
}
330
180
100
AcDbVisualStyle
  2

 70
     5
 71
     0
 72
     2
 73
     0
 90
        0
 40
-0.6
 41
-30.0
 62
     5
 63
     7
 74
     1
 91
        4
 64
     7
 65
   257
 75
     1
175
     1
 42
1.0
 92
        0
 66
   257
 43
1.0
 76
     1
 77
     6
 78
     2
 67
     7
 79
     5
170
     0
171
     0
290
     0
174
     0
 93
        1
 44
0.0
173
     0
291
     0
 45
0.0
1001
ACAD
1000
AcDbSavedByObjectVersion
1070
     0
  0
VISUALSTYLE
  5
185
102
{ACAD_XDICTIONARY
360
6D5
102
}
102
{ACAD_REACTORS
330
180
102
}
330
180
100
AcDbVisualStyle
  2

 70
     7
 71
     1
 72
     0
 73
     1
 90
        0
 40
-0.6
 41
-30.0
 62
     5
 63
     7
 74
     0
 91
        4
 64
     7
 65
   257
 75
     1
175
     1
 42
1.0
 92
        8
 66
     7
 43
1.0
 76
     1
 77
     6
 78
     2
 67
     7
 79
     5
170
     0
171
     0
290
     0
174
     0
 93
        1
 44
0.0
173
     0
291
     1
 45
0.0
1001
ACAD
1000
AcDbSavedByObjectVersion
1070
     0
  0
VISUALSTYLE
  5
18C
102
{ACAD_XDICTIONARY
360
6E3
102
}
102
{ACAD_REACTORS
330
180
102
}
330
180
100
AcDbVisualStyle
  2

 70
    12
 71
     2
 72
     2
 73
     0
 90
        0
 40
-0.6
 41
-30.0
 62
     5
 63
     7
 74
     1
 91
        4
 64
     7
 65
   257
 75
     1
175
     1
 42
1.0
 92
        8
 66
     7
 43
1.0
 76
     1
 77
     6
 78
     2
 67
     7
 79
     5
170
     0
171
     0
290
     0
174
     0
 93
        1
 44
50.0
173
     0
291
     1
 45
0.0
1001
ACAD
1000
AcDbSavedByObjectVersion
1070
     0
  0
VISUALSTYLE
  5
190
102
{ACAD_XDICTIONARY
360
6EB
102
}
102
{ACAD_REACTORS
330
180
102
}
330
180
100
AcDbVisualStyle
  2

 70
    16
 71
     2
 72
     2
 73
     3
 90
        0
 40
-0.6
 41
-30.0
 62
     5
 63
     8
 74
     1
 91
        4
 64
     7
 65
   257
 75
     1
175
     1
 42
1.0
 92
        8
 66
     8
 43
1.0
 76
     1
 77
     6
 78
     2
 67
     7
 79
     5
170
     0
171
     0
290
     0
174
     0
 93
        1
 44
0.0
173
     0
291
     1
 45
0.0
1001
ACAD
1000
AcDbSavedByObjectVersion
1070
     0
  0
VISUALSTYLE
  5
189
102
{ACAD_XDICTIONARY
360
6DD
102
}
102
{ACAD_REACTORS
330
180
102
}
330
180
100
AcDbVisualStyle
  2

 70
     9
 71
     3
 72
     2
 73
     0
 90
        0
 40
-0.6
 41
-30.0
 62
     5
 63
     7
 74
     2
 91
        2
 64
     7
 65
   257
 75
     1
175
     1
 42
40.0
 92
        8
 66
     7
 43
1.0
 76
     1
 77
     6
 78
     2
 67
     7
 79
     3
170
     0
171
     0
290
     0
174
     0
 93
        1
 44
0.0
173
     0
291
     0
 45
0.0
1001
ACAD
1000
AcDbSavedByObjectVersion
1070
     0
  0
VISUALSTYLE
  5
18B
102
{ACAD_XDICTIONARY
360
6E1
102
}
102
{ACAD_REACTORS
330
180
102
}
330
180
100
AcDbVisualStyle
  2

 70
    11
 71
     2
 72
     2
 73
     0
 90
        0
 40
-0.6
 41
-30.0
 62
     5
 63
     7
 74
     1
 91
        4
 64
     7
 65
   257
 75
     1
175
     1
 42
1.0
 92
        8
 66
     7
 43
1.0
 76
     1
 77
     6
 78
     2
 67
     7
 79
     5
170
     0
171
     0
290
     0
174
     0
 93
        1
 44
-50.0
173
     0
291
     1
 45
0.0
1001
ACAD
1000
AcDbSavedByObjectVersion
1070
     0
  0
VISUALSTYLE
  5
684
102
{ACAD_XDICTIONARY
360
6FF
102
}
102
{ACAD_REACTORS
330
180
102
}
330
180
100
AcDbVisualStyle
  2
EdgeColorOff
 70
    22
 71
     2
 72
     2
 73
     0
 90
        0
 40
-0.6
 41
-30.0
 62
     5
 63
     7
 74
     1
 91
        4
 64
     7
 65
   257
 75
     1
175
     1
 42
1.0
 92
        8
 66
     7
 43
1.0
 76
     1
 77
     6
 78
     2
 67
     7
 79
     5
170
     0
171
     0
290
     0
174
     0
 93
        1
 44
0.0
173
     0
291
     1
 45
0.0
1001
ACAD
1000
AcDbSavedByObjectVersion
1070
     0
  0
VISUALSTYLE
  5
18F
102
{ACAD_XDICTIONARY
360
6E9
102
}
102
{ACAD_REACTORS
330
180
102
}
330
180
100
AcDbVisualStyle
  2

 70
    15
 71
     2
 72
     2
 73
     0
 90
        0
 40
-0.6
 41
-30.0
 62
     5
 63
     7
 74
     1
 91
        4
 64
     7
 65
   257
 75
     1
175
     1
 42
1.0
 92
        8
 66
     7
 43
1.0
 76
     1
 77
     6
 78
     2
 67
     7
 79
     5
170
     0
171
     0
290
     0
174
     0
 93
        1
 44
0.0
173
     0
291
     1
 45
0.0
1001
ACAD
1000
AcDbSavedByObjectVersion
1070
     0
  0
VISUALSTYLE
  5
181
102
{ACAD_XDICTIONARY
360
6CD
102
}
102
{ACAD_REACTORS
330
180
102
}
330
180
100
AcDbVisualStyle
  2

 70
     0
 71
     2
 72
     1
 73
     1
 90
        2
 40
-0.6
 41
30.0
 62
     5
 63
     7
 74
     0
 91
        4
 64
     7
 65
   257
 75
     1
175
     1
 42
1.0
 92
        8
 66
     7
 43
1.0
 76
     1
 77
     6
 78
     2
 67
     7
 79
     5
170
     0
171
     0
290
     0
174
     0
 93
       13
 44
0.0
173
     0
291
     1
 45
0.0
1001
ACAD
1000
AcDbSavedByObjectVersion
1070
     0
  0
VISUALSTYLE
  5
182
102
{ACAD_XDICTIONARY
360
6CF
102
}
102
{ACAD_REACTORS
330
180
102
}
330
180
100
AcDbVisualStyle
  2

 70
     1
 71
     2
 72
     1
 73
     1
 90
        2
 40
-0.6
 41
30.0
 62
     5
 63
     7
 74
     1
 91
        4
 64
     7
 65
   257
 75
     1
175
     1
 42
1.0
 92
        0
 66
   257
 43
1.0
 76
     1
 77
     6
 78
     2
 67
     7
 79
     5
170
     0
171
     0
290
     0
174
     0
 93
       13
 44
0.0
173
     0
291
     1
 45
0.0
1001
ACAD
1000
AcDbSavedByObjectVersion
1070
     0
  0
VISUALSTYLE
  5
183
102
{ACAD_XDICTIONARY
360
6D1
102
}
102
{ACAD_REACTORS
330
180
102
}
330
180
100
AcDbVisualStyle
  2

 70
     2
 71
     2
 72
     2
 73
     1
 90
        2
 40
-0.6
 41
30.0
 62
     5
 63
     7
 74
     0
 91
        4
 64
     7
 65
   257
 75
     1
175
     1
 42
1.0
 92
        0
 66
     7
 43
1.0
 76
     1
 77
     6
 78
     2
 67
     7
 79
     5
170
     0
171
     0
290
     0
174
     0
 93
       13
 44
0.0
173
     0
291
     1
 45
0.0
1001
ACAD
1000
AcDbSavedByObjectVersion
1070
     0
  0
VISUALSTYLE
  5
184
102
{ACAD_XDICTIONARY
360
6D3
102
}
102
{ACAD_REACTORS
330
180
102
}
330
180
100
AcDbVisualStyle
  2

 70
     3
 71
     2
 72
     2
 73
     1
 90
        2
 40
-0.6
 41
30.0
 62
     5
 63
     7
 74
     1
 91
        4
 64
     7
 65
   257
 75
     1
175
     1
 42
1.0
 92
        0
 66
   257
 43
1.0
 76
     1
 77
     6
 78
     2
 67
     7
 79
     5
170
     0
171
     0
290
     0
174
     0
 93
       13
 44
0.0
173
     0
291
     1
 45
0.0
1001
ACAD
1000
AcDbSavedByObjectVersion
1070
     0
  0
VISUALSTYLE
  5
67C
102
{ACAD_XDICTIONARY
360
6EF
102
}
102
{ACAD_REACTORS
330
180
102
}
330
180
100
AcDbVisualStyle
  2
Hidden
 70
     6
 71
     1
 72
     2
 73
     2
 90
        0
 40
-0.6
 41
-30.0
 62
     5
 63
     7
 74
     2
 91
        2
 64
     7
 65
   257
 75
     2
175
     1
 42
40.0
 92
        0
 66
   257
 43
1.0
 76
     1
 77
     6
 78
     2
 67
     7
 79
     3
170
     0
171
     0
290
     0
174
     0
 93
        1
 44
0.0
173
     0
291
     0
 45
0.0
1001
ACAD
1000
AcDbSavedByObjectVersion
1070
     0
  0
VISUALSTYLE
  5
682
102
{ACAD_XDICTIONARY
360
6FB
102
}
102
{ACAD_REACTORS
330
180
102
}
330
180
100
AcDbVisualStyle
  2
JitterOff
 70
    20
 71
     2
 72
     2
 73
     0
 90
        0
 40
-0.6
 41
-30.0
 62
     5
 63
     7
 74
     1
 91
        4
 64
     7
 65
   257
 75
     1
175
     1
 42
1.0
 92
       10
 66
     7
 43
1.0
 76
     1
 77
     6
 78
     2
 67
     7
 79
     5
170
     0
171
     0
290
     0
174
     0
 93
        1
 44
0.0
173
     0
291
     1
 45
0.0
1001
ACAD
1000
AcDbSavedByObjectVersion
1070
     0
  0
VISUALSTYLE
  5
18E
102
{ACAD_XDICTIONARY
360
6E7
102
}
102
{ACAD_REACTORS
330
180
102
}
330
180
100
AcDbVisualStyle
  2

 70
    14
 71
     2
 72
     2
 73
     0
 90
        0
 40
-0.6
 41
-30.0
 62
     5
 63
     7
 74
     1
 91
        4
 64
     7
 65
   257
 75
     7
175
     7
 42
1.0
 92
        8
 66
     7
 43
1.0
 76
     1
 77
     6
 78
     2
 67
     7
 79
     5
170
     0
171
     0
290
     0
174
     0
 93
        1
 44
0.0
173
     0
291
     1
 45
0.0
1001
ACAD
1000
AcDbSavedByObjectVersion
1070
     0
  0
VISUALSTYLE
  5
683
102
{ACAD_XDICTIONARY
360
6FD
102
}
102
{ACAD_REACTORS
330
180
102
}
330
180
100
AcDbVisualStyle
  2
OverhangOff
 70
    21
 71
     2
 72
     2
 73
     0
 90
        0
 40
-0.6
 41
-30.0
 62
     5
 63
     7
 74
     1
 91
        4
 64
     7
 65
   257
 75
     1
175
     1
 42
1.0
 92
        9
 66
     7
 43
1.0
 76
     1
 77
     6
 78
     2
 67
     7
 79
     5
170
     0
171
     0
290
     0
174
     0
 93
        1
 44
0.0
173
     0
291
     1
 45
0.0
1001
ACAD
1000
AcDbSavedByObjectVersion
1070
     0
  0
VISUALSTYLE
  5
18A
102
{ACAD_XDICTIONARY
360
6DF
102
}
102
{ACAD_REACTORS
330
180
102
}
330
180
100
AcDbVisualStyle
  2

 70
     8
 71
     2
 72
     2
 73
     0
 90
        0
 40
-0.6
 41
-30.0
 62
     5
 63
     7
 74
     1
 91
        0
 64
     7
 65
   257
 75
     1
175
     1
 42
1.0
 92
        8
 66
     8
 43
1.0
 76
     1
 77
     6
 78
     2
 67
     7
 79
     5
170
     0
171
     0
290
     0
174
     0
 93
       13
 44
0.0
173
     0
291
     0
 45
0.0
1001
ACAD
1000
AcDbSavedByObjectVersion
1070
     0
  0
VISUALSTYLE
  5
681
102
{ACAD_XDICTIONARY
360
6F9
102
}
102
{ACAD_REACTORS
330
180
102
}
330
180
100
AcDbVisualStyle
  2
Shaded
 70
    27
 71
     2
 72
     2
 73
     1
 90
        2
 40
-0.6
 41
30.0
 62
     5
 63
     7
 74
     0
 91
        4
 64
     7
 65
   257
 75
     1
175
     1
 42
1.0
 92
        8
 66
   257
 43
1.0
 76
     1
 77
     6
 78
     2
 67
     8
 79
     3
170
     0
171
     0
290
     0
174
     0
 93
        5
 44
0.0
173
     0
291
     0
 45
0.0
1001
ACAD
1000
AcDbSavedByObjectVersion
1070
     0
  0
VISUALSTYLE
  5
680
102
{ACAD_XDICTIONARY
360
6F7
102
}
102
{ACAD_REACTORS
330
180
102
}
330
180
100
AcDbVisualStyle
  2
Shaded with edges
 70
    26
 71
     2
 72
     2
 73
     1
 90
        2
 40
-0.6
 41
30.0
 62
     5
 63
     7
 74
     1
 91
       10
 64
     7
 65
   257
 75
     2
175
     1
 42
1.0
 92
        8
 66
   257
 43
1.0
 76
     1
 77
     6
 78
     2
 67
     7
 79
     3
170
     0
171
     0
290
     0
174
     0
 93
        5
 44
0.0
173
     0
291
     0
 45
0.0
1001
ACAD
1000
AcDbSavedByObjectVersion
1070
     0
  0
VISUALSTYLE
  5
67D
102
{ACAD_XDICTIONARY
360
6F1
102
}
102
{ACAD_REACTORS
330
180
102
}
330
180
100
AcDbVisualStyle
  2
Shades of Gray
 70
    23
 71
     2
 72
     2
 73
     3
 90
        0
 40
-0.6
 41
-30.0
 62
     5
 63
     7
 74
     2
 91
        2
 64
     7
 65
     7
 75
     1
175
     1
 42
40.0
 92
        8
 66
     7
 43
1.0
 76
     1
 77
     6
 78
     2
 67
     7
 79
     3
170
     0
171
     0
290
     0
174
     0
 93
        1
 44
0.0
173
     0
291
     0
 45
0.0
1001
ACAD
1000
AcDbSavedByObjectVersion
1070
     0
  0
VISUALSTYLE
  5
67E
102
{ACAD_XDICTIONARY
360
6F3
102
}
102
{ACAD_REACTORS
330
180
102
}
330
180
100
AcDbVisualStyle
  2
Sketchy
 70
    24
 71
     1
 72
     2
 73
     2
 90
        0
 40
-0.6
 41
-30.0
 62
     5
 63
     7
 74
     2
 91
        2
 64
     7
 65
     7
 75
     1
175
     1
 42
40.0
 92
       11
 66
     7
 43
1.0
 76
     1
 77
     6
 78
     2
 67
     7
 79
     6
170
     0
171
     0
290
     0
174
     0
 93
        1
 44
0.0
173
     0
291
     0
 45
0.0
1001
ACAD
1000
AcDbSavedByObjectVersion
1070
     0
  0
VISUALSTYLE
  5
18D
102
{ACAD_XDICTIONARY
360
6E5
102
}
102
{ACAD_REACTORS
330
180
102
}
330
180
100
AcDbVisualStyle
  2

 70
    13
 71
     2
 72
     2
 73
     0
 90
        0
 40
-0.6
 41
-30.0
 62
     5
 63
     7
 74
     1
 91
        4
 64
     7
 65
   257
 75
     1
175
     1
 42
1.0
 92
       12
 66
     7
 43
1.0
 76
     1
 77
     6
 78
     2
 67
     7
 79
     5
170
     0
171
     0
290
     0
174
     0
 93
        1
 44
0.0
173
     0
291
     1
 45
0.0
1001
ACAD
1000
AcDbSavedByObjectVersion
1070
     0
  0
VISUALSTYLE
  5
67B
102
{ACAD_XDICTIONARY
360
6ED
102
}
102
{ACAD_REACTORS
330
180
102
}
330
180
100
AcDbVisualStyle
  2
Wireframe
 70
     5
 71
     0
 72
     2
 73
     0
 90
        0
 40
-0.6
 41
-30.0
 62
     5
 63
     7
 74
     1
 91
        4
 64
     7
 65
   257
 75
     1
175
     1
 42
1.0
 92
        0
 66
   257
 43
1.0
 76
     1
 77
     6
 78
     2
 67
     7
 79
     3
170
     0
171
     0
290
     0
174
     0
 93
        1
 44
0.0
173
     0
291
     0
 45
0.0
1001
ACAD
1000
AcDbSavedByObjectVersion
1070
     0
  0
VISUALSTYLE
  5
67F
102
{ACAD_XDICTIONARY
360
6F5
102
}
102
{ACAD_REACTORS
330
180
102
}
330
180
100
AcDbVisualStyle
  2
X-Ray
 70
    25
 71
     2
 72
     2
 73
     1
 90
        1
 40
0.5
 41
-30.0
 62
     5
 63
     7
 74
     1
 91
        0
 64
     7
 65
   257
 75
     1
175
     1
 42
1.0
 92
        8
 66
     7
 43
1.0
 76
     1
 77
     6
 78
     2
 67
     7
 79
     3
170
     0
171
     0
290
     0
174
     0
 93
       13
 44
0.0
173
     0
291
     0
 45
0.0
1001
ACAD
1000
AcDbSavedByObjectVersion
1070
     0
  0
DICTIONARYVAR
  5
1E5
102
{ACAD_REACTORS
330
15F
102
}
330
15F
100
DictionaryVariables
280
     0
  1
1:1
  0
DICTIONARYVAR
  5
1E3
102
{ACAD_REACTORS
330
15F
102
}
330
15F
100
DictionaryVariables
280
     0
  1
STANDARD
  0
DICTIONARYVAR
  5
160
102
{ACAD_REACTORS
330
15F
102
}
330
15F
100
DictionaryVariables
280
     0
  1
STANDARD
  0
DICTIONARYVAR
  5
41E
102
{ACAD_REACTORS
330
15F
102
}
330
15F
100
DictionaryVariables
280
     0
  1
1
  0
DICTIONARYVAR
  5
41D
102
{ACAD_REACTORS
330
15F
102
}
330
15F
100
DictionaryVariables
280
     0
  1
0
  0
DICTIONARYVAR
  5
1E6
102
{ACAD_REACTORS
330
15F
102
}
330
15F
100
DictionaryVariables
280
     0
  1
0
  0
DICTIONARYVAR
  5
6BD
102
{ACAD_REACTORS
330
15F
102
}
330
15F
100
DictionaryVariables
280
     0
  1
1.570796
  0
DICTIONARYVAR
  5
6BE
102
{ACAD_REACTORS
330
15F
102
}
330
15F
100
DictionaryVariables
280
     0
  1
1.570796
  0
DICTIONARYVAR
  5
1E4
102
{ACAD_REACTORS
330
15F
102
}
330
15F
100
DictionaryVariables
280
     0
  1
0
  0
DICTIONARYVAR
  5
41C
102
{ACAD_REACTORS
330
15F
102
}
330
15F
100
DictionaryVariables
280
     0
  1
127
  0
DICTIONARYVAR
  5
6BF
102
{ACAD_REACTORS
330
15F
102
}
330
15F
100
DictionaryVariables
280
     0
  1
2
  0
DICTIONARY
  5
6C6
330
1E
100
AcDbDictionary
280
     1
281
     1
  3
ACAD_XREC_ROUNDTRIP
360
6C7
  0
DICTIONARY
  5
6CA
330
26
100
AcDbDictionary
280
     1
281
     1
  3
ACAD_XREC_ROUNDTRIP
360
6CB
  0
DICTIONARY
  5
6C8
330
22
100
AcDbDictionary
280
     1
281
     1
  3
ACAD_XREC_ROUNDTRIP
360
6C9
  0
DICTIONARY
  5
662
330
661
100
AcDbDictionary
280
     1
281
     1
  3
ACAD_XREC_ROUNDTRIP
360
677
  3
BUMPTILE
360
667
  3
DIFFUSETILE
360
663
  3
OPACITYTILE
360
666
  3
REFLECTIONTILE
360
665
  3
REFRACTIONTILE
360
668
  3
SPECULARTILE
360
664
  0
DICTIONARY
  5
171
330
170
100
AcDbDictionary
280
     1
281
     1
  3
ACAD_XREC_ROUNDTRIP
360
675
  3
BUMPTILE
360
173
  3
DIFFUSETILE
360
172
  3
OPACITYTILE
360
176
  3
REFLECTIONTILE
360
175
  3
REFRACTIONTILE
360
177
  3
SPECULARTILE
360
174
  0
DICTIONARY
  5
169
330
168
100
AcDbDictionary
280
     1
281
     1
  3
ACAD_XREC_ROUNDTRIP
360
674
  3
BUMPTILE
360
16B
  3
DIFFUSETILE
360
16A
  3
OPACITYTILE
360
16E
  3
REFLECTIONTILE
360
16D
  3
REFRACTIONTILE
360
16F
  3
SPECULARTILE
360
16C
  0
DICTIONARY
  5
179
330
178
100
AcDbDictionary
280
     1
281
     1
  3
ACAD_XREC_ROUNDTRIP
360
676
  3
BUMPTILE
360
17B
  3
DIFFUSETILE
360
17A
  3
OPACITYTILE
360
17E
  3
REFLECTIONTILE
360
17D
  3
REFRACTIONTILE
360
17F
  3
SPECULARTILE
360
17C
  0
DICTIONARY
  5
1E0
330
B7
100
AcDbDictionary
280
     1
281
     1
  3
ACAD_ROUNDTRIP_2008_TABLESTYLE_CELLSTYLEMAP
360
6C1
  3
ACAD_XREC_ROUNDTRIP
360
6CC
  0
DICTIONARY
  5
6D7
330
186
100
AcDbDictionary
280
     1
281
     1
  3
ACAD_XREC_ROUNDTRIP
360
6D8
  0
DICTIONARY
  5
6DB
330
188
100
AcDbDictionary
280
     1
281
     1
  3
ACAD_XREC_ROUNDTRIP
360
6DC
  0
DICTIONARY
  5
6D9
330
187
100
AcDbDictionary
280
     1
281
     1
  3
ACAD_XREC_ROUNDTRIP
360
6DA
  0
DICTIONARY
  5
6D5
330
185
100
AcDbDictionary
280
     1
281
     1
  3
ACAD_XREC_ROUNDTRIP
360
6D6
  0
DICTIONARY
  5
6E3
330
18C
100
AcDbDictionary
280
     1
281
     1
  3
ACAD_XREC_ROUNDTRIP
360
6E4
  0
DICTIONARY
  5
6EB
330
190
100
AcDbDictionary
280
     1
281
     1
  3
ACAD_XREC_ROUNDTRIP
360
6EC
  0
DICTIONARY
  5
6DD
330
189
100
AcDbDictionary
280
     1
281
     1
  3
ACAD_XREC_ROUNDTRIP
360
6DE
  0
DICTIONARY
  5
6E1
330
18B
100
AcDbDictionary
280
     1
281
     1
  3
ACAD_XREC_ROUNDTRIP
360
6E2
  0
DICTIONARY
  5
6FF
330
684
100
AcDbDictionary
280
     1
281
     1
  3
ACAD_XREC_ROUNDTRIP
360
700
  0
DICTIONARY
  5
6E9
330
18F
100
AcDbDictionary
280
     1
281
     1
  3
ACAD_XREC_ROUNDTRIP
360
6EA
  0
DICTIONARY
  5
6CD
330
181
100
AcDbDictionary
280
     1
281
     1
  3
ACAD_XREC_ROUNDTRIP
360
6CE
  0
DICTIONARY
  5
6CF
330
182
100
AcDbDictionary
280
     1
281
     1
  3
ACAD_XREC_ROUNDTRIP
360
6D0
  0
DICTIONARY
  5
6D1
330
183
100
AcDbDictionary
280
     1
281
     1
  3
ACAD_XREC_ROUNDTRIP
360
6D2
  0
DICTIONARY
  5
6D3
330
184
100
AcDbDictionary
280
     1
281
     1
  3
ACAD_XREC_ROUNDTRIP
360
6D4
  0
DICTIONARY
  5
6EF
330
67C
100
AcDbDictionary
280
     1
281
     1
  3
ACAD_XREC_ROUNDTRIP
360
6F0
  0
DICTIONARY
  5
6FB
330
682
100
AcDbDictionary
280
     1
281
     1
  3
ACAD_XREC_ROUNDTRIP
360
6FC
  0
DICTIONARY
  5
6E7
330
18E
100
AcDbDictionary
280
     1
281
     1
  3
ACAD_XREC_ROUNDTRIP
360
6E8
  0
DICTIONARY
  5
6FD
330
683
100
AcDbDictionary
280
     1
281
     1
  3
ACAD_XREC_ROUNDTRIP
360
6FE
  0
DICTIONARY
  5
6DF
330
18A
100
AcDbDictionary
280
     1
281
     1
  3
ACAD_XREC_ROUNDTRIP
360
6E0
  0
DICTIONARY
  5
6F9
330
681
100
AcDbDictionary
280
     1
281
     1
  3
ACAD_XREC_ROUNDTRIP
360
6FA
  0
DICTIONARY
  5
6F7
330
680
100
AcDbDictionary
280
     1
281
     1
  3
ACAD_XREC_ROUNDTRIP
360
6F8
  0
DICTIONARY
  5
6F1
330
67D
100
AcDbDictionary
280
     1
281
     1
  3
ACAD_XREC_ROUNDTRIP
360
6F2
  0
DICTIONARY
  5
6F3
330
67E
100
AcDbDictionary
280
     1
281
     1
  3
ACAD_XREC_ROUNDTRIP
360
6F4
  0
DICTIONARY
  5
6E5
330
18D
100
AcDbDictionary
280
     1
281
     1
  3
ACAD_XREC_ROUNDTRIP
360
6E6
  0
DICTIONARY
  5
6ED
330
67B
100
AcDbDictionary
280
     1
281
     1
  3
ACAD_XREC_ROUNDTRIP
360
6EE
  0
DICTIONARY
  5
6F5
330
67F
100
AcDbDictionary
280
     1
281
     1
  3
ACAD_XREC_ROUNDTRIP
360
6F6
  0
XRECORD
  5
6C7
102
{ACAD_REACTORS
330
6C6
102
}
330
6C6
100
AcDbXrecord
280
     1
102
SHADEPLOT
 70
     0
102
SHADEPLOTRESLEVEL
 70
     2
102
SHADEPLOTCUSTOMDPI
 70
   300
  0
XRECORD
  5
6CB
102
{ACAD_REACTORS
330
6CA
102
}
330
6CA
100
AcDbXrecord
280
     1
102
SHADEPLOT
 70
     0
102
SHADEPLOTRESLEVEL
 70
     2
102
SHADEPLOTCUSTOMDPI
 70
   300
  0
XRECORD
  5
6C9
102
{ACAD_REACTORS
330
6C8
102
}
330
6C8
100
AcDbXrecord
280
     1
102
SHADEPLOT
 70
     0
102
SHADEPLOTRESLEVEL
 70
     2
102
SHADEPLOTCUSTOMDPI
 70
   300
  0
XRECORD
  5
677
102
{ACAD_REACTORS
330
662
102
}
330
662
100
AcDbXrecord
280
     1
102
MATERIAL
148
0.0
149
0.0
149
0.0
 93
        0
 94
      127
282
     0
 72
     0
 77
     0
171
     0
175
     0
179
     0
273
     0
  0
XRECORD
  5
667
102
{ACAD_REACTORS
330
662
102
}
330
662
100
AcDbXrecord
280
     1
270
     1
271
     1
  0
XRECORD
  5
663
102
{ACAD_REACTORS
330
662
102
}
330
662
100
AcDbXrecord
280
     1
270
     1
271
     1
  0
XRECORD
  5
666
102
{ACAD_REACTORS
330
662
102
}
330
662
100
AcDbXrecord
280
     1
270
     1
271
     1
  0
XRECORD
  5
665
102
{ACAD_REACTORS
330
662
102
}
330
662
100
AcDbXrecord
280
     1
270
     1
271
     1
  0
XRECORD
  5
668
102
{ACAD_REACTORS
330
662
102
}
330
662
100
AcDbXrecord
280
     1
270
     1
271
     1
  0
XRECORD
  5
664
102
{ACAD_REACTORS
330
662
102
}
330
662
100
AcDbXrecord
280
     1
270
     1
271
     1
  0
XRECORD
  5
675
102
{ACAD_REACTORS
330
171
102
}
330
171
100
AcDbXrecord
280
     1
102
MATERIAL
148
0.0
149
0.0
149
0.0
 93
        0
 94
      127
282
     0
 72
     0
 77
     0
171
     0
175
     0
179
     0
273
     0
  0
XRECORD
  5
173
102
{ACAD_REACTORS
330
171
102
}
330
171
100
AcDbXrecord
280
     1
270
     1
271
     1
  0
XRECORD
  5
172
102
{ACAD_REACTORS
330
171
102
}
330
171
100
AcDbXrecord
280
     1
270
     1
271
     1
  0
XRECORD
  5
176
102
{ACAD_REACTORS
330
171
102
}
330
171
100
AcDbXrecord
280
     1
270
     1
271
     1
  0
XRECORD
  5
175
102
{ACAD_REACTORS
330
171
102
}
330
171
100
AcDbXrecord
280
     1
270
     1
271
     1
  0
XRECORD
  5
177
102
{ACAD_REACTORS
330
171
102
}
330
171
100
AcDbXrecord
280
     1
270
     1
271
     1
  0
XRECORD
  5
174
102
{ACAD_REACTORS
330
171
102
}
330
171
100
AcDbXrecord
280
     1
270
     1
271
     1
  0
XRECORD
  5
674
102
{ACAD_REACTORS
330
169
102
}
330
169
100
AcDbXrecord
280
     1
102
MATERIAL
148
0.0
149
0.0
149
0.0
 93
        0
 94
      127
282
     0
 72
     0
 77
     0
171
     0
175
     0
179
     0
273
     0
  0
XRECORD
  5
16B
102
{ACAD_REACTORS
330
169
102
}
330
169
100
AcDbXrecord
280
     1
270
     1
271
     1
  0
XRECORD
  5
16A
102
{ACAD_REACTORS
330
169
102
}
330
169
100
AcDbXrecord
280
     1
270
     1
271
     1
  0
XRECORD
  5
16E
102
{ACAD_REACTORS
330
169
102
}
330
169
100
AcDbXrecord
280
     1
270
     1
271
     1
  0
XRECORD
  5
16D
102
{ACAD_REACTORS
330
169
102
}
330
169
100
AcDbXrecord
280
     1
270
     1
271
     1
  0
XRECORD
  5
16F
102
{ACAD_REACTORS
330
169
102
}
330
169
100
AcDbXrecord
280
     1
270
     1
271
     1
  0
XRECORD
  5
16C
102
{ACAD_REACTORS
330
169
102
}
330
169
100
AcDbXrecord
280
     1
270
     1
271
     1
  0
XRECORD
  5
676
102
{ACAD_REACTORS
330
179
102
}
330
179
100
AcDbXrecord
280
     1
102
MATERIAL
148
0.0
149
0.0
149
0.0
 93
        0
 94
      127
282
     0
 72
     0
 77
     0
171
     0
175
     0
179
     0
273
     0
  0
XRECORD
  5
17B
102
{ACAD_REACTORS
330
179
102
}
330
179
100
AcDbXrecord
280
     1
270
     1
271
     1
  0
XRECORD
  5
17A
102
{ACAD_REACTORS
330
179
102
}
330
179
100
AcDbXrecord
280
     1
270
     1
271
     1
  0
XRECORD
  5
17E
102
{ACAD_REACTORS
330
179
102
}
330
179
100
AcDbXrecord
280
     1
270
     1
271
     1
  0
XRECORD
  5
17D
102
{ACAD_REACTORS
330
179
102
}
330
179
100
AcDbXrecord
280
     1
270
     1
271
     1
  0
XRECORD
  5
17F
102
{ACAD_REACTORS
330
179
102
}
330
179
100
AcDbXrecord
280
     1
270
     1
271
     1
  0
XRECORD
  5
17C
102
{ACAD_REACTORS
330
179
102
}
330
179
100
AcDbXrecord
280
     1
270
     1
271
     1
  0
CELLSTYLEMAP
  5
6C1
102
{ACAD_REACTORS
330
1E0
102
}
330
1E0
100
AcDbCellStyleMap
 90
        3
300
CELLSTYLE
  1
TABLEFORMAT_BEGIN
 90
        5
170
     1
 91
        0
 92
    32768
 62
   257
 93
        1
300
CONTENTFORMAT
  1
CONTENTFORMAT_BEGIN
 90
        0
 91
        0
 92
        4
 93
        0
300

 40
0.0
140
1.0
 94
        5
 62
     0
340
11
144
0.25
309
CONTENTFORMAT_END
171
     1
301
MARGIN
  1
CELLMARGIN_BEGIN
 40
0.06
 40
0.06
 40
0.06
 40
0.06
 40
0.18
 40
0.18
309
CELLMARGIN_END
 94
        6
 95
        1
302
GRIDFORMAT
  1
GRIDFORMAT_BEGIN
 90
        0
 91
        1
 62
     0
 92
       -2
340
0
 93
        0
 40
0.045
309
GRIDFORMAT_END
 95
        2
302
GRIDFORMAT
  1
GRIDFORMAT_BEGIN
 90
        0
 91
        1
 62
     0
 92
       -2
340
0
 93
        0
 40
0.045
309
GRIDFORMAT_END
 95
        4
302
GRIDFORMAT
  1
GRIDFORMAT_BEGIN
 90
        0
 91
        1
 62
     0
 92
       -2
340
0
 93
        0
 40
0.045
309
GRIDFORMAT_END
 95
        8
302
GRIDFORMAT
  1
GRIDFORMAT_BEGIN
 90
        0
 91
        1
 62
     0
 92
       -2
340
0
 93
        0
 40
0.045
309
GRIDFORMAT_END
 95
       16
302
GRIDFORMAT
  1
GRIDFORMAT_BEGIN
 90
        0
 91
        1
 62
     0
 92
       -2
340
0
 93
        0
 40
0.045
309
GRIDFORMAT_END
 95
       32
302
GRIDFORMAT
  1
GRIDFORMAT_BEGIN
 90
        0
 91
        1
 62
     0
 92
       -2
340
0
 93
        0
 40
0.045
309
GRIDFORMAT_END
309
TABLEFORMAT_END
  1
CELLSTYLE_BEGIN
 90
        1
 91
        1
300
_TITLE
309
CELLSTYLE_END
300
CELLSTYLE
  1
TABLEFORMAT_BEGIN
 90
        5
170
     1
 91
        0
 92
        0
 62
   257
 93
        1
300
CONTENTFORMAT
  1
CONTENTFORMAT_BEGIN
 90
        0
 91
        0
 92
        4
 93
        0
300

 40
0.0
140
1.0
 94
        5
 62
     0
340
11
144
0.18
309
CONTENTFORMAT_END
171
     1
301
MARGIN
  1
CELLMARGIN_BEGIN
 40
0.06
 40
0.06
 40
0.06
 40
0.06
 40
0.18
 40
0.18
309
CELLMARGIN_END
 94
        6
 95
        1
302
GRIDFORMAT
  1
GRIDFORMAT_BEGIN
 90
        0
 91
        1
 62
     0
 92
       -2
340
0
 93
        0
 40
0.045
309
GRIDFORMAT_END
 95
        2
302
GRIDFORMAT
  1
GRIDFORMAT_BEGIN
 90
        0
 91
        1
 62
     0
 92
       -2
340
0
 93
        0
 40
0.045
309
GRIDFORMAT_END
 95
        4
302
GRIDFORMAT
  1
GRIDFORMAT_BEGIN
 90
        0
 91
        1
 62
     0
 92
       -2
340
0
 93
        0
 40
0.045
309
GRIDFORMAT_END
 95
        8
302
GRIDFORMAT
  1
GRIDFORMAT_BEGIN
 90
        0
 91
        1
 62
     0
 92
       -2
340
0
 93
        0
 40
0.045
309
GRIDFORMAT_END
 95
       16
302
GRIDFORMAT
  1
GRIDFORMAT_BEGIN
 90
        0
 91
        1
 62
     0
 92
       -2
340
0
 93
        0
 40
0.045
309
GRIDFORMAT_END
 95
       32
302
GRIDFORMAT
  1
GRIDFORMAT_BEGIN
 90
        0
 91
        1
 62
     0
 92
       -2
340
0
 93
        0
 40
0.045
309
GRIDFORMAT_END
309
TABLEFORMAT_END
  1
CELLSTYLE_BEGIN
 90
        2
 91
        1
300
_HEADER
309
CELLSTYLE_END
300
CELLSTYLE
  1
TABLEFORMAT_BEGIN
 90
        5
170
     1
 91
        0
 92
        0
 62
   257
 93
        1
300
CONTENTFORMAT
  1
CONTENTFORMAT_BEGIN
 90
        0
 91
        0
 92
        4
 93
        0
300

 40
0.0
140
1.0
 94
        2
 62
     0
340
11
144
0.18
309
CONTENTFORMAT_END
171
     1
301
MARGIN
  1
CELLMARGIN_BEGIN
 40
0.06
 40
0.06
 40
0.06
 40
0.06
 40
0.18
 40
0.18
309
CELLMARGIN_END
 94
        6
 95
        1
302
GRIDFORMAT
  1
GRIDFORMAT_BEGIN
 90
        0
 91
        1
 62
     0
 92
       -2
340
0
 93
        0
 40
0.045
309
GRIDFORMAT_END
 95
        2
302
GRIDFORMAT
  1
GRIDFORMAT_BEGIN
 90
        0
 91
        1
 62
     0
 92
       -2
340
0
 93
        0
 40
0.045
309
GRIDFORMAT_END
 95
        4
302
GRIDFORMAT
  1
GRIDFORMAT_BEGIN
 90
        0
 91
        1
 62
     0
 92
       -2
340
0
 93
        0
 40
0.045
309
GRIDFORMAT_END
 95
        8
302
GRIDFORMAT
  1
GRIDFORMAT_BEGIN
 90
        0
 91
        1
 62
     0
 92
       -2
340
0
 93
        0
 40
0.045
309
GRIDFORMAT_END
 95
       16
302
GRIDFORMAT
  1
GRIDFORMAT_BEGIN
 90
        0
 91
        1
 62
     0
 92
       -2
340
0
 93
        0
 40
0.045
309
GRIDFORMAT_END
 95
       32
302
GRIDFORMAT
  1
GRIDFORMAT_BEGIN
 90
        0
 91
        1
 62
     0
 92
       -2
340
0
 93
        0
 40
0.045
309
GRIDFORMAT_END
309
TABLEFORMAT_END
  1
CELLSTYLE_BEGIN
 90
        3
 91
        2
300
_DATA
309
CELLSTYLE_END
  0
XRECORD
  5
6CC
102
{ACAD_REACTORS
330
1E0
102
}
330
1E0
100
AcDbXrecord
280
     1
102
ACAD_ROUNDTRIP_PRE2007_TABLESTYLE
 90
        4
 91
        0
  1

 92
        4
 93
        0
  2

 94
        4
 95
        0
  3

  0
XRECORD
  5
6D8
102
{ACAD_REACTORS
330
6D7
102
}
330
6D7
100
AcDbXrecord
280
     1
102
RTVSPropertyOp0
 70
     1
102
RTVSPropertyOp1
 70
     1
102
RTVSPropertyOp2
 70
     1
102
RTVSPropertyOp3
 70
     1
102
RTVSPropertyOp4
 70
     1
102
RTVSPropertyOp5
 70
     1
102
RTVSPropertyOp6
 70
     1
102
RTVSPropertyOp7
 70
     1
102
RTVSPropertyOp8
 70
     1
102
RTVSPropertyOp9
 70
     1
102
RTVSPropertyOp10
 70
     1
102
RTVSPropertyOp11
 70
     1
102
RTVSPropertyOp12
 70
     1
102
RTVSPropertyOp13
 70
     1
102
RTVSPropertyOp14
 70
     1
102
RTVSPropertyOp15
 70
     1
102
RTVSPropertyOp16
 70
     1
102
RTVSPropertyOp17
 70
     1
102
RTVSPropertyOp18
 70
     1
102
RTVSPropertyOp19
 70
     1
102
RTVSPropertyOp20
 70
     1
102
RTVSPropertyOp21
 70
     1
102
RTVSPropertyOp22
 70
     1
102
RTVSPropertyOp23
 70
     1
102
RTVSPropertyOp24
 70
     1
102
RTVSPropertyOp25
 70
     1
102
RTVSPropertyOp26
 70
     1
102
RTVSPropertyOp27
 70
     1
102
RTVSPropertyOp28
 70
     1
102
RTVSPropertyOp29
 70
     1
102
RTVSPropertyOp30
 70
     1
102
RTVSPropertyOp31
 70
     1
102
RTVSPropertyOp32
 70
     1
  0
XRECORD
  5
6DC
102
{ACAD_REACTORS
330
6DB
102
}
330
6DB
100
AcDbXrecord
280
     1
102
RTVSPropertyOp0
 70
     1
102
RTVSPropertyOp1
 70
     1
102
RTVSPropertyOp2
 70
     1
102
RTVSPropertyOp3
 70
     1
102
RTVSPropertyOp4
 70
     1
102
RTVSPropertyOp5
 70
     1
102
RTVSPropertyOp6
 70
     1
102
RTVSPropertyOp7
 70
     1
102
RTVSPropertyOp8
 70
     1
102
RTVSPropertyOp9
 70
     1
102
RTVSPropertyOp10
 70
     1
102
RTVSPropertyOp11
 70
     1
102
RTVSPropertyOp12
 70
     1
102
RTVSPropertyOp13
 70
     1
102
RTVSPropertyOp14
 70
     1
102
RTVSPropertyOp15
 70
     1
102
RTVSPropertyOp16
 70
     1
102
RTVSPropertyOp17
 70
     1
102
RTVSPropertyOp18
 70
     1
102
RTVSPropertyOp19
 70
     1
102
RTVSPropertyOp20
 70
     1
102
RTVSPropertyOp21
 70
     1
102
RTVSPropertyOp22
 70
     1
102
RTVSPropertyOp23
 70
     1
102
RTVSPropertyOp24
 70
     1
102
RTVSPropertyOp25
 70
     1
102
RTVSPropertyOp26
 70
     1
102
RTVSPropertyOp27
 70
     1
102
RTVSPropertyOp28
 70
     1
102
RTVSPropertyOp29
 70
     1
102
RTVSPropertyOp30
 70
     1
102
RTVSPropertyOp31
 70
     1
102
RTVSPropertyOp32
 70
     1
  0
XRECORD
  5
6DA
102
{ACAD_REACTORS
330
6D9
102
}
330
6D9
100
AcDbXrecord
280
     1
102
RTVSPropertyOp0
 70
     1
102
RTVSPropertyOp1
 70
     1
102
RTVSPropertyOp2
 70
     1
102
RTVSPropertyOp3
 70
     1
102
RTVSPropertyOp4
 70
     1
102
RTVSPropertyOp5
 70
     1
102
RTVSPropertyOp6
 70
     1
102
RTVSPropertyOp7
 70
     1
102
RTVSPropertyOp8
 70
     1
102
RTVSPropertyOp9
 70
     1
102
RTVSPropertyOp10
 70
     1
102
RTVSPropertyOp11
 70
     1
102
RTVSPropertyOp12
 70
     1
102
RTVSPropertyOp13
 70
     1
102
RTVSPropertyOp14
 70
     1
102
RTVSPropertyOp15
 70
     1
102
RTVSPropertyOp16
 70
     1
102
RTVSPropertyOp17
 70
     1
102
RTVSPropertyOp18
 70
     1
102
RTVSPropertyOp19
 70
     1
102
RTVSPropertyOp20
 70
     1
102
RTVSPropertyOp21
 70
     1
102
RTVSPropertyOp22
 70
     1
102
RTVSPropertyOp23
 70
     1
102
RTVSPropertyOp24
 70
     1
102
RTVSPropertyOp25
 70
     1
102
RTVSPropertyOp26
 70
     1
102
RTVSPropertyOp27
 70
     1
102
RTVSPropertyOp28
 70
     1
102
RTVSPropertyOp29
 70
     1
102
RTVSPropertyOp30
 70
     1
102
RTVSPropertyOp31
 70
     1
102
RTVSPropertyOp32
 70
     1
  0
XRECORD
  5
6D6
102
{ACAD_REACTORS
330
6D5
102
}
330
6D5
100
AcDbXrecord
280
     1
102
RTVSPropertyOp0
 70
     1
102
RTVSPropertyOp1
 70
     1
102
RTVSPropertyOp2
 70
     1
102
RTVSPropertyOp3
 70
     1
102
RTVSPropertyOp4
 70
     1
102
RTVSPropertyOp5
 70
     1
102
RTVSPropertyOp6
 70
     1
102
RTVSPropertyOp7
 70
     1
102
RTVSPropertyOp8
 70
     1
102
RTVSPropertyOp9
 70
     1
102
RTVSPropertyOp10
 70
     1
102
RTVSPropertyOp11
 70
     1
102
RTVSPropertyOp12
 70
     1
102
RTVSPropertyOp13
 70
     1
102
RTVSPropertyOp14
 70
     1
102
RTVSPropertyOp15
 70
     1
102
RTVSPropertyOp16
 70
     1
102
RTVSPropertyOp17
 70
     1
102
RTVSPropertyOp18
 70
     1
102
RTVSPropertyOp19
 70
     1
102
RTVSPropertyOp20
 70
     1
102
RTVSPropertyOp21
 70
     1
102
RTVSPropertyOp22
 70
     1
102
RTVSPropertyOp23
 70
     1
102
RTVSPropertyOp24
 70
     1
102
RTVSPropertyOp25
 70
     1
102
RTVSPropertyOp26
 70
     1
102
RTVSPropertyOp27
 70
     1
102
RTVSPropertyOp28
 70
     1
102
RTVSPropertyOp29
 70
     1
102
RTVSPropertyOp30
 70
     1
102
RTVSPropertyOp31
 70
     1
102
RTVSPropertyOp32
 70
     1
  0
XRECORD
  5
6E4
102
{ACAD_REACTORS
330
6E3
102
}
330
6E3
100
AcDbXrecord
280
     1
102
RTVSPropertyOp0
 70
     1
102
RTVSPropertyOp1
 70
     1
102
RTVSPropertyOp2
 70
     1
102
RTVSPropertyOp3
 70
     1
102
RTVSPropertyOp4
 70
     1
102
RTVSPropertyOp5
 70
     1
102
RTVSPropertyOp6
 70
     1
102
RTVSPropertyOp7
 70
     1
102
RTVSPropertyOp8
 70
     1
102
RTVSPropertyOp9
 70
     1
102
RTVSPropertyOp10
 70
     1
102
RTVSPropertyOp11
 70
     1
102
RTVSPropertyOp12
 70
     1
102
RTVSPropertyOp13
 70
     1
102
RTVSPropertyOp14
 70
     1
102
RTVSPropertyOp15
 70
     1
102
RTVSPropertyOp16
 70
     1
102
RTVSPropertyOp17
 70
     1
102
RTVSPropertyOp18
 70
     1
102
RTVSPropertyOp19
 70
     1
102
RTVSPropertyOp20
 70
     1
102
RTVSPropertyOp21
 70
     1
102
RTVSPropertyOp22
 70
     1
102
RTVSPropertyOp23
 70
     1
102
RTVSPropertyOp24
 70
     1
102
RTVSPropertyOp25
 70
     1
102
RTVSPropertyOp26
 70
     1
102
RTVSPropertyOp27
 70
     1
102
RTVSPropertyOp28
 70
     1
102
RTVSPropertyOp29
 70
     1
102
RTVSPropertyOp30
 70
     1
102
RTVSPropertyOp31
 70
     1
102
RTVSPropertyOp32
 70
     1
  0
XRECORD
  5
6EC
102
{ACAD_REACTORS
330
6EB
102
}
330
6EB
100
AcDbXrecord
280
     1
102
RTVSPropertyOp0
 70
     1
102
RTVSPropertyOp1
 70
     1
102
RTVSPropertyOp2
 70
     1
102
RTVSPropertyOp3
 70
     1
102
RTVSPropertyOp4
 70
     1
102
RTVSPropertyOp5
 70
     1
102
RTVSPropertyOp6
 70
     1
102
RTVSPropertyOp7
 70
     1
102
RTVSPropertyOp8
 70
     1
102
RTVSPropertyOp9
 70
     1
102
RTVSPropertyOp10
 70
     1
102
RTVSPropertyOp11
 70
     1
102
RTVSPropertyOp12
 70
     1
102
RTVSPropertyOp13
 70
     1
102
RTVSPropertyOp14
 70
     1
102
RTVSPropertyOp15
 70
     1
102
RTVSPropertyOp16
 70
     1
102
RTVSPropertyOp17
 70
     1
102
RTVSPropertyOp18
 70
     1
102
RTVSPropertyOp19
 70
     1
102
RTVSPropertyOp20
 70
     1
102
RTVSPropertyOp21
 70
     1
102
RTVSPropertyOp22
 70
     1
102
RTVSPropertyOp23
 70
     1
102
RTVSPropertyOp24
 70
     1
102
RTVSPropertyOp25
 70
     1
102
RTVSPropertyOp26
 70
     1
102
RTVSPropertyOp27
 70
     1
102
RTVSPropertyOp28
 70
     1
102
RTVSPropertyOp29
 70
     1
102
RTVSPropertyOp30
 70
     1
102
RTVSPropertyOp31
 70
     1
102
RTVSPropertyOp32
 70
     1
  0
XRECORD
  5
6DE
102
{ACAD_REACTORS
330
6DD
102
}
330
6DD
100
AcDbXrecord
280
     1
102
RTVSPropertyOp0
 70
     1
102
RTVSPropertyOp1
 70
     1
102
RTVSPropertyOp2
 70
     1
102
RTVSPropertyOp3
 70
     1
102
RTVSPropertyOp4
 70
     1
102
RTVSPropertyOp5
 70
     1
102
RTVSPropertyOp6
 70
     1
102
RTVSPropertyOp7
 70
     1
102
RTVSPropertyOp8
 70
     1
102
RTVSPropertyOp9
 70
     1
102
RTVSPropertyOp10
 70
     1
102
RTVSPropertyOp11
 70
     1
102
RTVSPropertyOp12
 70
     1
102
RTVSPropertyOp13
 70
     1
102
RTVSPropertyOp14
 70
     1
102
RTVSPropertyOp15
 70
     1
102
RTVSPropertyOp16
 70
     1
102
RTVSPropertyOp17
 70
     1
102
RTVSPropertyOp18
 70
     1
102
RTVSPropertyOp19
 70
     1
102
RTVSPropertyOp20
 70
     1
102
RTVSPropertyOp21
 70
     1
102
RTVSPropertyOp22
 70
     1
102
RTVSPropertyOp23
 70
     1
102
RTVSPropertyOp24
 70
     1
102
RTVSPropertyOp25
 70
     1
102
RTVSPropertyOp26
 70
     1
102
RTVSPropertyOp27
 70
     1
102
RTVSPropertyOp28
 70
     1
102
RTVSPropertyOp29
 70
     1
102
RTVSPropertyOp30
 70
     1
102
RTVSPropertyOp31
 70
     1
102
RTVSPropertyOp32
 70
     1
  0
XRECORD
  5
6E2
102
{ACAD_REACTORS
330
6E1
102
}
330
6E1
100
AcDbXrecord
280
     1
102
RTVSPropertyOp0
 70
     1
102
RTVSPropertyOp1
 70
     1
102
RTVSPropertyOp2
 70
     1
102
RTVSPropertyOp3
 70
     1
102
RTVSPropertyOp4
 70
     1
102
RTVSPropertyOp5
 70
     1
102
RTVSPropertyOp6
 70
     1
102
RTVSPropertyOp7
 70
     1
102
RTVSPropertyOp8
 70
     1
102
RTVSPropertyOp9
 70
     1
102
RTVSPropertyOp10
 70
     1
102
RTVSPropertyOp11
 70
     1
102
RTVSPropertyOp12
 70
     1
102
RTVSPropertyOp13
 70
     1
102
RTVSPropertyOp14
 70
     1
102
RTVSPropertyOp15
 70
     1
102
RTVSPropertyOp16
 70
     1
102
RTVSPropertyOp17
 70
     1
102
RTVSPropertyOp18
 70
     1
102
RTVSPropertyOp19
 70
     1
102
RTVSPropertyOp20
 70
     1
102
RTVSPropertyOp21
 70
     1
102
RTVSPropertyOp22
 70
     1
102
RTVSPropertyOp23
 70
     1
102
RTVSPropertyOp24
 70
     1
102
RTVSPropertyOp25
 70
     1
102
RTVSPropertyOp26
 70
     1
102
RTVSPropertyOp27
 70
     1
102
RTVSPropertyOp28
 70
     1
102
RTVSPropertyOp29
 70
     1
102
RTVSPropertyOp30
 70
     1
102
RTVSPropertyOp31
 70
     1
102
RTVSPropertyOp32
 70
     1
  0
XRECORD
  5
700
102
{ACAD_REACTORS
330
6FF
102
}
330
6FF
100
AcDbXrecord
280
     1
102
RTVSPropertyOp0
 70
     0
102
RTVSPropertyOp1
 70
     0
102
RTVSPropertyOp2
 70
     0
102
RTVSPropertyOp3
 70
     0
102
RTVSPropertyOp4
 70
     0
102
RTVSPropertyOp5
 70
     0
102
RTVSPropertyOp6
 70
     0
102
RTVSPropertyOp7
 70
     0
102
RTVSPropertyOp8
 70
     0
102
RTVSPropertyOp9
 70
     0
102
RTVSPropertyOp10
 70
     0
102
RTVSPropertyOp11
 70
     0
102
RTVSPropertyOp12
 70
     0
102
RTVSPropertyOp13
 70
     0
102
RTVSPropertyOp14
 70
     2
102
RTVSPropertyOp15
 70
     0
102
RTVSPropertyOp16
 70
     0
102
RTVSPropertyOp17
 70
     0
102
RTVSPropertyOp18
 70
     0
102
RTVSPropertyOp19
 70
     0
102
RTVSPropertyOp20
 70
     0
102
RTVSPropertyOp21
 70
     0
102
RTVSPropertyOp22
 70
     0
102
RTVSPropertyOp23
 70
     0
102
RTVSPropertyOp24
 70
     0
102
RTVSPropertyOp25
 70
     0
102
RTVSPropertyOp26
 70
     0
102
RTVSPropertyOp27
 70
     0
102
RTVSPropertyOp28
 70
     0
102
RTVSPropertyOp29
 70
     0
102
RTVSPropertyOp30
 70
     0
102
RTVSPropertyOp31
 70
     0
102
RTVSPropertyOp32
 70
     0
  0
XRECORD
  5
6EA
102
{ACAD_REACTORS
330
6E9
102
}
330
6E9
100
AcDbXrecord
280
     1
102
RTVSPropertyOp0
 70
     1
102
RTVSPropertyOp1
 70
     1
102
RTVSPropertyOp2
 70
     1
102
RTVSPropertyOp3
 70
     1
102
RTVSPropertyOp4
 70
     1
102
RTVSPropertyOp5
 70
     1
102
RTVSPropertyOp6
 70
     1
102
RTVSPropertyOp7
 70
     1
102
RTVSPropertyOp8
 70
     1
102
RTVSPropertyOp9
 70
     1
102
RTVSPropertyOp10
 70
     1
102
RTVSPropertyOp11
 70
     1
102
RTVSPropertyOp12
 70
     1
102
RTVSPropertyOp13
 70
     1
102
RTVSPropertyOp14
 70
     1
102
RTVSPropertyOp15
 70
     1
102
RTVSPropertyOp16
 70
     1
102
RTVSPropertyOp17
 70
     1
102
RTVSPropertyOp18
 70
     1
102
RTVSPropertyOp19
 70
     1
102
RTVSPropertyOp20
 70
     1
102
RTVSPropertyOp21
 70
     1
102
RTVSPropertyOp22
 70
     1
102
RTVSPropertyOp23
 70
     1
102
RTVSPropertyOp24
 70
     1
102
RTVSPropertyOp25
 70
     1
102
RTVSPropertyOp26
 70
     1
102
RTVSPropertyOp27
 70
     1
102
RTVSPropertyOp28
 70
     1
102
RTVSPropertyOp29
 70
     1
102
RTVSPropertyOp30
 70
     1
102
RTVSPropertyOp31
 70
     1
102
RTVSPropertyOp32
 70
     1
  0
XRECORD
  5
6CE
102
{ACAD_REACTORS
330
6CD
102
}
330
6CD
100
AcDbXrecord
280
     1
102
RTVSPropertyOp0
 70
     1
102
RTVSPropertyOp1
 70
     1
102
RTVSPropertyOp2
 70
     1
102
RTVSPropertyOp3
 70
     1
102
RTVSPropertyOp4
 70
     1
102
RTVSPropertyOp5
 70
     1
102
RTVSPropertyOp6
 70
     1
102
RTVSPropertyOp7
 70
     1
102
RTVSPropertyOp8
 70
     1
102
RTVSPropertyOp9
 70
     1
102
RTVSPropertyOp10
 70
     1
102
RTVSPropertyOp11
 70
     1
102
RTVSPropertyOp12
 70
     1
102
RTVSPropertyOp13
 70
     1
102
RTVSPropertyOp14
 70
     1
102
RTVSPropertyOp15
 70
     1
102
RTVSPropertyOp16
 70
     1
102
RTVSPropertyOp17
 70
     1
102
RTVSPropertyOp18
 70
     1
102
RTVSPropertyOp19
 70
     1
102
RTVSPropertyOp20
 70
     1
102
RTVSPropertyOp21
 70
     1
102
RTVSPropertyOp22
 70
     1
102
RTVSPropertyOp23
 70
     1
102
RTVSPropertyOp24
 70
     1
102
RTVSPropertyOp25
 70
     1
102
RTVSPropertyOp26
 70
     1
102
RTVSPropertyOp27
 70
     1
102
RTVSPropertyOp28
 70
     1
102
RTVSPropertyOp29
 70
     1
102
RTVSPropertyOp30
 70
     1
102
RTVSPropertyOp31
 70
     1
102
RTVSPropertyOp32
 70
     1
  0
XRECORD
  5
6D0
102
{ACAD_REACTORS
330
6CF
102
}
330
6CF
100
AcDbXrecord
280
     1
102
RTVSPropertyOp0
 70
     1
102
RTVSPropertyOp1
 70
     1
102
RTVSPropertyOp2
 70
     1
102
RTVSPropertyOp3
 70
     1
102
RTVSPropertyOp4
 70
     1
102
RTVSPropertyOp5
 70
     1
102
RTVSPropertyOp6
 70
     1
102
RTVSPropertyOp7
 70
     1
102
RTVSPropertyOp8
 70
     1
102
RTVSPropertyOp9
 70
     1
102
RTVSPropertyOp10
 70
     1
102
RTVSPropertyOp11
 70
     1
102
RTVSPropertyOp12
 70
     1
102
RTVSPropertyOp13
 70
     1
102
RTVSPropertyOp14
 70
     1
102
RTVSPropertyOp15
 70
     1
102
RTVSPropertyOp16
 70
     1
102
RTVSPropertyOp17
 70
     1
102
RTVSPropertyOp18
 70
     1
102
RTVSPropertyOp19
 70
     1
102
RTVSPropertyOp20
 70
     1
102
RTVSPropertyOp21
 70
     1
102
RTVSPropertyOp22
 70
     1
102
RTVSPropertyOp23
 70
     1
102
RTVSPropertyOp24
 70
     1
102
RTVSPropertyOp25
 70
     1
102
RTVSPropertyOp26
 70
     1
102
RTVSPropertyOp27
 70
     1
102
RTVSPropertyOp28
 70
     1
102
RTVSPropertyOp29
 70
     1
102
RTVSPropertyOp30
 70
     1
102
RTVSPropertyOp31
 70
     1
102
RTVSPropertyOp32
 70
     1
  0
XRECORD
  5
6D2
102
{ACAD_REACTORS
330
6D1
102
}
330
6D1
100
AcDbXrecord
280
     1
102
RTVSPropertyOp0
 70
     1
102
RTVSPropertyOp1
 70
     1
102
RTVSPropertyOp2
 70
     1
102
RTVSPropertyOp3
 70
     1
102
RTVSPropertyOp4
 70
     1
102
RTVSPropertyOp5
 70
     1
102
RTVSPropertyOp6
 70
     1
102
RTVSPropertyOp7
 70
     1
102
RTVSPropertyOp8
 70
     1
102
RTVSPropertyOp9
 70
     1
102
RTVSPropertyOp10
 70
     1
102
RTVSPropertyOp11
 70
     1
102
RTVSPropertyOp12
 70
     1
102
RTVSPropertyOp13
 70
     1
102
RTVSPropertyOp14
 70
     1
102
RTVSPropertyOp15
 70
     1
102
RTVSPropertyOp16
 70
     1
102
RTVSPropertyOp17
 70
     1
102
RTVSPropertyOp18
 70
     1
102
RTVSPropertyOp19
 70
     1
102
RTVSPropertyOp20
 70
     1
102
RTVSPropertyOp21
 70
     1
102
RTVSPropertyOp22
 70
     1
102
RTVSPropertyOp23
 70
     1
102
RTVSPropertyOp24
 70
     1
102
RTVSPropertyOp25
 70
     1
102
RTVSPropertyOp26
 70
     1
102
RTVSPropertyOp27
 70
     1
102
RTVSPropertyOp28
 70
     1
102
RTVSPropertyOp29
 70
     1
102
RTVSPropertyOp30
 70
     1
102
RTVSPropertyOp31
 70
     1
102
RTVSPropertyOp32
 70
     1
  0
XRECORD
  5
6D4
102
{ACAD_REACTORS
330
6D3
102
}
330
6D3
100
AcDbXrecord
280
     1
102
RTVSPropertyOp0
 70
     1
102
RTVSPropertyOp1
 70
     1
102
RTVSPropertyOp2
 70
     1
102
RTVSPropertyOp3
 70
     1
102
RTVSPropertyOp4
 70
     1
102
RTVSPropertyOp5
 70
     1
102
RTVSPropertyOp6
 70
     1
102
RTVSPropertyOp7
 70
     1
102
RTVSPropertyOp8
 70
     1
102
RTVSPropertyOp9
 70
     1
102
RTVSPropertyOp10
 70
     1
102
RTVSPropertyOp11
 70
     1
102
RTVSPropertyOp12
 70
     1
102
RTVSPropertyOp13
 70
     1
102
RTVSPropertyOp14
 70
     1
102
RTVSPropertyOp15
 70
     1
102
RTVSPropertyOp16
 70
     1
102
RTVSPropertyOp17
 70
     1
102
RTVSPropertyOp18
 70
     1
102
RTVSPropertyOp19
 70
     1
102
RTVSPropertyOp20
 70
     1
102
RTVSPropertyOp21
 70
     1
102
RTVSPropertyOp22
 70
     1
102
RTVSPropertyOp23
 70
     1
102
RTVSPropertyOp24
 70
     1
102
RTVSPropertyOp25
 70
     1
102
RTVSPropertyOp26
 70
     1
102
RTVSPropertyOp27
 70
     1
102
RTVSPropertyOp28
 70
     1
102
RTVSPropertyOp29
 70
     1
102
RTVSPropertyOp30
 70
     1
102
RTVSPropertyOp31
 70
     1
102
RTVSPropertyOp32
 70
     1
  0
XRECORD
  5
6F0
102
{ACAD_REACTORS
330
6EF
102
}
330
6EF
100
AcDbXrecord
280
     1
102
RTVSPropertyOp0
 70
     1
102
RTVSPropertyOp1
 70
     1
102
RTVSPropertyOp2
 70
     1
102
RTVSPropertyOp3
 70
     1
102
RTVSPropertyOp4
 70
     1
102
RTVSPropertyOp5
 70
     1
102
RTVSPropertyOp6
 70
     1
102
RTVSPropertyOp7
 70
     1
102
RTVSPropertyOp8
 70
     1
102
RTVSPropertyOp9
 70
     1
102
RTVSPropertyOp10
 70
     1
102
RTVSPropertyOp11
 70
     1
102
RTVSPropertyOp12
 70
     1
102
RTVSPropertyOp13
 70
     1
102
RTVSPropertyOp14
 70
     1
102
RTVSPropertyOp15
 70
     1
102
RTVSPropertyOp16
 70
     1
102
RTVSPropertyOp17
 70
     1
102
RTVSPropertyOp18
 70
     1
102
RTVSPropertyOp19
 70
     1
102
RTVSPropertyOp20
 70
     1
102
RTVSPropertyOp21
 70
     1
102
RTVSPropertyOp22
 70
     1
102
RTVSPropertyOp23
 70
     1
102
RTVSPropertyOp24
 70
     1
102
RTVSPropertyOp25
 70
     1
102
RTVSPropertyOp26
 70
     1
102
RTVSPropertyOp27
 70
     1
102
RTVSPropertyOp28
 70
     1
102
RTVSPropertyOp29
 70
     1
102
RTVSPropertyOp30
 70
     1
102
RTVSPropertyOp31
 70
     1
102
RTVSPropertyOp32
 70
     1
  0
XRECORD
  5
6FC
102
{ACAD_REACTORS
330
6FB
102
}
330
6FB
100
AcDbXrecord
280
     1
102
RTVSPropertyOp0
 70
     0
102
RTVSPropertyOp1
 70
     0
102
RTVSPropertyOp2
 70
     0
102
RTVSPropertyOp3
 70
     0
102
RTVSPropertyOp4
 70
     0
102
RTVSPropertyOp5
 70
     0
102
RTVSPropertyOp6
 70
     0
102
RTVSPropertyOp7
 70
     0
102
RTVSPropertyOp8
 70
     0
102
RTVSPropertyOp9
 70
     0
102
RTVSPropertyOp10
 70
     0
102
RTVSPropertyOp11
 70
     0
102
RTVSPropertyOp12
 70
     0
102
RTVSPropertyOp13
 70
     0
102
RTVSPropertyOp14
 70
     2
102
RTVSPropertyOp15
 70
     0
102
RTVSPropertyOp16
 70
     0
102
RTVSPropertyOp17
 70
     0
102
RTVSPropertyOp18
 70
     0
102
RTVSPropertyOp19
 70
     0
102
RTVSPropertyOp20
 70
     0
102
RTVSPropertyOp21
 70
     0
102
RTVSPropertyOp22
 70
     0
102
RTVSPropertyOp23
 70
     0
102
RTVSPropertyOp24
 70
     0
102
RTVSPropertyOp25
 70
     0
102
RTVSPropertyOp26
 70
     0
102
RTVSPropertyOp27
 70
     0
102
RTVSPropertyOp28
 70
     0
102
RTVSPropertyOp29
 70
     0
102
RTVSPropertyOp30
 70
     0
102
RTVSPropertyOp31
 70
     0
102
RTVSPropertyOp32
 70
     0
  0
XRECORD
  5
6E8
102
{ACAD_REACTORS
330
6E7
102
}
330
6E7
100
AcDbXrecord
280
     1
102
RTVSPropertyOp0
 70
     1
102
RTVSPropertyOp1
 70
     1
102
RTVSPropertyOp2
 70
     1
102
RTVSPropertyOp3
 70
     1
102
RTVSPropertyOp4
 70
     1
102
RTVSPropertyOp5
 70
     1
102
RTVSPropertyOp6
 70
     1
102
RTVSPropertyOp7
 70
     1
102
RTVSPropertyOp8
 70
     1
102
RTVSPropertyOp9
 70
     1
102
RTVSPropertyOp10
 70
     1
102
RTVSPropertyOp11
 70
     1
102
RTVSPropertyOp12
 70
     1
102
RTVSPropertyOp13
 70
     1
102
RTVSPropertyOp14
 70
     1
102
RTVSPropertyOp15
 70
     1
102
RTVSPropertyOp16
 70
     1
102
RTVSPropertyOp17
 70
     1
102
RTVSPropertyOp18
 70
     1
102
RTVSPropertyOp19
 70
     1
102
RTVSPropertyOp20
 70
     1
102
RTVSPropertyOp21
 70
     1
102
RTVSPropertyOp22
 70
     1
102
RTVSPropertyOp23
 70
     1
102
RTVSPropertyOp24
 70
     1
102
RTVSPropertyOp25
 70
     1
102
RTVSPropertyOp26
 70
     1
102
RTVSPropertyOp27
 70
     1
102
RTVSPropertyOp28
 70
     1
102
RTVSPropertyOp29
 70
     1
102
RTVSPropertyOp30
 70
     1
102
RTVSPropertyOp31
 70
     1
102
RTVSPropertyOp32
 70
     1
  0
XRECORD
  5
6FE
102
{ACAD_REACTORS
330
6FD
102
}
330
6FD
100
AcDbXrecord
280
     1
102
RTVSPropertyOp0
 70
     0
102
RTVSPropertyOp1
 70
     0
102
RTVSPropertyOp2
 70
     0
102
RTVSPropertyOp3
 70
     0
102
RTVSPropertyOp4
 70
     0
102
RTVSPropertyOp5
 70
     0
102
RTVSPropertyOp6
 70
     0
102
RTVSPropertyOp7
 70
     0
102
RTVSPropertyOp8
 70
     0
102
RTVSPropertyOp9
 70
     0
102
RTVSPropertyOp10
 70
     0
102
RTVSPropertyOp11
 70
     0
102
RTVSPropertyOp12
 70
     0
102
RTVSPropertyOp13
 70
     0
102
RTVSPropertyOp14
 70
     2
102
RTVSPropertyOp15
 70
     0
102
RTVSPropertyOp16
 70
     0
102
RTVSPropertyOp17
 70
     0
102
RTVSPropertyOp18
 70
     0
102
RTVSPropertyOp19
 70
     0
102
RTVSPropertyOp20
 70
     0
102
RTVSPropertyOp21
 70
     0
102
RTVSPropertyOp22
 70
     0
102
RTVSPropertyOp23
 70
     0
102
RTVSPropertyOp24
 70
     0
102
RTVSPropertyOp25
 70
     0
102
RTVSPropertyOp26
 70
     0
102
RTVSPropertyOp27
 70
     0
102
RTVSPropertyOp28
 70
     0
102
RTVSPropertyOp29
 70
     0
102
RTVSPropertyOp30
 70
     0
102
RTVSPropertyOp31
 70
     0
102
RTVSPropertyOp32
 70
     0
  0
XRECORD
  5
6E0
102
{ACAD_REACTORS
330
6DF
102
}
330
6DF
100
AcDbXrecord
280
     1
102
RTVSPropertyOp0
 70
     1
102
RTVSPropertyOp1
 70
     1
102
RTVSPropertyOp2
 70
     1
102
RTVSPropertyOp3
 70
     1
102
RTVSPropertyOp4
 70
     1
102
RTVSPropertyOp5
 70
     1
102
RTVSPropertyOp6
 70
     1
102
RTVSPropertyOp7
 70
     1
102
RTVSPropertyOp8
 70
     1
102
RTVSPropertyOp9
 70
     1
102
RTVSPropertyOp10
 70
     1
102
RTVSPropertyOp11
 70
     1
102
RTVSPropertyOp12
 70
     1
102
RTVSPropertyOp13
 70
     1
102
RTVSPropertyOp14
 70
     1
102
RTVSPropertyOp15
 70
     1
102
RTVSPropertyOp16
 70
     1
102
RTVSPropertyOp17
 70
     1
102
RTVSPropertyOp18
 70
     1
102
RTVSPropertyOp19
 70
     1
102
RTVSPropertyOp20
 70
     1
102
RTVSPropertyOp21
 70
     1
102
RTVSPropertyOp22
 70
     1
102
RTVSPropertyOp23
 70
     1
102
RTVSPropertyOp24
 70
     1
102
RTVSPropertyOp25
 70
     1
102
RTVSPropertyOp26
 70
     1
102
RTVSPropertyOp27
 70
     1
102
RTVSPropertyOp28
 70
     1
102
RTVSPropertyOp29
 70
     1
102
RTVSPropertyOp30
 70
     1
102
RTVSPropertyOp31
 70
     1
102
RTVSPropertyOp32
 70
     1
  0
XRECORD
  5
6FA
102
{ACAD_REACTORS
330
6F9
102
}
330
6F9
100
AcDbXrecord
280
     1
102
RTVSPropertyOp0
 70
     1
102
RTVSPropertyOp1
 70
     1
102
RTVSPropertyOp2
 70
     1
102
RTVSPropertyOp3
 70
     1
102
RTVSPropertyOp4
 70
     1
102
RTVSPropertyOp5
 70
     1
102
RTVSPropertyOp6
 70
     1
102
RTVSPropertyOp7
 70
     1
102
RTVSPropertyOp8
 70
     1
102
RTVSPropertyOp9
 70
     1
102
RTVSPropertyOp10
 70
     1
102
RTVSPropertyOp11
 70
     1
102
RTVSPropertyOp12
 70
     1
102
RTVSPropertyOp13
 70
     1
102
RTVSPropertyOp14
 70
     1
102
RTVSPropertyOp15
 70
     1
102
RTVSPropertyOp16
 70
     1
102
RTVSPropertyOp17
 70
     1
102
RTVSPropertyOp18
 70
     1
102
RTVSPropertyOp19
 70
     1
102
RTVSPropertyOp20
 70
     1
102
RTVSPropertyOp21
 70
     1
102
RTVSPropertyOp22
 70
     1
102
RTVSPropertyOp23
 70
     1
102
RTVSPropertyOp24
 70
     1
102
RTVSPropertyOp25
 70
     1
102
RTVSPropertyOp26
 70
     1
102
RTVSPropertyOp27
 70
     1
102
RTVSPropertyOp28
 70
     1
102
RTVSPropertyOp29
 70
     1
102
RTVSPropertyOp30
 70
     1
102
RTVSPropertyOp31
 70
     1
102
RTVSPropertyOp32
 70
     1
  0
XRECORD
  5
6F8
102
{ACAD_REACTORS
330
6F7
102
}
330
6F7
100
AcDbXrecord
280
     1
102
RTVSPropertyOp0
 70
     1
102
RTVSPropertyOp1
 70
     1
102
RTVSPropertyOp2
 70
     1
102
RTVSPropertyOp3
 70
     1
102
RTVSPropertyOp4
 70
     1
102
RTVSPropertyOp5
 70
     1
102
RTVSPropertyOp6
 70
     1
102
RTVSPropertyOp7
 70
     1
102
RTVSPropertyOp8
 70
     1
102
RTVSPropertyOp9
 70
     1
102
RTVSPropertyOp10
 70
     1
102
RTVSPropertyOp11
 70
     1
102
RTVSPropertyOp12
 70
     1
102
RTVSPropertyOp13
 70
     1
102
RTVSPropertyOp14
 70
     1
102
RTVSPropertyOp15
 70
     1
102
RTVSPropertyOp16
 70
     1
102
RTVSPropertyOp17
 70
     1
102
RTVSPropertyOp18
 70
     1
102
RTVSPropertyOp19
 70
     1
102
RTVSPropertyOp20
 70
     1
102
RTVSPropertyOp21
 70
     1
102
RTVSPropertyOp22
 70
     1
102
RTVSPropertyOp23
 70
     1
102
RTVSPropertyOp24
 70
     1
102
RTVSPropertyOp25
 70
     1
102
RTVSPropertyOp26
 70
     1
102
RTVSPropertyOp27
 70
     1
102
RTVSPropertyOp28
 70
     1
102
RTVSPropertyOp29
 70
     1
102
RTVSPropertyOp30
 70
     1
102
RTVSPropertyOp31
 70
     1
102
RTVSPropertyOp32
 70
     1
  0
XRECORD
  5
6F2
102
{ACAD_REACTORS
330
6F1
102
}
330
6F1
100
AcDbXrecord
280
     1
102
RTVSPropertyOp0
 70
     1
102
RTVSPropertyOp1
 70
     1
102
RTVSPropertyOp2
 70
     1
102
RTVSPropertyOp3
 70
     1
102
RTVSPropertyOp4
 70
     1
102
RTVSPropertyOp5
 70
     1
102
RTVSPropertyOp6
 70
     1
102
RTVSPropertyOp7
 70
     1
102
RTVSPropertyOp8
 70
     1
102
RTVSPropertyOp9
 70
     1
102
RTVSPropertyOp10
 70
     1
102
RTVSPropertyOp11
 70
     1
102
RTVSPropertyOp12
 70
     1
102
RTVSPropertyOp13
 70
     1
102
RTVSPropertyOp14
 70
     1
102
RTVSPropertyOp15
 70
     1
102
RTVSPropertyOp16
 70
     1
102
RTVSPropertyOp17
 70
     1
102
RTVSPropertyOp18
 70
     1
102
RTVSPropertyOp19
 70
     1
102
RTVSPropertyOp20
 70
     1
102
RTVSPropertyOp21
 70
     1
102
RTVSPropertyOp22
 70
     1
102
RTVSPropertyOp23
 70
     1
102
RTVSPropertyOp24
 70
     1
102
RTVSPropertyOp25
 70
     1
102
RTVSPropertyOp26
 70
     1
102
RTVSPropertyOp27
 70
     1
102
RTVSPropertyOp28
 70
     1
102
RTVSPropertyOp29
 70
     1
102
RTVSPropertyOp30
 70
     1
102
RTVSPropertyOp31
 70
     1
102
RTVSPropertyOp32
 70
     1
  0
XRECORD
  5
6F4
102
{ACAD_REACTORS
330
6F3
102
}
330
6F3
100
AcDbXrecord
280
     1
102
RTVSPropertyOp0
 70
     1
102
RTVSPropertyOp1
 70
     1
102
RTVSPropertyOp2
 70
     1
102
RTVSPropertyOp3
 70
     1
102
RTVSPropertyOp4
 70
     1
102
RTVSPropertyOp5
 70
     1
102
RTVSPropertyOp6
 70
     1
102
RTVSPropertyOp7
 70
     1
102
RTVSPropertyOp8
 70
     1
102
RTVSPropertyOp9
 70
     1
102
RTVSPropertyOp10
 70
     1
102
RTVSPropertyOp11
 70
     1
102
RTVSPropertyOp12
 70
     1
102
RTVSPropertyOp13
 70
     1
102
RTVSPropertyOp14
 70
     1
102
RTVSPropertyOp15
 70
     1
102
RTVSPropertyOp16
 70
     1
102
RTVSPropertyOp17
 70
     1
102
RTVSPropertyOp18
 70
     1
102
RTVSPropertyOp19
 70
     1
102
RTVSPropertyOp20
 70
     1
102
RTVSPropertyOp21
 70
     1
102
RTVSPropertyOp22
 70
     1
102
RTVSPropertyOp23
 70
     1
102
RTVSPropertyOp24
 70
     1
102
RTVSPropertyOp25
 70
     1
102
RTVSPropertyOp26
 70
     1
102
RTVSPropertyOp27
 70
     1
102
RTVSPropertyOp28
 70
     1
102
RTVSPropertyOp29
 70
     1
102
RTVSPropertyOp30
 70
     1
102
RTVSPropertyOp31
 70
     1
102
RTVSPropertyOp32
 70
     1
  0
XRECORD
  5
6E6
102
{ACAD_REACTORS
330
6E5
102
}
330
6E5
100
AcDbXrecord
280
     1
102
RTVSPropertyOp0
 70
     1
102
RTVSPropertyOp1
 70
     1
102
RTVSPropertyOp2
 70
     1
102
RTVSPropertyOp3
 70
     1
102
RTVSPropertyOp4
 70
     1
102
RTVSPropertyOp5
 70
     1
102
RTVSPropertyOp6
 70
     1
102
RTVSPropertyOp7
 70
     1
102
RTVSPropertyOp8
 70
     1
102
RTVSPropertyOp9
 70
     1
102
RTVSPropertyOp10
 70
     1
102
RTVSPropertyOp11
 70
     1
102
RTVSPropertyOp12
 70
     1
102
RTVSPropertyOp13
 70
     1
102
RTVSPropertyOp14
 70
     1
102
RTVSPropertyOp15
 70
     1
102
RTVSPropertyOp16
 70
     1
102
RTVSPropertyOp17
 70
     1
102
RTVSPropertyOp18
 70
     1
102
RTVSPropertyOp19
 70
     1
102
RTVSPropertyOp20
 70
     1
102
RTVSPropertyOp21
 70
     1
102
RTVSPropertyOp22
 70
     1
102
RTVSPropertyOp23
 70
     1
102
RTVSPropertyOp24
 70
     1
102
RTVSPropertyOp25
 70
     1
102
RTVSPropertyOp26
 70
     1
102
RTVSPropertyOp27
 70
     1
102
RTVSPropertyOp28
 70
     1
102
RTVSPropertyOp29
 70
     1
102
RTVSPropertyOp30
 70
     1
102
RTVSPropertyOp31
 70
     1
102
RTVSPropertyOp32
 70
     1
  0
XRECORD
  5
6EE
102
{ACAD_REACTORS
330
6ED
102
}
330
6ED
100
AcDbXrecord
280
     1
102
RTVSPropertyOp0
 70
     1
102
RTVSPropertyOp1
 70
     1
102
RTVSPropertyOp2
 70
     1
102
RTVSPropertyOp3
 70
     1
102
RTVSPropertyOp4
 70
     1
102
RTVSPropertyOp5
 70
     1
102
RTVSPropertyOp6
 70
     1
102
RTVSPropertyOp7
 70
     1
102
RTVSPropertyOp8
 70
     1
102
RTVSPropertyOp9
 70
     1
102
RTVSPropertyOp10
 70
     1
102
RTVSPropertyOp11
 70
     1
102
RTVSPropertyOp12
 70
     1
102
RTVSPropertyOp13
 70
     1
102
RTVSPropertyOp14
 70
     1
102
RTVSPropertyOp15
 70
     1
102
RTVSPropertyOp16
 70
     1
102
RTVSPropertyOp17
 70
     1
102
RTVSPropertyOp18
 70
     1
102
RTVSPropertyOp19
 70
     1
102
RTVSPropertyOp20
 70
     1
102
RTVSPropertyOp21
 70
     1
102
RTVSPropertyOp22
 70
     1
102
RTVSPropertyOp23
 70
     1
102
RTVSPropertyOp24
 70
     1
102
RTVSPropertyOp25
 70
     1
102
RTVSPropertyOp26
 70
     1
102
RTVSPropertyOp27
 70
     1
102
RTVSPropertyOp28
 70
     1
102
RTVSPropertyOp29
 70
     1
102
RTVSPropertyOp30
 70
     1
102
RTVSPropertyOp31
 70
     1
102
RTVSPropertyOp32
 70
     1
  0
XRECORD
  5
6F6
102
{ACAD_REACTORS
330
6F5
102
}
330
6F5
100
AcDbXrecord
280
     1
102
RTVSPropertyOp0
 70
     1
102
RTVSPropertyOp1
 70
     1
102
RTVSPropertyOp2
 70
     1
102
RTVSPropertyOp3
 70
     1
102
RTVSPropertyOp4
 70
     1
102
RTVSPropertyOp5
 70
     1
102
RTVSPropertyOp6
 70
     1
102
RTVSPropertyOp7
 70
     1
102
RTVSPropertyOp8
 70
     1
102
RTVSPropertyOp9
 70
     1
102
RTVSPropertyOp10
 70
     1
102
RTVSPropertyOp11
 70
     1
102
RTVSPropertyOp12
 70
     1
102
RTVSPropertyOp13
 70
     1
102
RTVSPropertyOp14
 70
     1
102
RTVSPropertyOp15
 70
     1
102
RTVSPropertyOp16
 70
     1
102
RTVSPropertyOp17
 70
     1
102
RTVSPropertyOp18
 70
     1
102
RTVSPropertyOp19
 70
     1
102
RTVSPropertyOp20
 70
     1
102
RTVSPropertyOp21
 70
     1
102
RTVSPropertyOp22
 70
     1
102
RTVSPropertyOp23
 70
     1
102
RTVSPropertyOp24
 70
     1
102
RTVSPropertyOp25
 70
     1
102
RTVSPropertyOp26
 70
     1
102
RTVSPropertyOp27
 70
     1
102
RTVSPropertyOp28
 70
     1
102
RTVSPropertyOp29
 70
     1
102
RTVSPropertyOp30
 70
     1
102
RTVSPropertyOp31
 70
     1
102
RTVSPropertyOp32
 70
     1
  0
ENDSEC
  0
EOF
