  0
SECTION
  2
HEADER
  9
$ACADVER
  1
AC1015
  9
$ACADMAINTVER
 70
    20
  9
$DWGCODEPAGE
  3
ANSI_1252
  9
$INSBASE
 10
0.0
 20
0.0
 30
0.0
  9
$EXTMIN
 10
-0.0000000787441703
 20
-6.255344867706297
 30
0.0000000301598668
  9
$EXTMAX
 10
13.88103580474853
 20
-2.755344629287719
 30
36.19001007080078
  9
$LIMMIN
 10
0.0
 20
0.0
  9
$LIMMAX
 10
12.0
 20
9.0
  9
$ORTHOMODE
 70
     0
  9
$REGENMODE
 70
     1
  9
$FILLMODE
 70
     1
  9
$QTEXTMODE
 70
     0
  9
$MIRRTEXT
 70
     1
  9
$LTSCALE
 40
1.0
  9
$ATTMODE
 70
     1
  9
$TEXTSIZE
 40
0.2
  9
$TRACEWID
 40
0.05
  9
$TEXTSTYLE
  7
Standard
  9
$CLAYER
  8
0
  9
$CELTYPE
  6
ByLayer
  9
$CECOLOR
 62
   256
  9
$CELTSCALE
 40
1.0
  9
$DISPSILH
 70
     0
  9
$DIMSCALE
 40
3.0
  9
$DIMASZ
 40
0.18
  9
$DIMEXO
 40
0.0625
  9
$DIMDLI
 40
0.38
  9
$DIMRND
 40
0.0
  9
$DIMDLE
 40
0.0
  9
$DIMEXE
 40
0.18
  9
$DIMTP
 40
0.0
  9
$DIMTM
 40
0.0
  9
$DIMTXT
 40
0.18
  9
$DIMCEN
 40
0.09
  9
$DIMTSZ
 40
0.0
  9
$DIMTOL
 70
     0
  9
$DIMLIM
 70
     0
  9
$DIMTIH
 70
     1
  9
$DIMTOH
 70
     1
  9
$DIMSE1
 70
     0
  9
$DIMSE2
 70
     0
  9
$DIMTAD
 70
     0
  9
$DIMZIN
 70
     0
  9
$DIMBLK
  1
ArchTick
  9
$DIMASO
 70
     1
  9
$DIMSHO
 70
     1
  9
$DIMPOST
  1
"
  9
$DIMAPOST
  1

  9
$DIMALT
 70
     0
  9
$DIMALTD
 70
     2
  9
$DIMALTF
 40
25.4
  9
$DIMLFAC
 40
1.0
  9
$DIMTOFL
 70
     0
  9
$DIMTVP
 40
0.0
  9
$DIMTIX
 70
     0
  9
$DIMSOXD
 70
     0
  9
$DIMSAH
 70
     0
  9
$DIMBLK1
  1

  9
$DIMBLK2
  1

  9
$DIMSTYLE
  2
Standard
  9
$DIMCLRD
 70
     0
  9
$DIMCLRE
 70
     0
  9
$DIMCLRT
 70
     0
  9
$DIMTFAC
 40
1.0
  9
$DIMGAP
 40
0.09
  9
$DIMJUST
 70
     0
  9
$DIMSD1
 70
     0
  9
$DIMSD2
 70
     0
  9
$DIMTOLJ
 70
     1
  9
$DIMTZIN
 70
     0
  9
$DIMALTZ
 70
     0
  9
$DIMALTTZ
 70
     0
  9
$DIMUPT
 70
     0
  9
$DIMDEC
 70
     4
  9
$DIMTDEC
 70
     4
  9
$DIMALTU
 70
     2
  9
$DIMALTTD
 70
     2
  9
$DIMTXSTY
  7
Standard
  9
$DIMAUNIT
 70
     0
  9
$DIMADEC
 70
     0
  9
$DIMALTRND
 40
0.0
  9
$DIMAZIN
 70
     0
  9
$DIMDSEP
 70
    46
  9
$DIMATFIT
 70
     3
  9
$DIMFRAC
 70
     0
  9
$DIMLDRBLK
  1

  9
$DIMLUNIT
 70
     5
  9
$DIMLWD
 70
    -2
  9
$DIMLWE
 70
    -2
  9
$DIMTMOVE
 70
     0
  9
$LUNITS
 70
     2
  9
$LUPREC
 70
     4
  9
$SKETCHINC
 40
0.1
  9
$FILLETRAD
 40
0.5
  9
$AUNITS
 70
     0
  9
$AUPREC
 70
     0
  9
$MENU
  1
.
  9
$ELEVATION
 40
0.0
  9
$PELEVATION
 40
0.0
  9
$THICKNESS
 40
0.0
  9
$LIMCHECK
 70
     0
  9
$CHAMFERA
 40
0.5
  9
$CHAMFERB
 40
0.5
  9
$CHAMFERC
 40
1.0
  9
$CHAMFERD
 40
0.0
  9
$SKPOLY
 70
     0
  9
$TDCREATE
 40
2452703.363634792
  9
$TDUCREATE
 40
2452703.571968125
  9
$TDUPDATE
 40
2454459.395393021
  9
$TDUUPDATE
 40
2454459.603726354
  9
$TDINDWG
 40
0.0216365278
  9
$TDUSRTIMER
 40
0.0216361806
  9
$USRTIMER
 70
     1
  9
$ANGBASE
 50
0.0
  9
$ANGDIR
 70
     0
  9
$PDMODE
 70
     0
  9
$PDSIZE
 40
0.0
  9
$PLINEWID
 40
0.0
  9
$SPLFRAME
 70
     0
  9
$SPLINETYPE
 70
     6
  9
$SPLINESEGS
 70
     8
  9
$HANDSEED
  5
C4C
  9
$SURFTAB1
 70
     6
  9
$SURFTAB2
 70
     6
  9
$SURFTYPE
 70
     6
  9
$SURFU
 70
     6
  9
$SURFV
 70
     6
  9
$UCSBASE
  2

  9
$UCSNAME
  2

  9
$UCSORG
 10
0.0
 20
0.0
 30
0.0
  9
$UCSXDIR
 10
1.0
 20
0.0
 30
0.0
  9
$UCSYDIR
 10
0.0
 20
0.0
 30
1.0
  9
$UCSORTHOREF
  2

  9
$UCSORTHOVIEW
 70
     0
  9
$UCSORGTOP
 10
0.0
 20
0.0
 30
0.0
  9
$UCSORGBOTTOM
 10
0.0
 20
0.0
 30
0.0
  9
$UCSORGLEFT
 10
0.0
 20
0.0
 30
0.0
  9
$UCSORGRIGHT
 10
0.0
 20
0.0
 30
0.0
  9
$UCSORGFRONT
 10
0.0
 20
0.0
 30
0.0
  9
$UCSORGBACK
 10
0.0
 20
0.0
 30
0.0
  9
$PUCSBASE
  2

  9
$PUCSNAME
  2

  9
$PUCSORG
 10
0.0
 20
0.0
 30
0.0
  9
$PUCSXDIR
 10
1.0
 20
0.0
 30
0.0
  9
$PUCSYDIR
 10
0.0
 20
1.0
 30
0.0
  9
$PUCSORTHOREF
  2

  9
$PUCSORTHOVIEW
 70
     0
  9
$PUCSORGTOP
 10
0.0
 20
0.0
 30
0.0
  9
$PUCSORGBOTTOM
 10
0.0
 20
0.0
 30
0.0
  9
$PUCSORGLEFT
 10
0.0
 20
0.0
 30
0.0
  9
$PUCSORGRIGHT
 10
0.0
 20
0.0
 30
0.0
  9
$PUCSORGFRONT
 10
0.0
 20
0.0
 30
0.0
  9
$PUCSORGBACK
 10
0.0
 20
0.0
 30
0.0
  9
$USERI1
 70
     0
  9
$USERI2
 70
     0
  9
$USERI3
 70
     0
  9
$USERI4
 70
     0
  9
$USERI5
 70
     0
  9
$USERR1
 40
0.0
  9
$USERR2
 40
0.0
  9
$USERR3
 40
0.0
  9
$USERR4
 40
0.0
  9
$USERR5
 40
0.0
  9
$WORLDVIEW
 70
     1
  9
$SHADEDGE
 70
     3
  9
$SHADEDIF
 70
    70
  9
$TILEMODE
 70
     1
  9
$MAXACTVP
 70
    64
  9
$PINSBASE
 10
0.0
 20
0.0
 30
0.0
  9
$PLIMCHECK
 70
     0
  9
$PEXTMIN
 10
1.000000000000000E+20
 20
1.000000000000000E+20
 30
1.000000000000000E+20
  9
$PEXTMAX
 10
-1.000000000000000E+20
 20
-1.000000000000000E+20
 30
-1.000000000000000E+20
  9
$PLIMMIN
 10
0.0
 20
0.0
  9
$PLIMMAX
 10
12.0
 20
9.0
  9
$UNITMODE
 70
     0
  9
$VISRETAIN
 70
     1
  9
$PLINEGEN
 70
     0
  9
$PSLTSCALE
 70
     1
  9
$TREEDEPTH
 70
  3020
  9
$CMLSTYLE
  2
Standard
  9
$CMLJUST
 70
     0
  9
$CMLSCALE
 40
1.0
  9
$PROXYGRAPHICS
 70
     1
  9
$MEASUREMENT
 70
     0
  9
$CELWEIGHT
370
    -1
  9
$ENDCAPS
280
     0
  9
$JOINSTYLE
280
     0
  9
$LWDISPLAY
290
     0
  9
$INSUNITS
 70
     1
  9
$HYPERLINKBASE
  1

  9
$STYLESHEET
  1

  9
$XEDIT
290
     1
  9
$CEPSNTYPE
380
     0
  9
$PSTYLEMODE
290
     1
  9
$FINGERPRINTGUID
  2
{FDEAD576-A652-11D2-9A35-0060089B3A3F}
  9
$VERSIONGUID
  2
{8A4FC7E2-B65F-47B0-97CF-42578DFFB84D}
  9
$EXTNAMES
290
     1
  9
$PSVPSCALE
 40
0.0
  9
$OLESTARTUP
290
     0
  0
ENDSEC
  0
SECTION
  2
CLASSES
  0
CLASS
  1
ACDBDICTIONARYWDFLT
  2
AcDbDictionaryWithDefault
  3
ObjectDBX Classes
 90
        0
280
     0
281
     0
  0
CLASS
  1
ACDBPLACEHOLDER
  2
AcDbPlaceHolder
  3
ObjectDBX Classes
 90
        0
280
     0
281
     0
  0
CLASS
  1
LAYOUT
  2
AcDbLayout
  3
ObjectDBX Classes
 90
        0
280
     0
281
     0
  0
CLASS
  1
DICTIONARYVAR
  2
AcDbDictionaryVar
  3
ObjectDBX Classes
 90
        0
280
     0
281
     0
  0
CLASS
  1
TABLESTYLE
  2
AcDbTableStyle
  3
ObjectDBX Classes
 90
     4095
280
     0
281
     0
  0
CLASS
  1
SORTENTSTABLE
  2
AcDbSortentsTable
  3
ObjectDBX Classes
 90
        0
280
     0
281
     0
  0
CLASS
  1
MATERIAL
  2
AcDbMaterial
  3
ObjectDBX Classes
 90
     1153
280
     0
281
     0
  0
CLASS
  1
VISUALSTYLE
  2
AcDbVisualStyle
  3
ObjectDBX Classes
 90
     4095
280
     0
281
     0
  0
CLASS
  1
SCALE
  2
AcDbScale
  3
ObjectDBX Classes
 90
     1153
280
     0
281
     0
  0
CLASS
  1
MLEADERSTYLE
  2
AcDbMLeaderStyle
  3
ACDB_MLEADERSTYLE_CLASS
 90
     4095
280
     0
281
     0
  0
CLASS
  1
CELLSTYLEMAP
  2
AcDbCellStyleMap
  3
ObjectDBX Classes
 90
     1152
280
     0
281
     0
  0
CLASS
  1
ACSH_EXTRUSION_CLASS
  2
AcDbShExtrusion
  3
ObjectDBX Classes
 90
    33921
280
     0
281
     0
  0
CLASS
  1
ACAD_EVALUATION_GRAPH
  2
AcDbEvalGraph
  3
ObjectDBX Classes
 90
    33921
280
     0
281
     0
  0
CLASS
  1
ACSH_HISTORY_CLASS
  2
AcDbShHistory
  3
ObjectDBX Classes
 90
    33921
280
     0
281
     0
  0
CLASS
  1
ACDBPERSSUBENTMANAGER
  2
AcDbPersSubentManager
  3
AcDbPersSubentManager
 90
     1024
280
     0
281
     0
  0
CLASS
  1
ACSH_BOOLEAN_CLASS
  2
AcDbShBoolean
  3
ObjectDBX Classes
 90
    33921
280
     0
281
     0
  0
ENDSEC
  0
SECTION
  2
TABLES
  0
TABLE
  2
VPORT
  5
8
330
0
100
AcDbSymbolTable
 70
     1
  0
VPORT
  5
203
330
8
100
AcDbSymbolTableRecord
100
AcDbViewportTableRecord
  2
*Active
 70
     0
 10
0.0
 20
0.0
 11
1.0
 21
1.0
 12
16.86469173641218
 22
18.94001015763071
 13
0.0
 23
0.0
 14
0.5
 24
0.5
 15
0.5
 25
0.5
 16
0.0
 26
-1.0
 36
0.0
 17
0.0
 27
0.0
 37
0.0
 40
34.77236842105263
 41
1.952107279693486
 42
50.0
 43
0.0
 44
0.0
 50
0.0
 51
0.0
 71
     0
 72
   100
 73
     1
 74
     3
 75
     0
 76
     0
 77
     0
 78
     0
281
     0
 65
     1
110
0.0
120
0.0
130
0.0
111
1.0
121
0.0
131
0.0
112
0.0
122
0.0
132
1.0
 79
     0
146
0.0
  0
ENDTAB
  0
TABLE
  2
LTYPE
  5
5
330
0
100
AcDbSymbolTable
 70
     1
  0
LTYPE
  5
14
330
5
100
AcDbSymbolTableRecord
100
AcDbLinetypeTableRecord
  2
ByBlock
 70
     0
  3

 72
    65
 73
     0
 40
0.0
  0
LTYPE
  5
15
330
5
100
AcDbSymbolTableRecord
100
AcDbLinetypeTableRecord
  2
ByLayer
 70
     0
  3

 72
    65
 73
     0
 40
0.0
  0
LTYPE
  5
16
330
5
100
AcDbSymbolTableRecord
100
AcDbLinetypeTableRecord
  2
Continuous
 70
     0
  3
Solid line
 72
    65
 73
     0
 40
0.0
  0
ENDTAB
  0
TABLE
  2
LAYER
  5
2
330
0
100
AcDbSymbolTable
 70
     3
  0
LAYER
  5
10
102
{ACAD_XDICTIONARY
360
276
102
}
330
2
100
AcDbSymbolTableRecord
100
AcDbLayerTableRecord
  2
0
 70
     0
 62
     7
  6
Continuous
370
    -3
390
F
  0
LAYER
  5
AB
102
{ACAD_XDICTIONARY
360
278
102
}
330
2
100
AcDbSymbolTableRecord
100
AcDbLayerTableRecord
  2
Layer1
 70
     0
 62
     1
  6
Continuous
290
     0
370
    -3
390
F
  0
LAYER
  5
2AE
330
2
100
AcDbSymbolTableRecord
100
AcDbLayerTableRecord
  2
ASHADE
 70
     4
 62
     7
  6
Continuous
370
    -3
390
F
  0
ENDTAB
  0
TABLE
  2
STYLE
  5
3
330
0
100
AcDbSymbolTable
 70
     2
  0
STYLE
  5
11
330
3
100
AcDbSymbolTableRecord
100
AcDbTextStyleTableRecord
  2
Standard
 70
     0
 40
0.0
 41
1.0
 50
0.0
 71
     0
 42
0.2
  3
txt
  4

  0
STYLE
  5
2A8
330
3
100
AcDbSymbolTableRecord
100
AcDbTextStyleTableRecord
  2
ASHADE
 70
     0
 40
0.2
 41
1.0
 50
0.0
 71
     0
 42
0.2
  3
simplex
  4

  0
ENDTAB
  0
TABLE
  2
VIEW
  5
6
330
0
100
AcDbSymbolTable
 70
     0
  0
ENDTAB
  0
TABLE
  2
UCS
  5
7
330
0
100
AcDbSymbolTable
 70
     0
  0
ENDTAB
  0
TABLE
  2
APPID
  5
9
330
0
100
AcDbSymbolTable
 70
     7
  0
APPID
  5
12
330
9
100
AcDbSymbolTableRecord
100
AcDbRegAppTableRecord
  2
ACAD
 70
     0
  0
APPID
  5
25D
330
9
100
AcDbSymbolTableRecord
100
AcDbRegAppTableRecord
  2
ACAD_MLEADERVER
 70
     0
  0
APPID
  5
2A9
330
9
100
AcDbSymbolTableRecord
100
AcDbRegAppTableRecord
  2
AVE_RENDER
 70
     0
  0
APPID
  5
2AA
330
9
100
AcDbSymbolTableRecord
100
AcDbRegAppTableRecord
  2
AVE_ENTITY_MATERIAL
 70
     0
  0
APPID
  5
2AB
330
9
100
AcDbSymbolTableRecord
100
AcDbRegAppTableRecord
  2
AVE_FINISH
 70
     0
  0
APPID
  5
2AC
330
9
100
AcDbSymbolTableRecord
100
AcDbRegAppTableRecord
  2
AVE_MATERIAL
 70
     0
  0
APPID
  5
2AD
330
9
100
AcDbSymbolTableRecord
100
AcDbRegAppTableRecord
  2
AVE_GLOBAL
 70
     0
  0
ENDTAB
  0
TABLE
  2
DIMSTYLE
  5
A
330
0
100
AcDbSymbolTable
 70
     1
100
AcDbDimStyleTable
 71
     0
  0
DIMSTYLE
105
27
330
A
100
AcDbSymbolTableRecord
100
AcDbDimStyleTableRecord
  2
Standard
 70
     0
  3
"
 40
3.0
277
     5
340
11
342
4F
  0
ENDTAB
  0
TABLE
  2
BLOCK_RECORD
  5
1
330
0
100
AcDbSymbolTable
 70
     6
  0
BLOCK_RECORD
  5
1F
102
{ACAD_XDICTIONARY
360
108
102
}
330
1
100
AcDbSymbolTableRecord
100
AcDbBlockTableRecord
  2
*Model_Space
340
22
  0
BLOCK_RECORD
  5
1B
330
1
100
AcDbSymbolTableRecord
100
AcDbBlockTableRecord
  2
*Paper_Space
340
1E
  0
BLOCK_RECORD
  5
23
330
1
100
AcDbSymbolTableRecord
100
AcDbBlockTableRecord
  2
*Paper_Space0
340
26
  0
BLOCK_RECORD
  5
4F
330
1
100
AcDbSymbolTableRecord
100
AcDbBlockTableRecord
  2
_ArchTick
340
0
  0
BLOCK_RECORD
  5
2AF
330
1
100
AcDbSymbolTableRecord
100
AcDbBlockTableRecord
  2
AVE_GLOBAL
340
0
102
{BLKREFS
331
2B2
102
}
  0
BLOCK_RECORD
  5
2B8
330
1
100
AcDbSymbolTableRecord
100
AcDbBlockTableRecord
  2
AVE_RENDER
340
0
102
{BLKREFS
331
2BB
331
2BC
331
2BD
331
2BE
331
2BF
331
2C0
331
2C1
331
2C2
102
}
  0
BLOCK_RECORD
  5
5C6
330
1
100
AcDbSymbolTableRecord
100
AcDbBlockTableRecord
  2
RM_SDB
340
0
102
{BLKREFS
331
90E
331
C2A
102
}
  0
ENDTAB
  0
ENDSEC
  0
SECTION
  2
BLOCKS
  0
BLOCK
  5
20
330
1F
100
AcDbEntity
  8
0
100
AcDbBlockBegin
  2
*Model_Space
 70
     0
 10
0.0
 20
0.0
 30
0.0
  3
*Model_Space
  1

  0
ENDBLK
  5
21
330
1F
100
AcDbEntity
  8
0
100
AcDbBlockEnd
  0
BLOCK
  5
1C
330
1B
100
AcDbEntity
 67
     1
  8
0
100
AcDbBlockBegin
  2
*Paper_Space
 70
     0
 10
0.0
 20
0.0
 30
0.0
  3
*Paper_Space
  1

  0
ENDBLK
  5
1D
330
1B
100
AcDbEntity
 67
     1
  8
0
100
AcDbBlockEnd
  0
BLOCK
  5
24
330
23
100
AcDbEntity
 67
     1
  8
0
100
AcDbBlockBegin
  2
*Paper_Space0
 70
     0
 10
0.0
 20
0.0
 30
0.0
  3
*Paper_Space0
  1

  0
ENDBLK
  5
25
330
23
100
AcDbEntity
 67
     1
  8
0
100
AcDbBlockEnd
  0
BLOCK
  5
51
330
4F
100
AcDbEntity
  8
0
100
AcDbBlockBegin
  2
_ArchTick
 70
     0
 10
0.0
 20
0.0
 30
0.0
  3
_ArchTick
  1

  0
LWPOLYLINE
  5
50
330
4F
100
AcDbEntity
  8
0
 62
     0
100
AcDbPolyline
 90
        2
 70
     0
 43
0.15
 10
-0.5
 20
-0.5
 10
0.5
 20
0.5
  0
ENDBLK
  5
52
330
4F
100
AcDbEntity
  8
0
100
AcDbBlockEnd
  0
BLOCK
  5
2B0
330
2AF
100
AcDbEntity
  8
ASHADE
100
AcDbBlockBegin
  2
AVE_GLOBAL
 70
     0
 10
0.0
 20
0.0
 30
0.0
  3
AVE_GLOBAL
  1
AVE_GLOBAL
  0
ENDBLK
  5
2B1
330
2AF
100
AcDbEntity
  8
0
100
AcDbBlockEnd
  0
BLOCK
  5
2B9
330
2B8
100
AcDbEntity
  8
ASHADE
100
AcDbBlockBegin
  2
AVE_RENDER
 70
     0
 10
0.0
 20
0.0
 30
0.0
  3
AVE_RENDER
  1
AVE_RENDER
  0
ENDBLK
  5
2BA
330
2B8
100
AcDbEntity
  8
0
100
AcDbBlockEnd
  0
BLOCK
  5
5C7
330
5C6
100
AcDbEntity
  8
ASHADE
100
AcDbBlockBegin
  2
RM_SDB
 70
     2
 10
0.0
 20
0.0
 30
0.0
  3
RM_SDB
  1
RM_SDB
  0
ATTDEF
  5
5C8
330
5C6
100
AcDbEntity
  8
0
100
AcDbText
 10
0.0
 20
0.0
 30
0.0
 40
0.2
  1

100
AcDbAttributeDefinition
  3

  2
NAME
 70
     1
  0
ATTDEF
  5
5C9
330
5C6
100
AcDbEntity
  8
0
100
AcDbText
 10
0.0
 20
0.0
 30
0.0
 40
0.2
  1

100
AcDbAttributeDefinition
  3

  2
ACADCOLOR
 70
     1
  0
ATTDEF
  5
5CA
330
5C6
100
AcDbEntity
  8
0
100
AcDbText
 10
0.0
 20
0.0
 30
0.0
 40
0.2
  1

100
AcDbAttributeDefinition
  3

  2
COLOR
 70
     1
  0
ATTDEF
  5
5CB
330
5C6
100
AcDbEntity
  8
0
100
AcDbText
 10
0.0
 20
0.0
 30
0.0
 40
0.2
  1

100
AcDbAttributeDefinition
  3

  2
OPACITY
 70
     1
  0
ATTDEF
  5
5CC
330
5C6
100
AcDbEntity
  8
0
100
AcDbText
 10
0.0
 20
0.0
 30
0.0
 40
0.2
  1

100
AcDbAttributeDefinition
  3

  2
SURFACE
 70
     1
  0
ATTDEF
  5
5CD
330
5C6
100
AcDbEntity
  8
0
100
AcDbText
 10
0.0
 20
0.0
 30
0.0
 40
0.2
  1

100
AcDbAttributeDefinition
  3

  2
SURF1
 70
     1
  0
ATTDEF
  5
5CE
330
5C6
100
AcDbEntity
  8
0
100
AcDbText
 10
0.0
 20
0.0
 30
0.0
 40
0.2
  1

100
AcDbAttributeDefinition
  3

  2
SURF2
 70
     1
  0
ATTDEF
  5
5CF
330
5C6
100
AcDbEntity
  8
0
100
AcDbText
 10
0.0
 20
0.0
 30
0.0
 40
0.2
  1

100
AcDbAttributeDefinition
  3

  2
SURF3
 70
     1
  0
ATTDEF
  5
5D0
330
5C6
100
AcDbEntity
  8
0
100
AcDbText
 10
0.0
 20
0.0
 30
0.0
 40
0.2
  1

100
AcDbAttributeDefinition
  3

  2
SURF4
 70
     1
  0
ATTDEF
  5
5D1
330
5C6
100
AcDbEntity
  8
0
100
AcDbText
 10
0.0
 20
0.0
 30
0.0
 40
0.2
  1

100
AcDbAttributeDefinition
  3

  2
SHADINGRATE
 70
     1
  0
ATTDEF
  5
5D2
330
5C6
100
AcDbEntity
  8
0
100
AcDbText
 10
0.0
 20
0.0
 30
0.0
 40
0.2
  1

100
AcDbAttributeDefinition
  3

  2
DISPLACEMENT
 70
     1
  0
ATTDEF
  5
5D3
330
5C6
100
AcDbEntity
  8
0
100
AcDbText
 10
0.0
 20
0.0
 30
0.0
 40
0.2
  1

100
AcDbAttributeDefinition
  3

  2
DISP1
 70
     1
  0
ATTDEF
  5
5D4
330
5C6
100
AcDbEntity
  8
0
100
AcDbText
 10
0.0
 20
0.0
 30
0.0
 40
0.2
  1

100
AcDbAttributeDefinition
  3

  2
DISP2
 70
     1
  0
ATTDEF
  5
5D5
330
5C6
100
AcDbEntity
  8
0
100
AcDbText
 10
0.0
 20
0.0
 30
0.0
 40
0.2
  1

100
AcDbAttributeDefinition
  3

  2
DISP3
 70
     1
  0
ATTDEF
  5
5D6
330
5C6
100
AcDbEntity
  8
0
100
AcDbText
 10
0.0
 20
0.0
 30
0.0
 40
0.2
  1

100
AcDbAttributeDefinition
  3

  2
DISP4
 70
     1
  0
ATTDEF
  5
5D7
330
5C6
100
AcDbEntity
  8
0
100
AcDbText
 10
0.0
 20
0.0
 30
0.0
 40
0.2
  1

100
AcDbAttributeDefinition
  3

  2
DBOUND
 70
     1
  0
ATTDEF
  5
5D8
330
5C6
100
AcDbEntity
  8
0
100
AcDbText
 10
0.0
 20
0.0
 30
0.0
 40
0.2
  1

100
AcDbAttributeDefinition
  3

  2
SMOOTH
 70
     1
  0
ATTDEF
  5
5D9
330
5C6
100
AcDbEntity
  8
0
100
AcDbText
 10
0.0
 20
0.0
 30
0.0
 40
0.2
  1

100
AcDbAttributeDefinition
  3

  2
ATMOSHPERE
 70
     1
  0
ATTDEF
  5
5DA
330
5C6
100
AcDbEntity
  8
0
100
AcDbText
 10
0.0
 20
0.0
 30
0.0
 40
0.2
  1

100
AcDbAttributeDefinition
  3

  2
ATMO1
 70
     1
  0
ATTDEF
  5
5DB
330
5C6
100
AcDbEntity
  8
0
100
AcDbText
 10
0.0
 20
0.0
 30
0.0
 40
0.2
  1

100
AcDbAttributeDefinition
  3

  2
ATMO2
 70
     1
  0
ATTDEF
  5
5DC
330
5C6
100
AcDbEntity
  8
0
100
AcDbText
 10
0.0
 20
0.0
 30
0.0
 40
0.2
  1

100
AcDbAttributeDefinition
  3

  2
ATMO3
 70
     1
  0
ATTDEF
  5
5DD
330
5C6
100
AcDbEntity
  8
0
100
AcDbText
 10
0.0
 20
0.0
 30
0.0
 40
0.2
  1

100
AcDbAttributeDefinition
  3

  2
ATMO4
 70
     1
  0
ATTDEF
  5
5DE
330
5C6
100
AcDbEntity
  8
0
100
AcDbText
 10
0.0
 20
0.0
 30
0.0
 40
0.2
  1

100
AcDbAttributeDefinition
  3

  2
TCCORD
 70
     1
  0
ENDBLK
  5
5DF
330
5C6
100
AcDbEntity
  8
0
100
AcDbBlockEnd
  0
ENDSEC
  0
SECTION
  2
ENTITIES
  0
INSERT
  5
2B2
330
1F
100
AcDbEntity
  8
ASHADE
 62
     1
100
AcDbBlockReference
  2
AVE_GLOBAL
 10
0.0
 20
0.0
 30
0.0
1001
AVE_MATERIAL
1002
{
1000
*GLOBAL*
1000
2
1000
Global finish.
1002
{
1002
}
1002
{
1070
    63
1002
{
1002
{
1010
-1.0
1020
-1.0
1030
-1.0
1002
}
1040
0.6999999880790711
1000

1040
0.0
1002
{
1002
}
1040
0.0
1002
{
1002
}
1040
0.0
1002
}
1002
{
1002
{
1010
-1.0
1020
-1.0
1030
-1.0
1002
}
1040
1.0
1000

1040
0.0
1002
{
1002
}
1040
0.0
1002
{
1002
}
1040
0.0
1002
}
1002
{
1002
{
1010
-1.0
1020
-1.0
1030
-1.0
1002
}
1040
0.2000000029802322
1000

1040
0.0
1002
{
1002
}
1040
0.0
1002
{
1002
}
1040
0.0
1002
}
1002
{
1070
     0
1002
{
1070
     1
1002
{
1040
1.0
1040
1.0
1000

1040
0.0
1002
{
1002
}
1040
0.0
1002
{
1002
}
1040
0.0
1002
}
1002
}
1040
1.0
1040
0.0
1040
0.0
1002
}
1002
{
1040
1.0
1040
1.0
1000

1040
0.0
1002
{
1002
}
1040
0.0
1002
{
1002
}
1040
0.0
1002
}
1002
{
1040
0.5
1040
1.0
1000

1040
0.0
1002
{
1002
}
1040
0.0
1002
{
1002
}
1040
0.0
1002
}
1002
{
1070
     0
1040
0.0
1002
{
1002
}
1040
1.0
1002
{
1002
}
1040
0.0
1002
}
1002
{
1040
0.0
1002
{
1002
{
1010
0.0
1020
0.0
1030
0.0
1002
}
1040
1.0
1000

1040
0.0
1002
{
1002
}
1040
0.0
1002
{
1002
}
1040
0.0
1002
}
1002
}
1002
{
1002
{
1070
     1
1002
{
1040
0.0
1040
1.0
1000

1040
0.0
1002
{
1002
}
1040
0.0
1002
{
1002
}
1040
0.0
1002
}
1002
}
1040
0.0
1002
{
1002
}
1010
1.0
1020
0.0
1030
0.0
1010
0.0
1020
1.0
1030
0.0
1010
0.0
1020
0.0
1030
1.0
1070
     0
1002
}
1002
{
1002
{
1040
1.0
1040
1.0
1002
{
1070
     1
1002
{
1040
1.0
1040
1.0
1000

1040
0.0
1002
{
1002
}
1040
0.0
1002
{
1002
}
1040
0.0
1002
}
1002
}
1002
}
1070
     0
1040
0.0
1002
{
1002
}
1002
}
1002
{
1002
}
1002
}
1002
{
1071
        3
1070
     3
1070
     0
1002
{
1070
     2
1070
     0
1070
     0
1040
0.0
1002
}
1070
     0
1070
     2
1002
{
1002
}
1002
}
1002
{
1040
8030.0
1040
190.3000030517578
1040
0.3050000071525574
1040
228.0
1040
545.0
1040
14.0
1040
17.39999961853027
1040
0.4560000002384186
1002
}
1000

1002
}
  0
INSERT
  5
2BB
330
1F
100
AcDbEntity
  8
ASHADE
 62
     1
100
AcDbBlockReference
  2
AVE_RENDER
 10
0.0
 20
0.0
 30
0.0
1001
AVE_RENDER
1002
{
1070
     7
1000
Pref
1070
    50
1070
    20
1070
     1
1070
     0
1000

1070
    10
1070
     1
1070
    10
1040
1.0
1070
     1
1040
0.6999999880790711
1040
1.0
1040
0.2000000029802322
1040
2.0
1010
-1.0
1020
-1.0
1030
-1.0
1040
0.3000000119209289
1070
    49
1070
     0
1070
     0
1010
1.0
1020
1.0
1030
1.0
1040
45.0
1070
     1
1070
     0
1000
WCS
1040
0.0
1070
     0
1040
10.0
1002
}
  0
INSERT
  5
2BC
330
1F
100
AcDbEntity
  8
ASHADE
 62
     3
100
AcDbBlockReference
  2
AVE_RENDER
 10
0.0
 20
0.0
 30
0.0
1001
AVE_RENDER
1002
{
1070
     0
1000
Full Opt
1070
     0
1070
     1
1070
     1
1070
     1
1070
     0
1070
     0
1070
     0
1070
     1
1070
     1
1040
0.0001
1040
0.0001
1002
}
  0
INSERT
  5
2BD
330
1F
100
AcDbEntity
  8
ASHADE
 62
     4
100
AcDbBlockReference
  2
AVE_RENDER
 10
0.0
 20
0.0
 30
0.0
1001
AVE_RENDER
1002
{
1070
     0
1000
Quick Opt
1070
     0
1070
     1
1070
     1
1070
     1
1070
     0
1070
     0
1070
     1
1002
}
  0
INSERT
  5
2BE
330
1F
100
AcDbEntity
  8
ASHADE
 62
     5
100
AcDbBlockReference
  2
AVE_RENDER
 10
0.0
 20
0.0
 30
0.0
1001
AVE_RENDER
1002
{
1070
     1
1000
Scanl Opt
1070
     2
1070
     0
1070
     2
1040
2.0
1040
4.0
1070
     0
1070
     1
1070
     0
1040
0.03
1002
}
  0
INSERT
  5
2BF
330
1F
100
AcDbEntity
  8
ASHADE
 62
     6
100
AcDbBlockReference
  2
AVE_RENDER
 10
0.0
 20
0.0
 30
0.0
1001
AVE_RENDER
1002
{
1070
     2
1000
Raytr Opt
1070
     2
1070
     0
1070
     2
1040
2.0
1040
4.0
1070
     0
1070
     1
1070
     1
1040
0.03
1070
     3
1040
0.03
1002
}
  0
INSERT
  5
2C0
330
1F
100
AcDbEntity
  8
ASHADE
 62
     7
100
AcDbBlockReference
  2
AVE_RENDER
 10
0.0
 20
0.0
 30
0.0
1001
AVE_RENDER
1002
{
1070
     0
1000
RFile Opt
1070
     1
1070
   640
1070
   480
1070
 10000
1070
     1
1070
     8
1070
     8
1070
     0
1070
     0
1070
     0
1070
     0
1070
     0
1070
     0
1070
     0
1002
}
  0
INSERT
  5
2C1
330
1F
100
AcDbEntity
  8
ASHADE
 62
     8
100
AcDbBlockReference
  2
AVE_RENDER
 10
0.0
 20
0.0
 30
0.0
1001
AVE_RENDER
1002
{
1070
     0
1000
Fog Opt
1070
     0
1070
     0
1040
0.0
1040
1.0
1040
0.0
1040
1.0
1010
0.5
1020
0.5
1030
0.5
1002
}
  0
INSERT
  5
2C2
330
1F
100
AcDbEntity
  8
ASHADE
 62
     9
100
AcDbBlockReference
  2
AVE_RENDER
 10
0.0
 20
0.0
 30
0.0
1001
AVE_RENDER
1002
{
1070
     0
1000
BG Opt
1070
     0
1070
     0
1010
0.0
1020
0.0
1030
0.0
1010
1.0
1020
0.0
1030
0.0
1010
0.0
1020
1.0
1030
0.0
1010
0.0
1020
0.0
1030
1.0
1040
0.5
1040
0.5
1040
0.0
1000

1070
     1
1000

1070
     1
1070
     1
1040
1.0
1040
1.0
1040
0.0
1040
0.0
1070
     0
1002
}
  0
POLYLINE
  5
92C
330
1F
100
AcDbEntity
  8
0
 62
     7
100
AcDbPolyFaceMesh
 66
     1
 10
0.0
 20
0.0
 30
0.0
 70
    64
 71
   256
 72
   508
1001
AVE_ENTITY_MATERIAL
1002
{
1000

1002
{
1071
        0
1070
     0
1070
     0
1002
{
1070
     0
1070
     0
1070
     0
1040
0.0
1002
}
1070
     0
1070
     0
1002
{
1002
}
1002
}
1002
{
1002
}
1002
{
1002
}
1011
-10.3810358834927
1021
0.0
1031
-1.690010159850203
1011
-9.3810358834927
1021
0.0
1031
-1.690010159850203
1011
-10.3810358834927
1021
1.0
1031
-1.690010159850203
1011
-10.3810358834927
1021
0.0
1031
-0.6900101598502033
1002
}
  0
VERTEX
  5
92D
330
92C
100
AcDbEntity
  8
0
 62
     7
100
AcDbVertex
100
AcDbPolyFaceMeshVertex
 10
2.591792027884247
 20
-5.347136497497558
 30
1.39669337904445
 70
   192
  0
VERTEX
  5
92E
330
92C
100
AcDbEntity
  8
0
 62
     7
100
AcDbVertex
100
AcDbPolyFaceMeshVertex
 10
2.477845113211399
 20
-5.233190059661865
 30
0.4805149141549228
 70
   192
  0
VERTEX
  5
92F
330
92C
100
AcDbEntity
  8
0
 62
     7
100
AcDbVertex
100
AcDbPolyFaceMeshVertex
 10
2.477845113211399
 20
-3.777499437332153
 30
0.4805149141549228
 70
   192
  0
VERTEX
  5
930
330
92C
100
AcDbEntity
  8
0
 62
     7
100
AcDbVertex
100
AcDbPolyFaceMeshVertex
 10
2.591792027884247
 20
-3.663552522659301
 30
1.39669337904445
 70
   192
  0
VERTEX
  5
931
330
92C
100
AcDbEntity
  8
0
 62
     7
100
AcDbVertex
100
AcDbPolyFaceMeshVertex
 10
3.075099866324189
 20
-3.180244684219359
 30
2.374999910950577
 70
   192
  0
VERTEX
  5
932
330
92C
100
AcDbEntity
  8
0
 62
     7
100
AcDbVertex
100
AcDbPolyFaceMeshVertex
 10
3.075099866324189
 20
-5.830444812774657
 30
2.374999910950577
 70
   192
  0
VERTEX
  5
933
330
92C
100
AcDbEntity
  8
0
 62
     7
100
AcDbVertex
100
AcDbPolyFaceMeshVertex
 10
1.031249921255829
 20
-5.224094867706297
 30
0.0000000301598668
 70
   192
  0
VERTEX
  5
934
330
92C
100
AcDbEntity
  8
0
 62
     7
100
AcDbVertex
100
AcDbPolyFaceMeshVertex
 10
1.02215472930027
 20
-5.233190059661865
 30
0.4805149141549228
 70
   192
  0
VERTEX
  5
935
330
92C
100
AcDbEntity
  8
0
 62
     7
100
AcDbVertex
100
AcDbPolyFaceMeshVertex
 10
1.02215472930027
 20
-3.777499437332153
 30
0.4805149141549228
 70
   192
  0
VERTEX
  5
936
330
92C
100
AcDbEntity
  8
0
 62
     7
100
AcDbVertex
100
AcDbPolyFaceMeshVertex
 10
1.031249921255829
 20
-3.786594629287718
 30
0.0000000301598668
 70
   192
  0
VERTEX
  5
937
330
92C
100
AcDbEntity
  8
0
 62
     7
100
AcDbVertex
100
AcDbPolyFaceMeshVertex
 10
3.075099866324189
 20
-5.830444812774657
 30
2.624999910950577
 70
   192
  0
VERTEX
  5
938
330
92C
100
AcDbEntity
  8
0
 62
     7
100
AcDbVertex
100
AcDbPolyFaceMeshVertex
 10
3.075099866324189
 20
-3.180244684219359
 30
2.624999910950577
 70
   192
  0
VERTEX
  5
939
330
92C
100
AcDbEntity
  8
0
 62
     7
100
AcDbVertex
100
AcDbPolyFaceMeshVertex
 10
3.48185912840915
 20
-2.773485183715819
 30
3.969094664215958
 70
   192
  0
VERTEX
  5
93A
330
92C
100
AcDbEntity
  8
0
 62
     7
100
AcDbVertex
100
AcDbPolyFaceMeshVertex
 10
3.400112073355439
 20
-6.155457496643066
 30
3.260238081574356
 70
   192
  0
VERTEX
  5
93B
330
92C
100
AcDbEntity
  8
0
 62
     7
100
AcDbVertex
100
AcDbPolyFaceMeshVertex
 10
3.400112073355439
 20
-2.855232000350951
 30
3.260238081574356
 70
   192
  0
VERTEX
  5
93C
330
92C
100
AcDbEntity
  8
0
 62
     7
100
AcDbVertex
100
AcDbPolyFaceMeshVertex
 10
3.48185912840915
 20
-6.237204074859619
 30
3.969094664215958
 70
   192
  0
VERTEX
  5
93D
330
92C
100
AcDbEntity
  8
0
 62
     7
100
AcDbVertex
100
AcDbPolyFaceMeshVertex
 10
3.309968869620087
 20
-6.065313816070556
 30
4.661636740326797
 70
   192
  0
VERTEX
  5
93E
330
92C
100
AcDbEntity
  8
0
 62
     7
100
AcDbVertex
100
AcDbPolyFaceMeshVertex
 10
2.906249921255829
 20
-3.349094629287718
 30
5.249999910950577
 70
   192
  0
VERTEX
  5
93F
330
92C
100
AcDbEntity
  8
0
 62
     7
100
AcDbVertex
100
AcDbPolyFaceMeshVertex
 10
2.906249921255829
 20
-5.661594867706297
 30
5.249999910950577
 70
   192
  0
VERTEX
  5
940
330
92C
100
AcDbEntity
  8
0
 62
     7
100
AcDbVertex
100
AcDbPolyFaceMeshVertex
 10
3.309968869620087
 20
-2.945375204086303
 30
4.661636740326797
 70
   192
  0
VERTEX
  5
941
330
92C
100
AcDbEntity
  8
0
 62
     7
100
AcDbVertex
100
AcDbPolyFaceMeshVertex
 10
2.906249921255829
 20
-5.661594867706297
 30
5.437499910950577
 70
   192
  0
VERTEX
  5
942
330
92C
100
AcDbEntity
  8
0
 62
     7
100
AcDbVertex
100
AcDbPolyFaceMeshVertex
 10
2.906249921255829
 20
-3.349094629287718
 30
5.437499910950577
 70
   192
  0
VERTEX
  5
943
330
92C
100
AcDbEntity
  8
0
 62
     7
100
AcDbVertex
100
AcDbPolyFaceMeshVertex
 10
2.814241330557587
 20
-5.569586277008056
 30
5.827254206299699
 70
   192
  0
VERTEX
  5
944
330
92C
100
AcDbEntity
  8
0
 62
     7
100
AcDbVertex
100
AcDbPolyFaceMeshVertex
 10
2.814241330557587
 20
-3.441103219985961
 30
5.827254206299699
 70
   192
  0
VERTEX
  5
945
330
92C
100
AcDbEntity
  8
0
 62
     7
100
AcDbVertex
100
AcDbPolyFaceMeshVertex
 10
2.906249921255829
 20
-3.349094629287718
 30
5.937499910950577
 70
   192
  0
VERTEX
  5
946
330
92C
100
AcDbEntity
  8
0
 62
     7
100
AcDbVertex
100
AcDbPolyFaceMeshVertex
 10
2.814241330557587
 20
-5.569586277008056
 30
5.547745615601456
 70
   192
  0
VERTEX
  5
947
330
92C
100
AcDbEntity
  8
0
 62
     7
100
AcDbVertex
100
AcDbPolyFaceMeshVertex
 10
2.814241330557587
 20
-3.441103219985961
 30
5.547745615601456
 70
   192
  0
VERTEX
  5
948
330
92C
100
AcDbEntity
  8
0
 62
     7
100
AcDbVertex
100
AcDbPolyFaceMeshVertex
 10
2.78960983031345
 20
-5.544954299926756
 30
5.615702063202774
 70
   192
  0
VERTEX
  5
949
330
92C
100
AcDbEntity
  8
0
 62
     7
100
AcDbVertex
100
AcDbPolyFaceMeshVertex
 10
2.781249921255829
 20
-3.474094629287718
 30
5.687499910950577
 70
   192
  0
VERTEX
  5
94A
330
92C
100
AcDbEntity
  8
0
 62
     7
100
AcDbVertex
100
AcDbPolyFaceMeshVertex
 10
2.781249921255829
 20
-5.536594867706297
 30
5.687499910950577
 70
   192
  0
VERTEX
  5
94B
330
92C
100
AcDbEntity
  8
0
 62
     7
100
AcDbVertex
100
AcDbPolyFaceMeshVertex
 10
2.78960983031345
 20
-3.465734958648681
 30
5.615702063202774
 70
   192
  0
VERTEX
  5
94C
330
92C
100
AcDbEntity
  8
0
 62
     7
100
AcDbVertex
100
AcDbPolyFaceMeshVertex
 10
2.78960983031345
 20
-5.544954299926756
 30
5.759297758698378
 70
   192
  0
VERTEX
  5
94D
330
92C
100
AcDbEntity
  8
0
 62
     7
100
AcDbVertex
100
AcDbPolyFaceMeshVertex
 10
2.906249921255829
 20
-5.661594867706297
 30
5.937499910950577
 70
   192
  0
VERTEX
  5
94E
330
92C
100
AcDbEntity
  8
0
 62
     7
100
AcDbVertex
100
AcDbPolyFaceMeshVertex
 10
2.78960983031345
 20
-3.465734958648681
 30
5.759297758698378
 70
   192
  0
VERTEX
  5
94F
330
92C
100
AcDbEntity
  8
0
 62
     7
100
AcDbVertex
100
AcDbPolyFaceMeshVertex
 10
2.906249921255829
 20
-5.661594867706297
 30
6.124999910950577
 70
   192
  0
VERTEX
  5
950
330
92C
100
AcDbEntity
  8
0
 62
     7
100
AcDbVertex
100
AcDbPolyFaceMeshVertex
 10
2.906249921255829
 20
-3.349094629287718
 30
6.124999910950577
 70
   192
  0
VERTEX
  5
951
330
92C
100
AcDbEntity
  8
0
 62
     7
100
AcDbVertex
100
AcDbPolyFaceMeshVertex
 10
3.197068135672338
 20
-5.952413082122802
 30
6.778324991822158
 70
   192
  0
VERTEX
  5
952
330
92C
100
AcDbEntity
  8
0
 62
     7
100
AcDbVertex
100
AcDbPolyFaceMeshVertex
 10
3.197068135672338
 20
-3.058275938034056
 30
6.778324991822158
 70
   192
  0
VERTEX
  5
953
330
92C
100
AcDbEntity
  8
0
 62
     7
100
AcDbVertex
100
AcDbPolyFaceMeshVertex
 10
3.134103696280249
 20
-3.121240854263305
 30
6.919775873780167
 70
   192
  0
VERTEX
  5
954
330
92C
100
AcDbEntity
  8
0
 62
     7
100
AcDbVertex
100
AcDbPolyFaceMeshVertex
 10
3.197068135672338
 20
-3.058275938034056
 30
6.471674830078995
 70
   192
  0
VERTEX
  5
955
330
92C
100
AcDbEntity
  8
0
 62
     7
100
AcDbVertex
100
AcDbPolyFaceMeshVertex
 10
3.134103696280249
 20
-5.889448642730712
 30
6.330223948120988
 70
   192
  0
VERTEX
  5
956
330
92C
100
AcDbEntity
  8
0
 62
     7
100
AcDbVertex
100
AcDbPolyFaceMeshVertex
 10
3.134103696280249
 20
-3.121240854263305
 30
6.330223948120988
 70
   192
  0
VERTEX
  5
957
330
92C
100
AcDbEntity
  8
0
 62
     7
100
AcDbVertex
100
AcDbPolyFaceMeshVertex
 10
3.197068135672338
 20
-5.952413082122802
 30
6.471674830078995
 70
   192
  0
VERTEX
  5
958
330
92C
100
AcDbEntity
  8
0
 62
     7
100
AcDbVertex
100
AcDbPolyFaceMeshVertex
 10
3.21861259215427
 20
-5.973957538604736
 30
6.624999910950577
 70
   192
  0
VERTEX
  5
959
330
92C
100
AcDbEntity
  8
0
 62
     7
100
AcDbVertex
100
AcDbPolyFaceMeshVertex
 10
3.134103696280249
 20
-5.889448642730712
 30
6.919775873780167
 70
   192
  0
VERTEX
  5
95A
330
92C
100
AcDbEntity
  8
0
 62
     7
100
AcDbVertex
100
AcDbPolyFaceMeshVertex
 10
2.906249921255829
 20
-3.349094629287718
 30
7.124999910950577
 70
   192
  0
VERTEX
  5
95B
330
92C
100
AcDbEntity
  8
0
 62
     7
100
AcDbVertex
100
AcDbPolyFaceMeshVertex
 10
2.906249921255829
 20
-5.661594867706297
 30
7.124999910950577
 70
   192
  0
VERTEX
  5
95C
330
92C
100
AcDbEntity
  8
0
 62
     7
100
AcDbVertex
100
AcDbPolyFaceMeshVertex
 10
3.21861259215427
 20
-3.036731719970703
 30
6.624999910950577
 70
   192
  0
VERTEX
  5
95D
330
92C
100
AcDbEntity
  8
0
 62
     7
100
AcDbVertex
100
AcDbPolyFaceMeshVertex
 10
2.906249921255829
 20
-5.661594867706297
 30
7.312499910950577
 70
   192
  0
VERTEX
  5
95E
330
92C
100
AcDbEntity
  8
0
 62
     7
100
AcDbVertex
100
AcDbPolyFaceMeshVertex
 10
2.906249921255829
 20
-3.349094629287718
 30
7.312499910950577
 70
   192
  0
VERTEX
  5
95F
330
92C
100
AcDbEntity
  8
0
 62
     7
100
AcDbVertex
100
AcDbPolyFaceMeshVertex
 10
2.742835919790989
 20
-3.512508153915404
 30
7.576983362793839
 70
   192
  0
VERTEX
  5
960
330
92C
100
AcDbEntity
  8
0
 62
     7
100
AcDbVertex
100
AcDbPolyFaceMeshVertex
 10
2.742835919790989
 20
-5.498181343078613
 30
7.576983362793839
 70
   192
  0
VERTEX
  5
961
330
92C
100
AcDbEntity
  8
0
 62
     7
100
AcDbVertex
100
AcDbPolyFaceMeshVertex
 10
2.7282580541904
 20
-3.527086496353148
 30
7.886279017090712
 70
   192
  0
VERTEX
  5
962
330
92C
100
AcDbEntity
  8
0
 62
     7
100
AcDbVertex
100
AcDbPolyFaceMeshVertex
 10
2.718859593802219
 20
-5.474204540252684
 30
7.730845362305556
 70
   192
  0
VERTEX
  5
963
330
92C
100
AcDbEntity
  8
0
 62
     7
100
AcDbVertex
100
AcDbPolyFaceMeshVertex
 10
2.718859593802219
 20
-3.536484956741333
 30
7.730845362305556
 70
   192
  0
VERTEX
  5
964
330
92C
100
AcDbEntity
  8
0
 62
     7
100
AcDbVertex
100
AcDbPolyFaceMeshVertex
 10
2.7282580541904
 20
-5.48360252380371
 30
7.886279017090712
 70
   192
  0
VERTEX
  5
965
330
92C
100
AcDbEntity
  8
0
 62
     7
100
AcDbVertex
100
AcDbPolyFaceMeshVertex
 10
3.093581120901829
 20
-5.848925590515136
 30
11.41499987280361
 70
   192
  0
VERTEX
  5
966
330
92C
100
AcDbEntity
  8
0
 62
     7
100
AcDbVertex
100
AcDbPolyFaceMeshVertex
 10
3.093581120901829
 20
-3.161763429641723
 30
11.41499987280361
 70
   192
  0
VERTEX
  5
967
330
92C
100
AcDbEntity
  8
0
 62
     7
100
AcDbVertex
100
AcDbPolyFaceMeshVertex
 10
3.332463185721168
 20
-2.922881126403808
 30
15.26198759710781
 70
   192
  0
VERTEX
  5
968
330
92C
100
AcDbEntity
  8
0
 62
     7
100
AcDbVertex
100
AcDbPolyFaceMeshVertex
 10
3.332463185721168
 20
-6.087808132171629
 30
15.26198759710781
 70
   192
  0
VERTEX
  5
969
330
92C
100
AcDbEntity
  8
0
 62
     7
100
AcDbVertex
100
AcDbPolyFaceMeshVertex
 10
3.252319257193329
 20
-6.007664680480957
 30
16.22294035589687
 70
   192
  0
VERTEX
  5
96A
330
92C
100
AcDbEntity
  8
0
 62
     7
100
AcDbVertex
100
AcDbPolyFaceMeshVertex
 10
3.252319257193329
 20
-3.003024816513061
 30
16.22294035589687
 70
   192
  0
VERTEX
  5
96B
330
92C
100
AcDbEntity
  8
0
 62
     7
100
AcDbVertex
100
AcDbPolyFaceMeshVertex
 10
3.122724454336889
 20
-5.878069400787352
 30
16.50913992559901
 70
   192
  0
VERTEX
  5
96C
330
92C
100
AcDbEntity
  8
0
 62
     7
100
AcDbVertex
100
AcDbPolyFaceMeshVertex
 10
3.122724454336889
 20
-3.132619857788084
 30
16.50913992559901
 70
   192
  0
VERTEX
  5
96D
330
92C
100
AcDbEntity
  8
0
 62
     7
100
AcDbVertex
100
AcDbPolyFaceMeshVertex
 10
2.906249921255829
 20
-5.661594867706297
 30
16.73683348333828
 70
   192
  0
VERTEX
  5
96E
330
92C
100
AcDbEntity
  8
0
 62
     7
100
AcDbVertex
100
AcDbPolyFaceMeshVertex
 10
2.906249921255829
 20
-3.349094629287718
 30
16.73683348333828
 70
   192
  0
VERTEX
  5
96F
330
92C
100
AcDbEntity
  8
0
 62
     7
100
AcDbVertex
100
AcDbPolyFaceMeshVertex
 10
2.906249921255829
 20
-5.661594867706297
 30
16.92433348333828
 70
   192
  0
VERTEX
  5
970
330
92C
100
AcDbEntity
  8
0
 62
     7
100
AcDbVertex
100
AcDbPolyFaceMeshVertex
 10
2.906249921255829
 20
-3.349094629287718
 30
16.92433348333828
 70
   192
  0
VERTEX
  5
971
330
92C
100
AcDbEntity
  8
0
 62
     7
100
AcDbVertex
100
AcDbPolyFaceMeshVertex
 10
2.76722900145603
 20
-5.522573471069335
 30
17.55449286139002
 70
   192
  0
VERTEX
  5
972
330
92C
100
AcDbEntity
  8
0
 62
     7
100
AcDbVertex
100
AcDbPolyFaceMeshVertex
 10
2.76722900145603
 20
-3.488115787506103
 30
17.55449286139002
 70
   192
  0
VERTEX
  5
973
330
92C
100
AcDbEntity
  8
0
 62
     7
100
AcDbVertex
100
AcDbPolyFaceMeshVertex
 10
2.906249921255829
 20
-3.349094629287718
 30
17.73683348333827
 70
   192
  0
VERTEX
  5
974
330
92C
100
AcDbEntity
  8
0
 62
     7
100
AcDbVertex
100
AcDbPolyFaceMeshVertex
 10
2.76722900145603
 20
-5.522573471069335
 30
17.10667601263515
 70
   192
  0
VERTEX
  5
975
330
92C
100
AcDbEntity
  8
0
 62
     7
100
AcDbVertex
100
AcDbPolyFaceMeshVertex
 10
2.76722900145603
 20
-3.488115787506103
 30
17.10667601263515
 70
   192
  0
VERTEX
  5
976
330
92C
100
AcDbEntity
  8
0
 62
     7
100
AcDbVertex
100
AcDbPolyFaceMeshVertex
 10
2.730327527457012
 20
-5.485672473907469
 30
17.21593847906581
 70
   192
  0
VERTEX
  5
977
330
92C
100
AcDbEntity
  8
0
 62
     7
100
AcDbVertex
100
AcDbPolyFaceMeshVertex
 10
2.71783153288913
 20
-3.537513017654417
 30
17.33058348333828
 70
   192
  0
VERTEX
  5
978
330
92C
100
AcDbEntity
  8
0
 62
     7
100
AcDbVertex
100
AcDbPolyFaceMeshVertex
 10
2.71783153288913
 20
-5.473176479339598
 30
17.33058348333828
 70
   192
  0
VERTEX
  5
979
330
92C
100
AcDbEntity
  8
0
 62
     7
100
AcDbVertex
100
AcDbPolyFaceMeshVertex
 10
2.730327527457012
 20
-3.525017023086546
 30
17.21593847906581
 70
   192
  0
VERTEX
  5
97A
330
92C
100
AcDbEntity
  8
0
 62
     7
100
AcDbVertex
100
AcDbPolyFaceMeshVertex
 10
2.730327527457012
 20
-5.485672473907469
 30
17.44523039495937
 70
   192
  0
VERTEX
  5
97B
330
92C
100
AcDbEntity
  8
0
 62
     7
100
AcDbVertex
100
AcDbPolyFaceMeshVertex
 10
2.906249921255829
 20
-5.661594867706297
 30
17.73683348333827
 70
   192
  0
VERTEX
  5
97C
330
92C
100
AcDbEntity
  8
0
 62
     7
100
AcDbVertex
100
AcDbPolyFaceMeshVertex
 10
2.730327527457012
 20
-3.525017023086546
 30
17.44523039495937
 70
   192
  0
VERTEX
  5
97D
330
92C
100
AcDbEntity
  8
0
 62
     7
100
AcDbVertex
100
AcDbPolyFaceMeshVertex
 10
2.906249921255829
 20
-5.661594867706297
 30
17.92433348333826
 70
   192
  0
VERTEX
  5
97E
330
92C
100
AcDbEntity
  8
0
 62
     7
100
AcDbVertex
100
AcDbPolyFaceMeshVertex
 10
2.906249921255829
 20
-3.349094629287718
 30
17.92433348333826
 70
   192
  0
VERTEX
  5
97F
330
92C
100
AcDbEntity
  8
0
 62
     7
100
AcDbVertex
100
AcDbPolyFaceMeshVertex
 10
3.249794881277809
 20
-6.005139350891112
 30
19.74921599066249
 70
   192
  0
VERTEX
  5
980
330
92C
100
AcDbEntity
  8
0
 62
     7
100
AcDbVertex
100
AcDbPolyFaceMeshVertex
 10
3.249794881277809
 20
-3.005549907684326
 30
19.74921599066249
 70
   192
  0
VERTEX
  5
981
330
92C
100
AcDbEntity
  8
0
 62
     7
100
AcDbVertex
100
AcDbPolyFaceMeshVertex
 10
2.906249921255829
 20
-3.349094629287718
 30
20.29933348333828
 70
   192
  0
VERTEX
  5
982
330
92C
100
AcDbEntity
  8
0
 62
     7
100
AcDbVertex
100
AcDbPolyFaceMeshVertex
 10
3.249794881277809
 20
-6.005139350891112
 30
18.47445288336269
 70
   192
  0
VERTEX
  5
983
330
92C
100
AcDbEntity
  8
0
 62
     7
100
AcDbVertex
100
AcDbPolyFaceMeshVertex
 10
3.249794881277809
 20
-3.005549907684326
 30
18.47445288336269
 70
   192
  0
VERTEX
  5
984
330
92C
100
AcDbEntity
  8
0
 62
     7
100
AcDbVertex
100
AcDbPolyFaceMeshVertex
 10
3.36978523009372
 20
-6.125130176544188
 30
19.11183348333828
 70
   192
  0
VERTEX
  5
985
330
92C
100
AcDbEntity
  8
0
 62
     7
100
AcDbVertex
100
AcDbPolyFaceMeshVertex
 10
2.906249921255829
 20
-5.661594867706297
 30
20.29933348333828
 70
   192
  0
VERTEX
  5
986
330
92C
100
AcDbEntity
  8
0
 62
     7
100
AcDbVertex
100
AcDbPolyFaceMeshVertex
 10
3.36978523009372
 20
-2.88555908203125
 30
19.11183348333828
 70
   192
  0
VERTEX
  5
987
330
92C
100
AcDbEntity
  8
0
 62
     7
100
AcDbVertex
100
AcDbPolyFaceMeshVertex
 10
2.906249921255829
 20
-5.661594867706297
 30
20.48683348333828
 70
   192
  0
VERTEX
  5
988
330
92C
100
AcDbEntity
  8
0
 62
     7
100
AcDbVertex
100
AcDbPolyFaceMeshVertex
 10
2.906249921255829
 20
-3.349094629287718
 30
20.48683348333828
 70
   192
  0
VERTEX
  5
989
330
92C
100
AcDbEntity
  8
0
 62
     7
100
AcDbVertex
100
AcDbPolyFaceMeshVertex
 10
2.77350894682956
 20
-5.528853893280028
 30
21.16074362432949
 70
   192
  0
VERTEX
  5
98A
330
92C
100
AcDbEntity
  8
0
 62
     7
100
AcDbVertex
100
AcDbPolyFaceMeshVertex
 10
2.77350894682956
 20
-3.48183536529541
 30
21.16074362432949
 70
   192
  0
VERTEX
  5
98B
330
92C
100
AcDbEntity
  8
0
 62
     7
100
AcDbVertex
100
AcDbPolyFaceMeshVertex
 10
2.906249921255829
 20
-3.349094629287718
 30
21.36183348333828
 70
   192
  0
VERTEX
  5
98C
330
92C
100
AcDbEntity
  8
0
 62
     7
100
AcDbVertex
100
AcDbPolyFaceMeshVertex
 10
2.77350894682956
 20
-5.528853893280028
 30
20.6879252496957
 70
   192
  0
VERTEX
  5
98D
330
92C
100
AcDbEntity
  8
0
 62
     7
100
AcDbVertex
100
AcDbPolyFaceMeshVertex
 10
2.77350894682956
 20
-3.48183536529541
 30
20.6879252496957
 70
   192
  0
VERTEX
  5
98E
330
92C
100
AcDbEntity
  8
0
 62
     7
100
AcDbVertex
100
AcDbPolyFaceMeshVertex
 10
2.73869506590915
 20
-5.494040489196777
 30
20.80385771429531
 70
   192
  0
VERTEX
  5
98F
330
92C
100
AcDbEntity
  8
0
 62
     7
100
AcDbVertex
100
AcDbPolyFaceMeshVertex
 10
2.726942937308079
 20
-3.528401136398314
 30
20.92433348333828
 70
   192
  0
VERTEX
  5
990
330
92C
100
AcDbEntity
  8
0
 62
     7
100
AcDbVertex
100
AcDbPolyFaceMeshVertex
 10
2.726942937308079
 20
-5.482287883758544
 30
20.92433348333828
 70
   192
  0
VERTEX
  5
991
330
92C
100
AcDbEntity
  8
0
 62
     7
100
AcDbVertex
100
AcDbPolyFaceMeshVertex
 10
2.73869506590915
 20
-3.516649007797241
 30
20.80385771429531
 70
   192
  0
VERTEX
  5
992
330
92C
100
AcDbEntity
  8
0
 62
     7
100
AcDbVertex
100
AcDbPolyFaceMeshVertex
 10
2.73869506590915
 20
-5.494040489196777
 30
21.04480925238124
 70
   192
  0
VERTEX
  5
993
330
92C
100
AcDbEntity
  8
0
 62
     7
100
AcDbVertex
100
AcDbPolyFaceMeshVertex
 10
2.906249921255829
 20
-5.661594867706297
 30
21.36183348333828
 70
   192
  0
VERTEX
  5
994
330
92C
100
AcDbEntity
  8
0
 62
     7
100
AcDbVertex
100
AcDbPolyFaceMeshVertex
 10
2.73869506590915
 20
-3.516649007797241
 30
21.04480925238124
 70
   192
  0
VERTEX
  5
995
330
92C
100
AcDbEntity
  8
0
 62
     7
100
AcDbVertex
100
AcDbPolyFaceMeshVertex
 10
2.906249921255829
 20
-5.661594867706297
 30
21.54933348333828
 70
   192
  0
VERTEX
  5
996
330
92C
100
AcDbEntity
  8
0
 62
     7
100
AcDbVertex
100
AcDbPolyFaceMeshVertex
 10
2.906249921255829
 20
-3.349094629287718
 30
21.54933348333828
 70
   192
  0
VERTEX
  5
997
330
92C
100
AcDbEntity
  8
0
 62
     7
100
AcDbVertex
100
AcDbPolyFaceMeshVertex
 10
3.135653417044409
 20
-5.890998363494872
 30
21.80209341680996
 70
   192
  0
VERTEX
  5
998
330
92C
100
AcDbEntity
  8
0
 62
     7
100
AcDbVertex
100
AcDbPolyFaceMeshVertex
 10
3.135653417044409
 20
-3.119691133499145
 30
21.80209341680996
 70
   192
  0
VERTEX
  5
999
330
92C
100
AcDbEntity
  8
0
 62
     7
100
AcDbVertex
100
AcDbPolyFaceMeshVertex
 10
3.247033040457489
 20
-6.002377510070799
 30
21.93141928350917
 70
   192
  0
VERTEX
  5
99A
330
92C
100
AcDbEntity
  8
0
 62
     7
100
AcDbVertex
100
AcDbPolyFaceMeshVertex
 10
3.247033040457489
 20
-3.008311748504638
 30
21.93141928350917
 70
   192
  0
VERTEX
  5
99B
330
92C
100
AcDbEntity
  8
0
 62
     7
100
AcDbVertex
100
AcDbPolyFaceMeshVertex
 10
3.306894223623999
 20
-2.948450326919555
 30
22.09125509893886
 70
   192
  0
VERTEX
  5
99C
330
92C
100
AcDbEntity
  8
0
 62
     7
100
AcDbVertex
100
AcDbPolyFaceMeshVertex
 10
3.306894223623999
 20
-6.062238693237303
 30
22.09125509893886
 70
   192
  0
VERTEX
  5
99D
330
92C
100
AcDbEntity
  8
0
 62
     7
100
AcDbVertex
100
AcDbPolyFaceMeshVertex
 10
3.307870786123999
 20
-6.063215732574462
 30
22.26192846930019
 70
   192
  0
VERTEX
  5
99E
330
92C
100
AcDbEntity
  8
0
 62
     7
100
AcDbVertex
100
AcDbPolyFaceMeshVertex
 10
3.307870786123999
 20
-2.947473764419555
 30
22.26192846930019
 70
   192
  0
VERTEX
  5
99F
330
92C
100
AcDbEntity
  8
0
 62
     7
100
AcDbVertex
100
AcDbPolyFaceMeshVertex
 10
3.249842564993629
 20
-6.00518751144409
 30
22.42243948614589
 70
   192
  0
VERTEX
  5
9A0
330
92C
100
AcDbEntity
  8
0
 62
     7
100
AcDbVertex
100
AcDbPolyFaceMeshVertex
 10
3.249842564993629
 20
-3.005501985549926
 30
22.42243948614589
 70
   192
  0
VERTEX
  5
9A1
330
92C
100
AcDbEntity
  8
0
 62
     7
100
AcDbVertex
100
AcDbPolyFaceMeshVertex
 10
3.114028851919899
 20
-5.869373321533202
 30
22.68922415411464
 70
   192
  0
VERTEX
  5
9A2
330
92C
100
AcDbEntity
  8
0
 62
     7
100
AcDbVertex
100
AcDbPolyFaceMeshVertex
 10
3.114028851919899
 20
-3.141315698623656
 30
22.68922415411464
 70
   192
  0
VERTEX
  5
9A3
330
92C
100
AcDbEntity
  8
0
 62
     7
100
AcDbVertex
100
AcDbPolyFaceMeshVertex
 10
3.06418220274997
 20
-5.819527149200438
 30
22.98440924322597
 70
   192
  0
VERTEX
  5
9A4
330
92C
100
AcDbEntity
  8
0
 62
     7
100
AcDbVertex
100
AcDbPolyFaceMeshVertex
 10
3.06418220274997
 20
-3.191162109375
 30
22.98440924322597
 70
   192
  0
VERTEX
  5
9A5
330
92C
100
AcDbEntity
  8
0
 62
     7
100
AcDbVertex
100
AcDbPolyFaceMeshVertex
 10
3.206610600882299
 20
-5.961955547332762
 30
23.2684859338998
 70
   192
  0
VERTEX
  5
9A6
330
92C
100
AcDbEntity
  8
0
 62
     7
100
AcDbVertex
100
AcDbPolyFaceMeshVertex
 10
3.206610600882299
 20
-3.048733711242674
 30
23.2684859338998
 70
   192
  0
VERTEX
  5
9A7
330
92C
100
AcDbEntity
  8
0
 62
     7
100
AcDbVertex
100
AcDbPolyFaceMeshVertex
 10
3.437499921255829
 20
-6.192844867706297
 30
23.48683348333828
 70
   192
  0
VERTEX
  5
9A8
330
92C
100
AcDbEntity
  8
0
 62
     7
100
AcDbVertex
100
AcDbPolyFaceMeshVertex
 10
3.437499921255829
 20
-2.817844629287718
 30
23.48683348333828
 70
   192
  0
VERTEX
  5
9A9
330
92C
100
AcDbEntity
  8
0
 62
     7
100
AcDbVertex
100
AcDbPolyFaceMeshVertex
 10
3.437499921255829
 20
-6.192844867706297
 30
23.96990576422207
 70
   192
  0
VERTEX
  5
9AA
330
92C
100
AcDbEntity
  8
0
 62
     7
100
AcDbVertex
100
AcDbPolyFaceMeshVertex
 10
3.437499921255829
 20
-2.817844629287718
 30
23.96990576422207
 70
   192
  0
VERTEX
  5
9AB
330
92C
100
AcDbEntity
  8
0
 62
     7
100
AcDbVertex
100
AcDbPolyFaceMeshVertex
 10
3.499999921255829
 20
-6.255344867706297
 30
24.00205984747401
 70
   192
  0
VERTEX
  5
9AC
330
92C
100
AcDbEntity
  8
0
 62
     7
100
AcDbVertex
100
AcDbPolyFaceMeshVertex
 10
3.499999921255829
 20
-2.755344629287719
 30
24.00205984747401
 70
   192
  0
VERTEX
  5
9AD
330
92C
100
AcDbEntity
  8
0
 62
     7
100
AcDbVertex
100
AcDbPolyFaceMeshVertex
 10
3.499999921255829
 20
-6.255344867706297
 30
34.49999991095058
 70
   192
  0
VERTEX
  5
9AE
330
92C
100
AcDbEntity
  8
0
 62
     7
100
AcDbVertex
100
AcDbPolyFaceMeshVertex
 10
3.499999921255829
 20
-2.755344629287719
 30
34.49999991095058
 70
   192
  0
VERTEX
  5
9AF
330
92C
100
AcDbEntity
  8
0
 62
     7
100
AcDbVertex
100
AcDbPolyFaceMeshVertex
 10
-0.0000000787441703
 20
-6.255344867706297
 30
24.00205984747401
 70
   192
  0
VERTEX
  5
9B0
330
92C
100
AcDbEntity
  8
0
 62
     7
100
AcDbVertex
100
AcDbPolyFaceMeshVertex
 10
-0.0000000787441703
 20
-6.255344867706297
 30
34.49999991095058
 70
   192
  0
VERTEX
  5
9B1
330
92C
100
AcDbEntity
  8
0
 62
     7
100
AcDbVertex
100
AcDbPolyFaceMeshVertex
 10
-0.0000000787441703
 20
-2.755344629287719
 30
34.49999991095058
 70
   192
  0
VERTEX
  5
9B2
330
92C
100
AcDbEntity
  8
0
 62
     7
100
AcDbVertex
100
AcDbPolyFaceMeshVertex
 10
-0.0000000787441703
 20
-2.755344629287719
 30
24.00205984747401
 70
   192
  0
VERTEX
  5
9B3
330
92C
100
AcDbEntity
  8
0
 62
     7
100
AcDbVertex
100
AcDbPolyFaceMeshVertex
 10
2.468749921255829
 20
-5.224094867706297
 30
0.0000000301598668
 70
   192
  0
VERTEX
  5
9B4
330
92C
100
AcDbEntity
  8
0
 62
     7
100
AcDbVertex
100
AcDbPolyFaceMeshVertex
 10
2.468749921255829
 20
-3.786594629287718
 30
0.0000000301598668
 70
   192
  0
VERTEX
  5
9B5
330
92C
100
AcDbEntity
  8
0
 62
     7
100
AcDbVertex
100
AcDbPolyFaceMeshVertex
 10
0.9082078146274099
 20
-5.347136497497558
 30
1.39669337904445
 70
   192
  0
VERTEX
  5
9B6
330
92C
100
AcDbEntity
  8
0
 62
     7
100
AcDbVertex
100
AcDbPolyFaceMeshVertex
 10
0.9082078146274099
 20
-3.663552522659301
 30
1.39669337904445
 70
   192
  0
VERTEX
  5
9B7
330
92C
100
AcDbEntity
  8
0
 62
     7
100
AcDbVertex
100
AcDbPolyFaceMeshVertex
 10
0.4248999761874704
 20
-5.830444812774657
 30
2.374999910950577
 70
   192
  0
VERTEX
  5
9B8
330
92C
100
AcDbEntity
  8
0
 62
     7
100
AcDbVertex
100
AcDbPolyFaceMeshVertex
 10
0.4248999761874704
 20
-3.180244684219359
 30
2.374999910950577
 70
   192
  0
VERTEX
  5
9B9
330
92C
100
AcDbEntity
  8
0
 62
     7
100
AcDbVertex
100
AcDbPolyFaceMeshVertex
 10
0.4248999761874704
 20
-5.830444812774657
 30
2.624999910950577
 70
   192
  0
VERTEX
  5
9BA
330
92C
100
AcDbEntity
  8
0
 62
     7
100
AcDbVertex
100
AcDbPolyFaceMeshVertex
 10
0.4248999761874704
 20
-3.180244684219359
 30
2.624999910950577
 70
   192
  0
VERTEX
  5
9BB
330
92C
100
AcDbEntity
  8
0
 62
     7
100
AcDbVertex
100
AcDbPolyFaceMeshVertex
 10
0.1900300192172608
 20
-6.065313816070556
 30
4.661636740326797
 70
   192
  0
VERTEX
  5
9BC
330
92C
100
AcDbEntity
  8
0
 62
     7
100
AcDbVertex
100
AcDbPolyFaceMeshVertex
 10
0.5937499212558297
 20
-5.661594867706297
 30
5.249999910950577
 70
   192
  0
VERTEX
  5
9BD
330
92C
100
AcDbEntity
  8
0
 62
     7
100
AcDbVertex
100
AcDbPolyFaceMeshVertex
 10
0.1900300192172608
 20
-2.945375204086303
 30
4.661636740326797
 70
   192
  0
VERTEX
  5
9BE
330
92C
100
AcDbEntity
  8
0
 62
     7
100
AcDbVertex
100
AcDbPolyFaceMeshVertex
 10
0.0181397604282001
 20
-6.237204074859619
 30
3.969094664215958
 70
   192
  0
VERTEX
  5
9BF
330
92C
100
AcDbEntity
  8
0
 62
     7
100
AcDbVertex
100
AcDbPolyFaceMeshVertex
 10
0.0998868154819093
 20
-6.155457496643066
 30
3.260238081574356
 70
   192
  0
VERTEX
  5
9C0
330
92C
100
AcDbEntity
  8
0
 62
     7
100
AcDbVertex
100
AcDbPolyFaceMeshVertex
 10
0.0998868154819093
 20
-2.855232000350951
 30
3.260238081574356
 70
   192
  0
VERTEX
  5
9C1
330
92C
100
AcDbEntity
  8
0
 62
     7
100
AcDbVertex
100
AcDbPolyFaceMeshVertex
 10
0.0181397604282001
 20
-2.773485183715819
 30
3.969094664215958
 70
   192
  0
VERTEX
  5
9C2
330
92C
100
AcDbEntity
  8
0
 62
     7
100
AcDbVertex
100
AcDbPolyFaceMeshVertex
 10
0.5937499212558297
 20
-3.349094629287718
 30
5.249999910950577
 70
   192
  0
VERTEX
  5
9C3
330
92C
100
AcDbEntity
  8
0
 62
     7
100
AcDbVertex
100
AcDbPolyFaceMeshVertex
 10
0.5937499212558297
 20
-5.661594867706297
 30
5.437499910950577
 70
   192
  0
VERTEX
  5
9C4
330
92C
100
AcDbEntity
  8
0
 62
     7
100
AcDbVertex
100
AcDbPolyFaceMeshVertex
 10
0.5937499212558297
 20
-3.349094629287718
 30
5.437499910950577
 70
   192
  0
VERTEX
  5
9C5
330
92C
100
AcDbEntity
  8
0
 62
     7
100
AcDbVertex
100
AcDbPolyFaceMeshVertex
 10
0.6857585119540702
 20
-5.569586277008056
 30
5.547745615601456
 70
   192
  0
VERTEX
  5
9C6
330
92C
100
AcDbEntity
  8
0
 62
     7
100
AcDbVertex
100
AcDbPolyFaceMeshVertex
 10
0.6857585119540702
 20
-3.441103219985961
 30
5.547745615601456
 70
   192
  0
VERTEX
  5
9C7
330
92C
100
AcDbEntity
  8
0
 62
     7
100
AcDbVertex
100
AcDbPolyFaceMeshVertex
 10
0.6857585119540702
 20
-5.569586277008056
 30
5.827254206299699
 70
   192
  0
VERTEX
  5
9C8
330
92C
100
AcDbEntity
  8
0
 62
     7
100
AcDbVertex
100
AcDbPolyFaceMeshVertex
 10
0.5937499212558297
 20
-5.661594867706297
 30
5.937499910950577
 70
   192
  0
VERTEX
  5
9C9
330
92C
100
AcDbEntity
  8
0
 62
     7
100
AcDbVertex
100
AcDbPolyFaceMeshVertex
 10
0.6857585119540702
 20
-3.441103219985961
 30
5.827254206299699
 70
   192
  0
VERTEX
  5
9CA
330
92C
100
AcDbEntity
  8
0
 62
     7
100
AcDbVertex
100
AcDbPolyFaceMeshVertex
 10
0.7103900121982197
 20
-5.544954299926756
 30
5.759297758698378
 70
   192
  0
VERTEX
  5
9CB
330
92C
100
AcDbEntity
  8
0
 62
     7
100
AcDbVertex
100
AcDbPolyFaceMeshVertex
 10
0.7187499212558297
 20
-3.474094629287718
 30
5.687499910950577
 70
   192
  0
VERTEX
  5
9CC
330
92C
100
AcDbEntity
  8
0
 62
     7
100
AcDbVertex
100
AcDbPolyFaceMeshVertex
 10
0.7187499212558297
 20
-5.536594867706297
 30
5.687499910950577
 70
   192
  0
VERTEX
  5
9CD
330
92C
100
AcDbEntity
  8
0
 62
     7
100
AcDbVertex
100
AcDbPolyFaceMeshVertex
 10
0.7103900121982197
 20
-3.465734958648681
 30
5.759297758698378
 70
   192
  0
VERTEX
  5
9CE
330
92C
100
AcDbEntity
  8
0
 62
     7
100
AcDbVertex
100
AcDbPolyFaceMeshVertex
 10
0.7103900121982197
 20
-5.544954299926756
 30
5.615702063202774
 70
   192
  0
VERTEX
  5
9CF
330
92C
100
AcDbEntity
  8
0
 62
     7
100
AcDbVertex
100
AcDbPolyFaceMeshVertex
 10
0.7103900121982197
 20
-3.465734958648681
 30
5.615702063202774
 70
   192
  0
VERTEX
  5
9D0
330
92C
100
AcDbEntity
  8
0
 62
     7
100
AcDbVertex
100
AcDbPolyFaceMeshVertex
 10
0.5937499212558297
 20
-3.349094629287718
 30
5.937499910950577
 70
   192
  0
VERTEX
  5
9D1
330
92C
100
AcDbEntity
  8
0
 62
     7
100
AcDbVertex
100
AcDbPolyFaceMeshVertex
 10
0.5937499212558297
 20
-5.661594867706297
 30
6.124999910950577
 70
   192
  0
VERTEX
  5
9D2
330
92C
100
AcDbEntity
  8
0
 62
     7
100
AcDbVertex
100
AcDbPolyFaceMeshVertex
 10
0.5937499212558297
 20
-3.349094629287718
 30
6.124999910950577
 70
   192
  0
VERTEX
  5
9D3
330
92C
100
AcDbEntity
  8
0
 62
     7
100
AcDbVertex
100
AcDbPolyFaceMeshVertex
 10
0.3029307531650112
 20
-5.952413082122802
 30
6.471674830078995
 70
   192
  0
VERTEX
  5
9D4
330
92C
100
AcDbEntity
  8
0
 62
     7
100
AcDbVertex
100
AcDbPolyFaceMeshVertex
 10
0.3029307531650112
 20
-3.058275938034056
 30
6.471674830078995
 70
   192
  0
VERTEX
  5
9D5
330
92C
100
AcDbEntity
  8
0
 62
     7
100
AcDbVertex
100
AcDbPolyFaceMeshVertex
 10
0.3658961462314192
 20
-3.121240854263305
 30
6.330223948120988
 70
   192
  0
VERTEX
  5
9D6
330
92C
100
AcDbEntity
  8
0
 62
     7
100
AcDbVertex
100
AcDbPolyFaceMeshVertex
 10
0.3029307531650112
 20
-3.058275938034056
 30
6.778324991822158
 70
   192
  0
VERTEX
  5
9D7
330
92C
100
AcDbEntity
  8
0
 62
     7
100
AcDbVertex
100
AcDbPolyFaceMeshVertex
 10
0.3658961462314192
 20
-5.889448642730712
 30
6.919775873780167
 70
   192
  0
VERTEX
  5
9D8
330
92C
100
AcDbEntity
  8
0
 62
     7
100
AcDbVertex
100
AcDbPolyFaceMeshVertex
 10
0.3658961462314192
 20
-3.121240854263305
 30
6.919775873780167
 70
   192
  0
VERTEX
  5
9D9
330
92C
100
AcDbEntity
  8
0
 62
     7
100
AcDbVertex
100
AcDbPolyFaceMeshVertex
 10
0.3029307531650112
 20
-5.952413082122802
 30
6.778324991822158
 70
   192
  0
VERTEX
  5
9DA
330
92C
100
AcDbEntity
  8
0
 62
     7
100
AcDbVertex
100
AcDbPolyFaceMeshVertex
 10
0.2813862966830793
 20
-5.973957538604736
 30
6.624999910950577
 70
   192
  0
VERTEX
  5
9DB
330
92C
100
AcDbEntity
  8
0
 62
     7
100
AcDbVertex
100
AcDbPolyFaceMeshVertex
 10
0.3658961462314192
 20
-5.889448642730712
 30
6.330223948120988
 70
   192
  0
VERTEX
  5
9DC
330
92C
100
AcDbEntity
  8
0
 62
     7
100
AcDbVertex
100
AcDbPolyFaceMeshVertex
 10
0.2813862966830793
 20
-3.036731719970703
 30
6.624999910950577
 70
   192
  0
VERTEX
  5
9DD
330
92C
100
AcDbEntity
  8
0
 62
     7
100
AcDbVertex
100
AcDbPolyFaceMeshVertex
 10
0.5937499212558297
 20
-5.661594867706297
 30
7.124999910950577
 70
   192
  0
VERTEX
  5
9DE
330
92C
100
AcDbEntity
  8
0
 62
     7
100
AcDbVertex
100
AcDbPolyFaceMeshVertex
 10
0.5937499212558297
 20
-3.349094629287718
 30
7.124999910950577
 70
   192
  0
VERTEX
  5
9DF
330
92C
100
AcDbEntity
  8
0
 62
     7
100
AcDbVertex
100
AcDbPolyFaceMeshVertex
 10
0.5937499212558297
 20
-5.661594867706297
 30
7.312499910950577
 70
   192
  0
VERTEX
  5
9E0
330
92C
100
AcDbEntity
  8
0
 62
     7
100
AcDbVertex
100
AcDbPolyFaceMeshVertex
 10
0.5937499212558297
 20
-3.349094629287718
 30
7.312499910950577
 70
   192
  0
VERTEX
  5
9E1
330
92C
100
AcDbEntity
  8
0
 62
     7
100
AcDbVertex
100
AcDbPolyFaceMeshVertex
 10
0.7571629690463606
 20
-5.498181343078613
 30
7.576983362793839
 70
   192
  0
VERTEX
  5
9E2
330
92C
100
AcDbEntity
  8
0
 62
     7
100
AcDbVertex
100
AcDbPolyFaceMeshVertex
 10
0.7571629690463606
 20
-3.512508153915404
 30
7.576983362793839
 70
   192
  0
VERTEX
  5
9E3
330
92C
100
AcDbEntity
  8
0
 62
     7
100
AcDbVertex
100
AcDbPolyFaceMeshVertex
 10
0.7811402487094501
 20
-5.474204540252684
 30
7.730845362305556
 70
   192
  0
VERTEX
  5
9E4
330
92C
100
AcDbEntity
  8
0
 62
     7
100
AcDbVertex
100
AcDbPolyFaceMeshVertex
 10
0.7717417883212594
 20
-5.48360252380371
 30
7.886279017090712
 70
   192
  0
VERTEX
  5
9E5
330
92C
100
AcDbEntity
  8
0
 62
     7
100
AcDbVertex
100
AcDbPolyFaceMeshVertex
 10
0.7811402487094501
 20
-3.536484956741333
 30
7.730845362305556
 70
   192
  0
VERTEX
  5
9E6
330
92C
100
AcDbEntity
  8
0
 62
     7
100
AcDbVertex
100
AcDbPolyFaceMeshVertex
 10
0.7717417883212594
 20
-3.527086496353148
 30
7.886279017090712
 70
   192
  0
VERTEX
  5
9E7
330
92C
100
AcDbEntity
  8
0
 62
     7
100
AcDbVertex
100
AcDbPolyFaceMeshVertex
 10
0.406418721609839
 20
-5.848925590515136
 30
11.41499987280361
 70
   192
  0
VERTEX
  5
9E8
330
92C
100
AcDbEntity
  8
0
 62
     7
100
AcDbVertex
100
AcDbPolyFaceMeshVertex
 10
0.406418721609839
 20
-3.161763429641723
 30
11.41499987280361
 70
   192
  0
VERTEX
  5
9E9
330
92C
100
AcDbEntity
  8
0
 62
     7
100
AcDbVertex
100
AcDbPolyFaceMeshVertex
 10
0.1675366567904994
 20
-6.087808132171629
 30
15.26198759710781
 70
   192
  0
VERTEX
  5
9EA
330
92C
100
AcDbEntity
  8
0
 62
     7
100
AcDbVertex
100
AcDbPolyFaceMeshVertex
 10
0.1675366567904994
 20
-2.922881126403808
 30
15.26198759710781
 70
   192
  0
VERTEX
  5
9EB
330
92C
100
AcDbEntity
  8
0
 62
     7
100
AcDbVertex
100
AcDbPolyFaceMeshVertex
 10
0.2476796316440204
 20
-6.007664680480957
 30
16.22294035589687
 70
   192
  0
VERTEX
  5
9EC
330
92C
100
AcDbEntity
  8
0
 62
     7
100
AcDbVertex
100
AcDbPolyFaceMeshVertex
 10
0.2476796316440204
 20
-3.003024816513061
 30
16.22294035589687
 70
   192
  0
VERTEX
  5
9ED
330
92C
100
AcDbEntity
  8
0
 62
     7
100
AcDbVertex
100
AcDbPolyFaceMeshVertex
 10
0.3772753881747803
 20
-5.878069400787352
 30
16.50913992559901
 70
   192
  0
VERTEX
  5
9EE
330
92C
100
AcDbEntity
  8
0
 62
     7
100
AcDbVertex
100
AcDbPolyFaceMeshVertex
 10
0.3772753881747803
 20
-3.132619857788084
 30
16.50913992559901
 70
   192
  0
VERTEX
  5
9EF
330
92C
100
AcDbEntity
  8
0
 62
     7
100
AcDbVertex
100
AcDbPolyFaceMeshVertex
 10
0.5937499212558297
 20
-3.349094629287718
 30
16.73683348333828
 70
   192
  0
VERTEX
  5
9F0
330
92C
100
AcDbEntity
  8
0
 62
     7
100
AcDbVertex
100
AcDbPolyFaceMeshVertex
 10
0.5937499212558297
 20
-5.661594867706297
 30
16.73683348333828
 70
   192
  0
VERTEX
  5
9F1
330
92C
100
AcDbEntity
  8
0
 62
     7
100
AcDbVertex
100
AcDbPolyFaceMeshVertex
 10
0.5937499212558297
 20
-5.661594867706297
 30
16.92433348333828
 70
   192
  0
VERTEX
  5
9F2
330
92C
100
AcDbEntity
  8
0
 62
     7
100
AcDbVertex
100
AcDbPolyFaceMeshVertex
 10
0.5937499212558297
 20
-3.349094629287718
 30
16.92433348333828
 70
   192
  0
VERTEX
  5
9F3
330
92C
100
AcDbEntity
  8
0
 62
     7
100
AcDbVertex
100
AcDbPolyFaceMeshVertex
 10
0.7327708410556398
 20
-5.522573471069335
 30
17.10667601263515
 70
   192
  0
VERTEX
  5
9F4
330
92C
100
AcDbEntity
  8
0
 62
     7
100
AcDbVertex
100
AcDbPolyFaceMeshVertex
 10
0.7327708410556398
 20
-3.488115787506103
 30
17.10667601263515
 70
   192
  0
VERTEX
  5
9F5
330
92C
100
AcDbEntity
  8
0
 62
     7
100
AcDbVertex
100
AcDbPolyFaceMeshVertex
 10
0.7327708410556398
 20
-5.522573471069335
 30
17.55449286139002
 70
   192
  0
VERTEX
  5
9F6
330
92C
100
AcDbEntity
  8
0
 62
     7
100
AcDbVertex
100
AcDbPolyFaceMeshVertex
 10
0.5937499212558297
 20
-5.661594867706297
 30
17.73683348333827
 70
   192
  0
VERTEX
  5
9F7
330
92C
100
AcDbEntity
  8
0
 62
     7
100
AcDbVertex
100
AcDbPolyFaceMeshVertex
 10
0.7327708410556398
 20
-3.488115787506103
 30
17.55449286139002
 70
   192
  0
VERTEX
  5
9F8
330
92C
100
AcDbEntity
  8
0
 62
     7
100
AcDbVertex
100
AcDbPolyFaceMeshVertex
 10
0.7696723150546579
 20
-5.485672473907469
 30
17.44523039495937
 70
   192
  0
VERTEX
  5
9F9
330
92C
100
AcDbEntity
  8
0
 62
     7
100
AcDbVertex
100
AcDbPolyFaceMeshVertex
 10
0.782168309622529
 20
-3.537513017654417
 30
17.33058348333828
 70
   192
  0
VERTEX
  5
9FA
330
92C
100
AcDbEntity
  8
0
 62
     7
100
AcDbVertex
100
AcDbPolyFaceMeshVertex
 10
0.782168309622529
 20
-5.473176479339598
 30
17.33058348333828
 70
   192
  0
VERTEX
  5
9FB
330
92C
100
AcDbEntity
  8
0
 62
     7
100
AcDbVertex
100
AcDbPolyFaceMeshVertex
 10
0.7696723150546579
 20
-3.525017023086546
 30
17.44523039495937
 70
   192
  0
VERTEX
  5
9FC
330
92C
100
AcDbEntity
  8
0
 62
     7
100
AcDbVertex
100
AcDbPolyFaceMeshVertex
 10
0.7696723150546579
 20
-5.485672473907469
 30
17.21593847906581
 70
   192
  0
VERTEX
  5
9FD
330
92C
100
AcDbEntity
  8
0
 62
     7
100
AcDbVertex
100
AcDbPolyFaceMeshVertex
 10
0.7696723150546579
 20
-3.525017023086546
 30
17.21593847906581
 70
   192
  0
VERTEX
  5
9FE
330
92C
100
AcDbEntity
  8
0
 62
     7
100
AcDbVertex
100
AcDbPolyFaceMeshVertex
 10
0.5937499212558297
 20
-3.349094629287718
 30
17.73683348333827
 70
   192
  0
VERTEX
  5
9FF
330
92C
100
AcDbEntity
  8
0
 62
     7
100
AcDbVertex
100
AcDbPolyFaceMeshVertex
 10
0.5937499212558297
 20
-5.661594867706297
 30
17.92433348333826
 70
   192
  0
VERTEX
  5
A00
330
92C
100
AcDbEntity
  8
0
 62
     7
100
AcDbVertex
100
AcDbPolyFaceMeshVertex
 10
0.5937499212558297
 20
-3.349094629287718
 30
17.92433348333826
 70
   192
  0
VERTEX
  5
A01
330
92C
100
AcDbEntity
  8
0
 62
     7
100
AcDbVertex
100
AcDbPolyFaceMeshVertex
 10
0.2502049612338606
 20
-6.005139350891112
 30
18.47445288336269
 70
   192
  0
VERTEX
  5
A02
330
92C
100
AcDbEntity
  8
0
 62
     7
100
AcDbVertex
100
AcDbPolyFaceMeshVertex
 10
0.2502049612338606
 20
-3.005549907684326
 30
18.47445288336269
 70
   192
  0
VERTEX
  5
A03
330
92C
100
AcDbEntity
  8
0
 62
     7
100
AcDbVertex
100
AcDbPolyFaceMeshVertex
 10
0.2502049612338606
 20
-6.005139350891112
 30
19.74921599066249
 70
   192
  0
VERTEX
  5
A04
330
92C
100
AcDbEntity
  8
0
 62
     7
100
AcDbVertex
100
AcDbPolyFaceMeshVertex
 10
0.5937499212558297
 20
-5.661594867706297
 30
20.29933348333828
 70
   192
  0
VERTEX
  5
A05
330
92C
100
AcDbEntity
  8
0
 62
     7
100
AcDbVertex
100
AcDbPolyFaceMeshVertex
 10
0.2502049612338606
 20
-3.005549907684326
 30
19.74921599066249
 70
   192
  0
VERTEX
  5
A06
330
92C
100
AcDbEntity
  8
0
 62
     7
100
AcDbVertex
100
AcDbPolyFaceMeshVertex
 10
0.1302146124179409
 20
-6.125130176544188
 30
19.11183348333828
 70
   192
  0
VERTEX
  5
A07
330
92C
100
AcDbEntity
  8
0
 62
     7
100
AcDbVertex
100
AcDbPolyFaceMeshVertex
 10
0.1302146124179409
 20
-2.88555908203125
 30
19.11183348333828
 70
   192
  0
VERTEX
  5
A08
330
92C
100
AcDbEntity
  8
0
 62
     7
100
AcDbVertex
100
AcDbPolyFaceMeshVertex
 10
0.5937499212558297
 20
-3.349094629287718
 30
20.29933348333828
 70
   192
  0
VERTEX
  5
A09
330
92C
100
AcDbEntity
  8
0
 62
     7
100
AcDbVertex
100
AcDbPolyFaceMeshVertex
 10
0.5937499212558297
 20
-5.661594867706297
 30
20.48683348333828
 70
   192
  0
VERTEX
  5
A0A
330
92C
100
AcDbEntity
  8
0
 62
     7
100
AcDbVertex
100
AcDbPolyFaceMeshVertex
 10
0.5937499212558297
 20
-3.349094629287718
 30
20.48683348333828
 70
   192
  0
VERTEX
  5
A0B
330
92C
100
AcDbEntity
  8
0
 62
     7
100
AcDbVertex
100
AcDbPolyFaceMeshVertex
 10
0.7264908956820993
 20
-5.528853893280028
 30
20.6879252496957
 70
   192
  0
VERTEX
  5
A0C
330
92C
100
AcDbEntity
  8
0
 62
     7
100
AcDbVertex
100
AcDbPolyFaceMeshVertex
 10
0.7264908956820993
 20
-3.48183536529541
 30
20.6879252496957
 70
   192
  0
VERTEX
  5
A0D
330
92C
100
AcDbEntity
  8
0
 62
     7
100
AcDbVertex
100
AcDbPolyFaceMeshVertex
 10
0.7264908956820993
 20
-5.528853893280028
 30
21.16074362432949
 70
   192
  0
VERTEX
  5
A0E
330
92C
100
AcDbEntity
  8
0
 62
     7
100
AcDbVertex
100
AcDbPolyFaceMeshVertex
 10
0.5937499212558297
 20
-5.661594867706297
 30
21.36183348333828
 70
   192
  0
VERTEX
  5
A0F
330
92C
100
AcDbEntity
  8
0
 62
     7
100
AcDbVertex
100
AcDbPolyFaceMeshVertex
 10
0.7264908956820993
 20
-3.48183536529541
 30
21.16074362432949
 70
   192
  0
VERTEX
  5
A10
330
92C
100
AcDbEntity
  8
0
 62
     7
100
AcDbVertex
100
AcDbPolyFaceMeshVertex
 10
0.7613038229282001
 20
-5.494040489196777
 30
21.04480925238124
 70
   192
  0
VERTEX
  5
A11
330
92C
100
AcDbEntity
  8
0
 62
     7
100
AcDbVertex
100
AcDbPolyFaceMeshVertex
 10
0.7730559515292708
 20
-3.528401136398314
 30
20.92433348333828
 70
   192
  0
VERTEX
  5
A12
330
92C
100
AcDbEntity
  8
0
 62
     7
100
AcDbVertex
100
AcDbPolyFaceMeshVertex
 10
0.7730559515292708
 20
-5.482287883758544
 30
20.92433348333828
 70
   192
  0
VERTEX
  5
A13
330
92C
100
AcDbEntity
  8
0
 62
     7
100
AcDbVertex
100
AcDbPolyFaceMeshVertex
 10
0.7613038229282001
 20
-3.516649007797241
 30
21.04480925238124
 70
   192
  0
VERTEX
  5
A14
330
92C
100
AcDbEntity
  8
0
 62
     7
100
AcDbVertex
100
AcDbPolyFaceMeshVertex
 10
0.7613038229282001
 20
-5.494040489196777
 30
20.80385771429531
 70
   192
  0
VERTEX
  5
A15
330
92C
100
AcDbEntity
  8
0
 62
     7
100
AcDbVertex
100
AcDbPolyFaceMeshVertex
 10
0.7613038229282001
 20
-3.516649007797241
 30
20.80385771429531
 70
   192
  0
VERTEX
  5
A16
330
92C
100
AcDbEntity
  8
0
 62
     7
100
AcDbVertex
100
AcDbPolyFaceMeshVertex
 10
0.5937499212558297
 20
-3.349094629287718
 30
21.36183348333828
 70
   192
  0
VERTEX
  5
A17
330
92C
100
AcDbEntity
  8
0
 62
     7
100
AcDbVertex
100
AcDbPolyFaceMeshVertex
 10
0.5937499212558297
 20
-5.661594867706297
 30
21.54933348333828
 70
   192
  0
VERTEX
  5
A18
330
92C
100
AcDbEntity
  8
0
 62
     7
100
AcDbVertex
100
AcDbPolyFaceMeshVertex
 10
0.5937499212558297
 20
-3.349094629287718
 30
21.54933348333828
 70
   192
  0
VERTEX
  5
A19
330
92C
100
AcDbEntity
  8
0
 62
     7
100
AcDbVertex
100
AcDbPolyFaceMeshVertex
 10
0.3643464254672608
 20
-5.890998363494872
 30
21.80209341680996
 70
   192
  0
VERTEX
  5
A1A
330
92C
100
AcDbEntity
  8
0
 62
     7
100
AcDbVertex
100
AcDbPolyFaceMeshVertex
 10
0.3643464254672608
 20
-3.119691133499145
 30
21.80209341680996
 70
   192
  0
VERTEX
  5
A1B
330
92C
100
AcDbEntity
  8
0
 62
     7
100
AcDbVertex
100
AcDbPolyFaceMeshVertex
 10
0.1921290563876692
 20
-6.063215732574462
 30
22.26192846930019
 70
   192
  0
VERTEX
  5
A1C
330
92C
100
AcDbEntity
  8
0
 62
     7
100
AcDbVertex
100
AcDbPolyFaceMeshVertex
 10
0.1921290563876692
 20
-2.947473764419555
 30
22.26192846930019
 70
   192
  0
VERTEX
  5
A1D
330
92C
100
AcDbEntity
  8
0
 62
     7
100
AcDbVertex
100
AcDbPolyFaceMeshVertex
 10
0.1931056188876692
 20
-2.948450326919555
 30
22.09125509893886
 70
   192
  0
VERTEX
  5
A1E
330
92C
100
AcDbEntity
  8
0
 62
     7
100
AcDbVertex
100
AcDbPolyFaceMeshVertex
 10
0.1931056188876692
 20
-6.062238693237303
 30
22.09125509893886
 70
   192
  0
VERTEX
  5
A1F
330
92C
100
AcDbEntity
  8
0
 62
     7
100
AcDbVertex
100
AcDbPolyFaceMeshVertex
 10
0.2529668020541695
 20
-6.002377510070799
 30
21.93141928350917
 70
   192
  0
VERTEX
  5
A20
330
92C
100
AcDbEntity
  8
0
 62
     7
100
AcDbVertex
100
AcDbPolyFaceMeshVertex
 10
0.2529668020541695
 20
-3.008311748504638
 30
21.93141928350917
 70
   192
  0
VERTEX
  5
A21
330
92C
100
AcDbEntity
  8
0
 62
     7
100
AcDbVertex
100
AcDbPolyFaceMeshVertex
 10
0.2501572775180403
 20
-3.005501985549926
 30
22.42243948614589
 70
   192
  0
VERTEX
  5
A22
330
92C
100
AcDbEntity
  8
0
 62
     7
100
AcDbVertex
100
AcDbPolyFaceMeshVertex
 10
0.2501572775180403
 20
-6.00518751144409
 30
22.42243948614589
 70
   192
  0
VERTEX
  5
A23
330
92C
100
AcDbEntity
  8
0
 62
     7
100
AcDbVertex
100
AcDbPolyFaceMeshVertex
 10
0.3859709905917707
 20
-5.869373321533202
 30
22.68922415411464
 70
   192
  0
VERTEX
  5
A24
330
92C
100
AcDbEntity
  8
0
 62
     7
100
AcDbVertex
100
AcDbPolyFaceMeshVertex
 10
0.3859709905917707
 20
-3.141315698623656
 30
22.68922415411464
 70
   192
  0
VERTEX
  5
A25
330
92C
100
AcDbEntity
  8
0
 62
     7
100
AcDbVertex
100
AcDbPolyFaceMeshVertex
 10
0.4358166860873709
 20
-3.191162109375
 30
22.98440924322597
 70
   192
  0
VERTEX
  5
A26
330
92C
100
AcDbEntity
  8
0
 62
     7
100
AcDbVertex
100
AcDbPolyFaceMeshVertex
 10
0.4358166860873709
 20
-5.819527149200438
 30
22.98440924322597
 70
   192
  0
VERTEX
  5
A27
330
92C
100
AcDbEntity
  8
0
 62
     7
100
AcDbVertex
100
AcDbPolyFaceMeshVertex
 10
0.2933892416293702
 20
-5.961955547332762
 30
23.2684859338998
 70
   192
  0
VERTEX
  5
A28
330
92C
100
AcDbEntity
  8
0
 62
     7
100
AcDbVertex
100
AcDbPolyFaceMeshVertex
 10
0.2933892416293702
 20
-3.048733711242674
 30
23.2684859338998
 70
   192
  0
VERTEX
  5
A29
330
92C
100
AcDbEntity
  8
0
 62
     7
100
AcDbVertex
100
AcDbPolyFaceMeshVertex
 10
0.0624999212558297
 20
-2.817844629287718
 30
23.48683348333828
 70
   192
  0
VERTEX
  5
A2A
330
92C
100
AcDbEntity
  8
0
 62
     7
100
AcDbVertex
100
AcDbPolyFaceMeshVertex
 10
0.0624999212558297
 20
-6.192844867706297
 30
23.48683348333828
 70
   192
  0
VERTEX
  5
A2B
330
92C
100
AcDbEntity
  8
0
 62
     7
100
AcDbVertex
100
AcDbPolyFaceMeshVertex
 10
0.0624999212558297
 20
-6.192844867706297
 30
23.96990576422207
 70
   192
  0
VERTEX
  5
A2C
330
92C
100
AcDbEntity
  8
0
 62
     7
100
AcDbVertex
100
AcDbPolyFaceMeshVertex
 10
0.0624999212558297
 20
-2.817844629287718
 30
23.96990576422207
 70
   192
  0
VERTEX
  5
A2D
330
92C
100
AcDbEntity
  8
0
 62
     7
100
AcDbFaceRecord
 10
0.0
 20
0.0
 30
0.0
 70
   128
 71
     1
 72
     2
 73
     3
  0
VERTEX
  5
A2E
330
92C
100
AcDbEntity
  8
0
 62
     7
100
AcDbFaceRecord
 10
0.0
 20
0.0
 30
0.0
 70
   128
 71
     4
 72
     1
 73
     3
  0
VERTEX
  5
A2F
330
92C
100
AcDbEntity
  8
0
 62
     7
100
AcDbFaceRecord
 10
0.0
 20
0.0
 30
0.0
 70
   128
 71
     5
 72
     6
 73
     1
  0
VERTEX
  5
A30
330
92C
100
AcDbEntity
  8
0
 62
     7
100
AcDbFaceRecord
 10
0.0
 20
0.0
 30
0.0
 70
   128
 71
     4
 72
     5
 73
     1
  0
VERTEX
  5
A31
330
92C
100
AcDbEntity
  8
0
 62
     7
100
AcDbFaceRecord
 10
0.0
 20
0.0
 30
0.0
 70
   128
 71
     7
 72
     8
 73
     9
  0
VERTEX
  5
A32
330
92C
100
AcDbEntity
  8
0
 62
     7
100
AcDbFaceRecord
 10
0.0
 20
0.0
 30
0.0
 70
   128
 71
    10
 72
     7
 73
     9
  0
VERTEX
  5
A33
330
92C
100
AcDbEntity
  8
0
 62
     7
100
AcDbFaceRecord
 10
0.0
 20
0.0
 30
0.0
 70
   128
 71
    11
 72
     6
 73
     5
  0
VERTEX
  5
A34
330
92C
100
AcDbEntity
  8
0
 62
     7
100
AcDbFaceRecord
 10
0.0
 20
0.0
 30
0.0
 70
   128
 71
    12
 72
    11
 73
     5
  0
VERTEX
  5
A35
330
92C
100
AcDbEntity
  8
0
 62
     7
100
AcDbFaceRecord
 10
0.0
 20
0.0
 30
0.0
 70
   128
 71
    13
 72
    14
 73
    15
  0
VERTEX
  5
A36
330
92C
100
AcDbEntity
  8
0
 62
     7
100
AcDbFaceRecord
 10
0.0
 20
0.0
 30
0.0
 70
   128
 71
    16
 72
    14
 73
    13
  0
VERTEX
  5
A37
330
92C
100
AcDbEntity
  8
0
 62
     7
100
AcDbFaceRecord
 10
0.0
 20
0.0
 30
0.0
 70
   128
 71
    17
 72
    16
 73
    13
  0
VERTEX
  5
A38
330
92C
100
AcDbEntity
  8
0
 62
     7
100
AcDbFaceRecord
 10
0.0
 20
0.0
 30
0.0
 70
   128
 71
    18
 72
    19
 73
    17
  0
VERTEX
  5
A39
330
92C
100
AcDbEntity
  8
0
 62
     7
100
AcDbFaceRecord
 10
0.0
 20
0.0
 30
0.0
 70
   128
 71
    20
 72
    18
 73
    17
  0
VERTEX
  5
A3A
330
92C
100
AcDbEntity
  8
0
 62
     7
100
AcDbFaceRecord
 10
0.0
 20
0.0
 30
0.0
 70
   128
 71
    20
 72
    17
 73
    13
  0
VERTEX
  5
A3B
330
92C
100
AcDbEntity
  8
0
 62
     7
100
AcDbFaceRecord
 10
0.0
 20
0.0
 30
0.0
 70
   128
 71
    11
 72
    15
 73
    14
  0
VERTEX
  5
A3C
330
92C
100
AcDbEntity
  8
0
 62
     7
100
AcDbFaceRecord
 10
0.0
 20
0.0
 30
0.0
 70
   128
 71
    12
 72
    15
 73
    11
  0
VERTEX
  5
A3D
330
92C
100
AcDbEntity
  8
0
 62
     7
100
AcDbFaceRecord
 10
0.0
 20
0.0
 30
0.0
 70
   128
 71
    21
 72
    19
 73
    18
  0
VERTEX
  5
A3E
330
92C
100
AcDbEntity
  8
0
 62
     7
100
AcDbFaceRecord
 10
0.0
 20
0.0
 30
0.0
 70
   128
 71
    22
 72
    21
 73
    18
  0
VERTEX
  5
A3F
330
92C
100
AcDbEntity
  8
0
 62
     7
100
AcDbFaceRecord
 10
0.0
 20
0.0
 30
0.0
 70
   128
 71
    23
 72
    24
 73
    25
  0
VERTEX
  5
A40
330
92C
100
AcDbEntity
  8
0
 62
     7
100
AcDbFaceRecord
 10
0.0
 20
0.0
 30
0.0
 70
   128
 71
    26
 72
    21
 73
    27
  0
VERTEX
  5
A41
330
92C
100
AcDbEntity
  8
0
 62
     7
100
AcDbFaceRecord
 10
0.0
 20
0.0
 30
0.0
 70
   128
 71
    28
 72
    26
 73
    27
  0
VERTEX
  5
A42
330
92C
100
AcDbEntity
  8
0
 62
     7
100
AcDbFaceRecord
 10
0.0
 20
0.0
 30
0.0
 70
   128
 71
    29
 72
    30
 73
    31
  0
VERTEX
  5
A43
330
92C
100
AcDbEntity
  8
0
 62
     7
100
AcDbFaceRecord
 10
0.0
 20
0.0
 30
0.0
 70
   128
 71
    32
 72
    30
 73
    29
  0
VERTEX
  5
A44
330
92C
100
AcDbEntity
  8
0
 62
     7
100
AcDbFaceRecord
 10
0.0
 20
0.0
 30
0.0
 70
   128
 71
    33
 72
    23
 73
    25
  0
VERTEX
  5
A45
330
92C
100
AcDbEntity
  8
0
 62
     7
100
AcDbFaceRecord
 10
0.0
 20
0.0
 30
0.0
 70
   128
 71
    34
 72
    24
 73
    23
  0
VERTEX
  5
A46
330
92C
100
AcDbEntity
  8
0
 62
     7
100
AcDbFaceRecord
 10
0.0
 20
0.0
 30
0.0
 70
   128
 71
    32
 72
    34
 73
    23
  0
VERTEX
  5
A47
330
92C
100
AcDbEntity
  8
0
 62
     7
100
AcDbFaceRecord
 10
0.0
 20
0.0
 30
0.0
 70
   128
 71
    34
 72
    32
 73
    29
  0
VERTEX
  5
A48
330
92C
100
AcDbEntity
  8
0
 62
     7
100
AcDbFaceRecord
 10
0.0
 20
0.0
 30
0.0
 70
   128
 71
    28
 72
    31
 73
    30
  0
VERTEX
  5
A49
330
92C
100
AcDbEntity
  8
0
 62
     7
100
AcDbFaceRecord
 10
0.0
 20
0.0
 30
0.0
 70
   128
 71
    31
 72
    28
 73
    27
  0
VERTEX
  5
A4A
330
92C
100
AcDbEntity
  8
0
 62
     7
100
AcDbFaceRecord
 10
0.0
 20
0.0
 30
0.0
 70
   128
 71
    22
 72
    27
 73
    21
  0
VERTEX
  5
A4B
330
92C
100
AcDbEntity
  8
0
 62
     7
100
AcDbFaceRecord
 10
0.0
 20
0.0
 30
0.0
 70
   128
 71
    35
 72
    33
 73
    25
  0
VERTEX
  5
A4C
330
92C
100
AcDbEntity
  8
0
 62
     7
100
AcDbFaceRecord
 10
0.0
 20
0.0
 30
0.0
 70
   128
 71
    36
 72
    35
 73
    25
  0
VERTEX
  5
A4D
330
92C
100
AcDbEntity
  8
0
 62
     7
100
AcDbFaceRecord
 10
0.0
 20
0.0
 30
0.0
 70
   128
 71
    37
 72
    38
 73
    39
  0
VERTEX
  5
A4E
330
92C
100
AcDbEntity
  8
0
 62
     7
100
AcDbFaceRecord
 10
0.0
 20
0.0
 30
0.0
 70
   128
 71
    40
 72
    41
 73
    42
  0
VERTEX
  5
A4F
330
92C
100
AcDbEntity
  8
0
 62
     7
100
AcDbFaceRecord
 10
0.0
 20
0.0
 30
0.0
 70
   128
 71
    43
 72
    41
 73
    40
  0
VERTEX
  5
A50
330
92C
100
AcDbEntity
  8
0
 62
     7
100
AcDbFaceRecord
 10
0.0
 20
0.0
 30
0.0
 70
   128
 71
    44
 72
    43
 73
    40
  0
VERTEX
  5
A51
330
92C
100
AcDbEntity
  8
0
 62
     7
100
AcDbFaceRecord
 10
0.0
 20
0.0
 30
0.0
 70
   128
 71
    45
 72
    37
 73
    39
  0
VERTEX
  5
A52
330
92C
100
AcDbEntity
  8
0
 62
     7
100
AcDbFaceRecord
 10
0.0
 20
0.0
 30
0.0
 70
   128
 71
    46
 72
    47
 73
    45
  0
VERTEX
  5
A53
330
92C
100
AcDbEntity
  8
0
 62
     7
100
AcDbFaceRecord
 10
0.0
 20
0.0
 30
0.0
 70
   128
 71
    46
 72
    45
 73
    39
  0
VERTEX
  5
A54
330
92C
100
AcDbEntity
  8
0
 62
     7
100
AcDbFaceRecord
 10
0.0
 20
0.0
 30
0.0
 70
   128
 71
    48
 72
    38
 73
    37
  0
VERTEX
  5
A55
330
92C
100
AcDbEntity
  8
0
 62
     7
100
AcDbFaceRecord
 10
0.0
 20
0.0
 30
0.0
 70
   128
 71
    44
 72
    48
 73
    37
  0
VERTEX
  5
A56
330
92C
100
AcDbEntity
  8
0
 62
     7
100
AcDbFaceRecord
 10
0.0
 20
0.0
 30
0.0
 70
   128
 71
    48
 72
    44
 73
    40
  0
VERTEX
  5
A57
330
92C
100
AcDbEntity
  8
0
 62
     7
100
AcDbFaceRecord
 10
0.0
 20
0.0
 30
0.0
 70
   128
 71
    35
 72
    42
 73
    41
  0
VERTEX
  5
A58
330
92C
100
AcDbEntity
  8
0
 62
     7
100
AcDbFaceRecord
 10
0.0
 20
0.0
 30
0.0
 70
   128
 71
    36
 72
    42
 73
    35
  0
VERTEX
  5
A59
330
92C
100
AcDbEntity
  8
0
 62
     7
100
AcDbFaceRecord
 10
0.0
 20
0.0
 30
0.0
 70
   128
 71
    49
 72
    47
 73
    46
  0
VERTEX
  5
A5A
330
92C
100
AcDbEntity
  8
0
 62
     7
100
AcDbFaceRecord
 10
0.0
 20
0.0
 30
0.0
 70
   128
 71
    50
 72
    49
 73
    46
  0
VERTEX
  5
A5B
330
92C
100
AcDbEntity
  8
0
 62
     7
100
AcDbFaceRecord
 10
0.0
 20
0.0
 30
0.0
 70
   128
 71
    51
 72
    52
 73
    49
  0
VERTEX
  5
A5C
330
92C
100
AcDbEntity
  8
0
 62
     7
100
AcDbFaceRecord
 10
0.0
 20
0.0
 30
0.0
 70
   128
 71
    50
 72
    51
 73
    49
  0
VERTEX
  5
A5D
330
92C
100
AcDbEntity
  8
0
 62
     7
100
AcDbFaceRecord
 10
0.0
 20
0.0
 30
0.0
 70
   128
 71
    53
 72
    54
 73
    55
  0
VERTEX
  5
A5E
330
92C
100
AcDbEntity
  8
0
 62
     7
100
AcDbFaceRecord
 10
0.0
 20
0.0
 30
0.0
 70
   128
 71
    56
 72
    54
 73
    53
  0
VERTEX
  5
A5F
330
92C
100
AcDbEntity
  8
0
 62
     7
100
AcDbFaceRecord
 10
0.0
 20
0.0
 30
0.0
 70
   128
 71
    51
 72
    55
 73
    54
  0
VERTEX
  5
A60
330
92C
100
AcDbEntity
  8
0
 62
     7
100
AcDbFaceRecord
 10
0.0
 20
0.0
 30
0.0
 70
   128
 71
    52
 72
    51
 73
    54
  0
VERTEX
  5
A61
330
92C
100
AcDbEntity
  8
0
 62
     7
100
AcDbFaceRecord
 10
0.0
 20
0.0
 30
0.0
 70
   128
 71
    57
 72
    56
 73
    53
  0
VERTEX
  5
A62
330
92C
100
AcDbEntity
  8
0
 62
     7
100
AcDbFaceRecord
 10
0.0
 20
0.0
 30
0.0
 70
   128
 71
    58
 72
    57
 73
    53
  0
VERTEX
  5
A63
330
92C
100
AcDbEntity
  8
0
 62
     7
100
AcDbFaceRecord
 10
0.0
 20
0.0
 30
0.0
 70
   128
 71
    59
 72
    60
 73
    57
  0
VERTEX
  5
A64
330
92C
100
AcDbEntity
  8
0
 62
     7
100
AcDbFaceRecord
 10
0.0
 20
0.0
 30
0.0
 70
   128
 71
    58
 72
    59
 73
    57
  0
VERTEX
  5
A65
330
92C
100
AcDbEntity
  8
0
 62
     7
100
AcDbFaceRecord
 10
0.0
 20
0.0
 30
0.0
 70
   128
 71
    61
 72
    60
 73
    59
  0
VERTEX
  5
A66
330
92C
100
AcDbEntity
  8
0
 62
     7
100
AcDbFaceRecord
 10
0.0
 20
0.0
 30
0.0
 70
   128
 71
    62
 72
    61
 73
    59
  0
VERTEX
  5
A67
330
92C
100
AcDbEntity
  8
0
 62
     7
100
AcDbFaceRecord
 10
0.0
 20
0.0
 30
0.0
 70
   128
 71
    63
 72
    61
 73
    64
  0
VERTEX
  5
A68
330
92C
100
AcDbEntity
  8
0
 62
     7
100
AcDbFaceRecord
 10
0.0
 20
0.0
 30
0.0
 70
   128
 71
    65
 72
    63
 73
    64
  0
VERTEX
  5
A69
330
92C
100
AcDbEntity
  8
0
 62
     7
100
AcDbFaceRecord
 10
0.0
 20
0.0
 30
0.0
 70
   128
 71
    66
 72
    65
 73
    64
  0
VERTEX
  5
A6A
330
92C
100
AcDbEntity
  8
0
 62
     7
100
AcDbFaceRecord
 10
0.0
 20
0.0
 30
0.0
 70
   128
 71
    62
 72
    64
 73
    61
  0
VERTEX
  5
A6B
330
92C
100
AcDbEntity
  8
0
 62
     7
100
AcDbFaceRecord
 10
0.0
 20
0.0
 30
0.0
 70
   128
 71
    67
 72
    65
 73
    66
  0
VERTEX
  5
A6C
330
92C
100
AcDbEntity
  8
0
 62
     7
100
AcDbFaceRecord
 10
0.0
 20
0.0
 30
0.0
 70
   128
 71
    68
 72
    67
 73
    66
  0
VERTEX
  5
A6D
330
92C
100
AcDbEntity
  8
0
 62
     7
100
AcDbFaceRecord
 10
0.0
 20
0.0
 30
0.0
 70
   128
 71
    69
 72
    70
 73
    71
  0
VERTEX
  5
A6E
330
92C
100
AcDbEntity
  8
0
 62
     7
100
AcDbFaceRecord
 10
0.0
 20
0.0
 30
0.0
 70
   128
 71
    72
 72
    67
 73
    73
  0
VERTEX
  5
A6F
330
92C
100
AcDbEntity
  8
0
 62
     7
100
AcDbFaceRecord
 10
0.0
 20
0.0
 30
0.0
 70
   128
 71
    74
 72
    72
 73
    73
  0
VERTEX
  5
A70
330
92C
100
AcDbEntity
  8
0
 62
     7
100
AcDbFaceRecord
 10
0.0
 20
0.0
 30
0.0
 70
   128
 71
    75
 72
    76
 73
    77
  0
VERTEX
  5
A71
330
92C
100
AcDbEntity
  8
0
 62
     7
100
AcDbFaceRecord
 10
0.0
 20
0.0
 30
0.0
 70
   128
 71
    78
 72
    76
 73
    75
  0
VERTEX
  5
A72
330
92C
100
AcDbEntity
  8
0
 62
     7
100
AcDbFaceRecord
 10
0.0
 20
0.0
 30
0.0
 70
   128
 71
    79
 72
    69
 73
    71
  0
VERTEX
  5
A73
330
92C
100
AcDbEntity
  8
0
 62
     7
100
AcDbFaceRecord
 10
0.0
 20
0.0
 30
0.0
 70
   128
 71
    80
 72
    70
 73
    69
  0
VERTEX
  5
A74
330
92C
100
AcDbEntity
  8
0
 62
     7
100
AcDbFaceRecord
 10
0.0
 20
0.0
 30
0.0
 70
   128
 71
    78
 72
    80
 73
    69
  0
VERTEX
  5
A75
330
92C
100
AcDbEntity
  8
0
 62
     7
100
AcDbFaceRecord
 10
0.0
 20
0.0
 30
0.0
 70
   128
 71
    80
 72
    78
 73
    75
  0
VERTEX
  5
A76
330
92C
100
AcDbEntity
  8
0
 62
     7
100
AcDbFaceRecord
 10
0.0
 20
0.0
 30
0.0
 70
   128
 71
    74
 72
    77
 73
    76
  0
VERTEX
  5
A77
330
92C
100
AcDbEntity
  8
0
 62
     7
100
AcDbFaceRecord
 10
0.0
 20
0.0
 30
0.0
 70
   128
 71
    77
 72
    74
 73
    73
  0
VERTEX
  5
A78
330
92C
100
AcDbEntity
  8
0
 62
     7
100
AcDbFaceRecord
 10
0.0
 20
0.0
 30
0.0
 70
   128
 71
    68
 72
    73
 73
    67
  0
VERTEX
  5
A79
330
92C
100
AcDbEntity
  8
0
 62
     7
100
AcDbFaceRecord
 10
0.0
 20
0.0
 30
0.0
 70
   128
 71
    81
 72
    79
 73
    71
  0
VERTEX
  5
A7A
330
92C
100
AcDbEntity
  8
0
 62
     7
100
AcDbFaceRecord
 10
0.0
 20
0.0
 30
0.0
 70
   128
 71
    82
 72
    81
 73
    71
  0
VERTEX
  5
A7B
330
92C
100
AcDbEntity
  8
0
 62
     7
100
AcDbFaceRecord
 10
0.0
 20
0.0
 30
0.0
 70
   128
 71
    83
 72
    84
 73
    85
  0
VERTEX
  5
A7C
330
92C
100
AcDbEntity
  8
0
 62
     7
100
AcDbFaceRecord
 10
0.0
 20
0.0
 30
0.0
 70
   128
 71
    86
 72
    81
 73
    87
  0
VERTEX
  5
A7D
330
92C
100
AcDbEntity
  8
0
 62
     7
100
AcDbFaceRecord
 10
0.0
 20
0.0
 30
0.0
 70
   128
 71
    88
 72
    86
 73
    87
  0
VERTEX
  5
A7E
330
92C
100
AcDbEntity
  8
0
 62
     7
100
AcDbFaceRecord
 10
0.0
 20
0.0
 30
0.0
 70
   128
 71
    89
 72
    83
 73
    85
  0
VERTEX
  5
A7F
330
92C
100
AcDbEntity
  8
0
 62
     7
100
AcDbFaceRecord
 10
0.0
 20
0.0
 30
0.0
 70
   128
 71
    90
 72
    84
 73
    83
  0
VERTEX
  5
A80
330
92C
100
AcDbEntity
  8
0
 62
     7
100
AcDbFaceRecord
 10
0.0
 20
0.0
 30
0.0
 70
   128
 71
    88
 72
    90
 73
    83
  0
VERTEX
  5
A81
330
92C
100
AcDbEntity
  8
0
 62
     7
100
AcDbFaceRecord
 10
0.0
 20
0.0
 30
0.0
 70
   128
 71
    90
 72
    88
 73
    87
  0
VERTEX
  5
A82
330
92C
100
AcDbEntity
  8
0
 62
     7
100
AcDbFaceRecord
 10
0.0
 20
0.0
 30
0.0
 70
   128
 71
    82
 72
    87
 73
    81
  0
VERTEX
  5
A83
330
92C
100
AcDbEntity
  8
0
 62
     7
100
AcDbFaceRecord
 10
0.0
 20
0.0
 30
0.0
 70
   128
 71
    91
 72
    89
 73
    85
  0
VERTEX
  5
A84
330
92C
100
AcDbEntity
  8
0
 62
     7
100
AcDbFaceRecord
 10
0.0
 20
0.0
 30
0.0
 70
   128
 71
    92
 72
    91
 73
    85
  0
VERTEX
  5
A85
330
92C
100
AcDbEntity
  8
0
 62
     7
100
AcDbFaceRecord
 10
0.0
 20
0.0
 30
0.0
 70
   128
 71
    93
 72
    94
 73
    95
  0
VERTEX
  5
A86
330
92C
100
AcDbEntity
  8
0
 62
     7
100
AcDbFaceRecord
 10
0.0
 20
0.0
 30
0.0
 70
   128
 71
    96
 72
    91
 73
    97
  0
VERTEX
  5
A87
330
92C
100
AcDbEntity
  8
0
 62
     7
100
AcDbFaceRecord
 10
0.0
 20
0.0
 30
0.0
 70
   128
 71
    98
 72
    96
 73
    97
  0
VERTEX
  5
A88
330
92C
100
AcDbEntity
  8
0
 62
     7
100
AcDbFaceRecord
 10
0.0
 20
0.0
 30
0.0
 70
   128
 71
    99
 72
   100
 73
   101
  0
VERTEX
  5
A89
330
92C
100
AcDbEntity
  8
0
 62
     7
100
AcDbFaceRecord
 10
0.0
 20
0.0
 30
0.0
 70
   128
 71
   102
 72
   100
 73
    99
  0
VERTEX
  5
A8A
330
92C
100
AcDbEntity
  8
0
 62
     7
100
AcDbFaceRecord
 10
0.0
 20
0.0
 30
0.0
 70
   128
 71
   103
 72
    93
 73
    95
  0
VERTEX
  5
A8B
330
92C
100
AcDbEntity
  8
0
 62
     7
100
AcDbFaceRecord
 10
0.0
 20
0.0
 30
0.0
 70
   128
 71
   104
 72
    94
 73
    93
  0
VERTEX
  5
A8C
330
92C
100
AcDbEntity
  8
0
 62
     7
100
AcDbFaceRecord
 10
0.0
 20
0.0
 30
0.0
 70
   128
 71
   102
 72
   104
 73
    93
  0
VERTEX
  5
A8D
330
92C
100
AcDbEntity
  8
0
 62
     7
100
AcDbFaceRecord
 10
0.0
 20
0.0
 30
0.0
 70
   128
 71
   104
 72
   102
 73
    99
  0
VERTEX
  5
A8E
330
92C
100
AcDbEntity
  8
0
 62
     7
100
AcDbFaceRecord
 10
0.0
 20
0.0
 30
0.0
 70
   128
 71
    98
 72
   101
 73
   100
  0
VERTEX
  5
A8F
330
92C
100
AcDbEntity
  8
0
 62
     7
100
AcDbFaceRecord
 10
0.0
 20
0.0
 30
0.0
 70
   128
 71
   101
 72
    98
 73
    97
  0
VERTEX
  5
A90
330
92C
100
AcDbEntity
  8
0
 62
     7
100
AcDbFaceRecord
 10
0.0
 20
0.0
 30
0.0
 70
   128
 71
    92
 72
    97
 73
    91
  0
VERTEX
  5
A91
330
92C
100
AcDbEntity
  8
0
 62
     7
100
AcDbFaceRecord
 10
0.0
 20
0.0
 30
0.0
 70
   128
 71
   105
 72
   103
 73
    95
  0
VERTEX
  5
A92
330
92C
100
AcDbEntity
  8
0
 62
     7
100
AcDbFaceRecord
 10
0.0
 20
0.0
 30
0.0
 70
   128
 71
   106
 72
   105
 73
    95
  0
VERTEX
  5
A93
330
92C
100
AcDbEntity
  8
0
 62
     7
100
AcDbFaceRecord
 10
0.0
 20
0.0
 30
0.0
 70
   128
 71
   107
 72
   105
 73
   106
  0
VERTEX
  5
A94
330
92C
100
AcDbEntity
  8
0
 62
     7
100
AcDbFaceRecord
 10
0.0
 20
0.0
 30
0.0
 70
   128
 71
   108
 72
   107
 73
   106
  0
VERTEX
  5
A95
330
92C
100
AcDbEntity
  8
0
 62
     7
100
AcDbFaceRecord
 10
0.0
 20
0.0
 30
0.0
 70
   128
 71
   109
 72
   110
 73
   111
  0
VERTEX
  5
A96
330
92C
100
AcDbEntity
  8
0
 62
     7
100
AcDbFaceRecord
 10
0.0
 20
0.0
 30
0.0
 70
   128
 71
   112
 72
   109
 73
   111
  0
VERTEX
  5
A97
330
92C
100
AcDbEntity
  8
0
 62
     7
100
AcDbFaceRecord
 10
0.0
 20
0.0
 30
0.0
 70
   128
 71
   113
 72
   112
 73
   114
  0
VERTEX
  5
A98
330
92C
100
AcDbEntity
  8
0
 62
     7
100
AcDbFaceRecord
 10
0.0
 20
0.0
 30
0.0
 70
   128
 71
   115
 72
   113
 73
   114
  0
VERTEX
  5
A99
330
92C
100
AcDbEntity
  8
0
 62
     7
100
AcDbFaceRecord
 10
0.0
 20
0.0
 30
0.0
 70
   128
 71
   116
 72
   115
 73
   114
  0
VERTEX
  5
A9A
330
92C
100
AcDbEntity
  8
0
 62
     7
100
AcDbFaceRecord
 10
0.0
 20
0.0
 30
0.0
 70
   128
 71
   114
 72
   112
 73
   111
  0
VERTEX
  5
A9B
330
92C
100
AcDbEntity
  8
0
 62
     7
100
AcDbFaceRecord
 10
0.0
 20
0.0
 30
0.0
 70
   128
 71
   108
 72
   110
 73
   109
  0
VERTEX
  5
A9C
330
92C
100
AcDbEntity
  8
0
 62
     7
100
AcDbFaceRecord
 10
0.0
 20
0.0
 30
0.0
 70
   128
 71
   107
 72
   108
 73
   109
  0
VERTEX
  5
A9D
330
92C
100
AcDbEntity
  8
0
 62
     7
100
AcDbFaceRecord
 10
0.0
 20
0.0
 30
0.0
 70
   128
 71
   117
 72
   115
 73
   118
  0
VERTEX
  5
A9E
330
92C
100
AcDbEntity
  8
0
 62
     7
100
AcDbFaceRecord
 10
0.0
 20
0.0
 30
0.0
 70
   128
 71
   119
 72
   117
 73
   118
  0
VERTEX
  5
A9F
330
92C
100
AcDbEntity
  8
0
 62
     7
100
AcDbFaceRecord
 10
0.0
 20
0.0
 30
0.0
 70
   128
 71
   120
 72
   119
 73
   118
  0
VERTEX
  5
AA0
330
92C
100
AcDbEntity
  8
0
 62
     7
100
AcDbFaceRecord
 10
0.0
 20
0.0
 30
0.0
 70
   128
 71
   116
 72
   118
 73
   115
  0
VERTEX
  5
AA1
330
92C
100
AcDbEntity
  8
0
 62
     7
100
AcDbFaceRecord
 10
0.0
 20
0.0
 30
0.0
 70
   128
 71
   121
 72
   119
 73
   122
  0
VERTEX
  5
AA2
330
92C
100
AcDbEntity
  8
0
 62
     7
100
AcDbFaceRecord
 10
0.0
 20
0.0
 30
0.0
 70
   128
 71
   123
 72
   121
 73
   122
  0
VERTEX
  5
AA3
330
92C
100
AcDbEntity
  8
0
 62
     7
100
AcDbFaceRecord
 10
0.0
 20
0.0
 30
0.0
 70
   128
 71
   124
 72
   123
 73
   122
  0
VERTEX
  5
AA4
330
92C
100
AcDbEntity
  8
0
 62
     7
100
AcDbFaceRecord
 10
0.0
 20
0.0
 30
0.0
 70
   128
 71
   120
 72
   122
 73
   119
  0
VERTEX
  5
AA5
330
92C
100
AcDbEntity
  8
0
 62
     7
100
AcDbFaceRecord
 10
0.0
 20
0.0
 30
0.0
 70
   128
 71
   125
 72
   123
 73
   124
  0
VERTEX
  5
AA6
330
92C
100
AcDbEntity
  8
0
 62
     7
100
AcDbFaceRecord
 10
0.0
 20
0.0
 30
0.0
 70
   128
 71
   126
 72
   125
 73
   124
  0
VERTEX
  5
AA7
330
92C
100
AcDbEntity
  8
0
 62
     7
100
AcDbFaceRecord
 10
0.0
 20
0.0
 30
0.0
 70
   128
 71
   127
 72
   125
 73
   126
  0
VERTEX
  5
AA8
330
92C
100
AcDbEntity
  8
0
 62
     7
100
AcDbFaceRecord
 10
0.0
 20
0.0
 30
0.0
 70
   128
 71
   128
 72
   127
 73
   126
  0
VERTEX
  5
AA9
330
92C
100
AcDbEntity
  8
0
 62
     7
100
AcDbFaceRecord
 10
0.0
 20
0.0
 30
0.0
 70
   128
 71
   129
 72
   127
 73
   128
  0
VERTEX
  5
AAA
330
92C
100
AcDbEntity
  8
0
 62
     7
100
AcDbFaceRecord
 10
0.0
 20
0.0
 30
0.0
 70
   128
 71
   130
 72
   129
 73
   128
  0
VERTEX
  5
AAB
330
92C
100
AcDbEntity
  8
0
 62
     7
100
AcDbFaceRecord
 10
0.0
 20
0.0
 30
0.0
 70
   128
 71
   131
 72
   132
 73
   133
  0
VERTEX
  5
AAC
330
92C
100
AcDbEntity
  8
0
 62
     7
100
AcDbFaceRecord
 10
0.0
 20
0.0
 30
0.0
 70
   128
 71
   134
 72
   131
 73
   133
  0
VERTEX
  5
AAD
330
92C
100
AcDbEntity
  8
0
 62
     7
100
AcDbFaceRecord
 10
0.0
 20
0.0
 30
0.0
 70
   128
 71
     2
 72
   135
 73
   136
  0
VERTEX
  5
AAE
330
92C
100
AcDbEntity
  8
0
 62
     7
100
AcDbFaceRecord
 10
0.0
 20
0.0
 30
0.0
 70
   128
 71
     3
 72
     2
 73
   136
  0
VERTEX
  5
AAF
330
92C
100
AcDbEntity
  8
0
 62
     7
100
AcDbFaceRecord
 10
0.0
 20
0.0
 30
0.0
 70
   128
 71
     8
 72
   137
 73
   138
  0
VERTEX
  5
AB0
330
92C
100
AcDbEntity
  8
0
 62
     7
100
AcDbFaceRecord
 10
0.0
 20
0.0
 30
0.0
 70
   128
 71
     9
 72
     8
 73
   138
  0
VERTEX
  5
AB1
330
92C
100
AcDbEntity
  8
0
 62
     7
100
AcDbFaceRecord
 10
0.0
 20
0.0
 30
0.0
 70
   128
 71
   137
 72
   139
 73
   140
  0
VERTEX
  5
AB2
330
92C
100
AcDbEntity
  8
0
 62
     7
100
AcDbFaceRecord
 10
0.0
 20
0.0
 30
0.0
 70
   128
 71
   138
 72
   137
 73
   140
  0
VERTEX
  5
AB3
330
92C
100
AcDbEntity
  8
0
 62
     7
100
AcDbFaceRecord
 10
0.0
 20
0.0
 30
0.0
 70
   128
 71
   139
 72
   141
 73
   142
  0
VERTEX
  5
AB4
330
92C
100
AcDbEntity
  8
0
 62
     7
100
AcDbFaceRecord
 10
0.0
 20
0.0
 30
0.0
 70
   128
 71
   140
 72
   139
 73
   142
  0
VERTEX
  5
AB5
330
92C
100
AcDbEntity
  8
0
 62
     7
100
AcDbFaceRecord
 10
0.0
 20
0.0
 30
0.0
 70
   128
 71
   143
 72
   144
 73
   145
  0
VERTEX
  5
AB6
330
92C
100
AcDbEntity
  8
0
 62
     7
100
AcDbFaceRecord
 10
0.0
 20
0.0
 30
0.0
 70
   128
 71
   146
 72
   143
 73
   145
  0
VERTEX
  5
AB7
330
92C
100
AcDbEntity
  8
0
 62
     7
100
AcDbFaceRecord
 10
0.0
 20
0.0
 30
0.0
 70
   128
 71
   142
 72
   147
 73
   148
  0
VERTEX
  5
AB8
330
92C
100
AcDbEntity
  8
0
 62
     7
100
AcDbFaceRecord
 10
0.0
 20
0.0
 30
0.0
 70
   128
 71
   141
 72
   147
 73
   142
  0
VERTEX
  5
AB9
330
92C
100
AcDbEntity
  8
0
 62
     7
100
AcDbFaceRecord
 10
0.0
 20
0.0
 30
0.0
 70
   128
 71
   146
 72
   148
 73
   147
  0
VERTEX
  5
ABA
330
92C
100
AcDbEntity
  8
0
 62
     7
100
AcDbFaceRecord
 10
0.0
 20
0.0
 30
0.0
 70
   128
 71
   149
 72
   148
 73
   146
  0
VERTEX
  5
ABB
330
92C
100
AcDbEntity
  8
0
 62
     7
100
AcDbFaceRecord
 10
0.0
 20
0.0
 30
0.0
 70
   128
 71
   149
 72
   146
 73
   145
  0
VERTEX
  5
ABC
330
92C
100
AcDbEntity
  8
0
 62
     7
100
AcDbFaceRecord
 10
0.0
 20
0.0
 30
0.0
 70
   128
 71
   150
 72
   145
 73
   144
  0
VERTEX
  5
ABD
330
92C
100
AcDbEntity
  8
0
 62
     7
100
AcDbFaceRecord
 10
0.0
 20
0.0
 30
0.0
 70
   128
 71
   144
 72
   151
 73
   152
  0
VERTEX
  5
ABE
330
92C
100
AcDbEntity
  8
0
 62
     7
100
AcDbFaceRecord
 10
0.0
 20
0.0
 30
0.0
 70
   128
 71
   150
 72
   144
 73
   152
  0
VERTEX
  5
ABF
330
92C
100
AcDbEntity
  8
0
 62
     7
100
AcDbFaceRecord
 10
0.0
 20
0.0
 30
0.0
 70
   128
 71
   153
 72
   154
 73
   152
  0
VERTEX
  5
AC0
330
92C
100
AcDbEntity
  8
0
 62
     7
100
AcDbFaceRecord
 10
0.0
 20
0.0
 30
0.0
 70
   128
 71
   155
 72
   156
 73
   157
  0
VERTEX
  5
AC1
330
92C
100
AcDbEntity
  8
0
 62
     7
100
AcDbFaceRecord
 10
0.0
 20
0.0
 30
0.0
 70
   128
 71
   158
 72
   155
 73
   157
  0
VERTEX
  5
AC2
330
92C
100
AcDbEntity
  8
0
 62
     7
100
AcDbFaceRecord
 10
0.0
 20
0.0
 30
0.0
 70
   128
 71
   159
 72
   160
 73
   161
  0
VERTEX
  5
AC3
330
92C
100
AcDbEntity
  8
0
 62
     7
100
AcDbFaceRecord
 10
0.0
 20
0.0
 30
0.0
 70
   128
 71
   162
 72
   160
 73
   159
  0
VERTEX
  5
AC4
330
92C
100
AcDbEntity
  8
0
 62
     7
100
AcDbFaceRecord
 10
0.0
 20
0.0
 30
0.0
 70
   128
 71
   151
 72
   153
 73
   152
  0
VERTEX
  5
AC5
330
92C
100
AcDbEntity
  8
0
 62
     7
100
AcDbFaceRecord
 10
0.0
 20
0.0
 30
0.0
 70
   128
 71
   163
 72
   154
 73
   153
  0
VERTEX
  5
AC6
330
92C
100
AcDbEntity
  8
0
 62
     7
100
AcDbFaceRecord
 10
0.0
 20
0.0
 30
0.0
 70
   128
 71
   162
 72
   163
 73
   153
  0
VERTEX
  5
AC7
330
92C
100
AcDbEntity
  8
0
 62
     7
100
AcDbFaceRecord
 10
0.0
 20
0.0
 30
0.0
 70
   128
 71
   163
 72
   162
 73
   159
  0
VERTEX
  5
AC8
330
92C
100
AcDbEntity
  8
0
 62
     7
100
AcDbFaceRecord
 10
0.0
 20
0.0
 30
0.0
 70
   128
 71
   158
 72
   161
 73
   160
  0
VERTEX
  5
AC9
330
92C
100
AcDbEntity
  8
0
 62
     7
100
AcDbFaceRecord
 10
0.0
 20
0.0
 30
0.0
 70
   128
 71
   161
 72
   158
 73
   157
  0
VERTEX
  5
ACA
330
92C
100
AcDbEntity
  8
0
 62
     7
100
AcDbFaceRecord
 10
0.0
 20
0.0
 30
0.0
 70
   128
 71
   164
 72
   157
 73
   156
  0
VERTEX
  5
ACB
330
92C
100
AcDbEntity
  8
0
 62
     7
100
AcDbFaceRecord
 10
0.0
 20
0.0
 30
0.0
 70
   128
 71
   156
 72
   165
 73
   166
  0
VERTEX
  5
ACC
330
92C
100
AcDbEntity
  8
0
 62
     7
100
AcDbFaceRecord
 10
0.0
 20
0.0
 30
0.0
 70
   128
 71
   164
 72
   156
 73
   166
  0
VERTEX
  5
ACD
330
92C
100
AcDbEntity
  8
0
 62
     7
100
AcDbFaceRecord
 10
0.0
 20
0.0
 30
0.0
 70
   128
 71
   167
 72
   168
 73
   169
  0
VERTEX
  5
ACE
330
92C
100
AcDbEntity
  8
0
 62
     7
100
AcDbFaceRecord
 10
0.0
 20
0.0
 30
0.0
 70
   128
 71
   170
 72
   171
 73
   172
  0
VERTEX
  5
ACF
330
92C
100
AcDbEntity
  8
0
 62
     7
100
AcDbFaceRecord
 10
0.0
 20
0.0
 30
0.0
 70
   128
 71
   173
 72
   171
 73
   170
  0
VERTEX
  5
AD0
330
92C
100
AcDbEntity
  8
0
 62
     7
100
AcDbFaceRecord
 10
0.0
 20
0.0
 30
0.0
 70
   128
 71
   174
 72
   173
 73
   170
  0
VERTEX
  5
AD1
330
92C
100
AcDbEntity
  8
0
 62
     7
100
AcDbFaceRecord
 10
0.0
 20
0.0
 30
0.0
 70
   128
 71
   175
 72
   167
 73
   169
  0
VERTEX
  5
AD2
330
92C
100
AcDbEntity
  8
0
 62
     7
100
AcDbFaceRecord
 10
0.0
 20
0.0
 30
0.0
 70
   128
 71
   166
 72
   165
 73
   175
  0
VERTEX
  5
AD3
330
92C
100
AcDbEntity
  8
0
 62
     7
100
AcDbFaceRecord
 10
0.0
 20
0.0
 30
0.0
 70
   128
 71
   166
 72
   175
 73
   169
  0
VERTEX
  5
AD4
330
92C
100
AcDbEntity
  8
0
 62
     7
100
AcDbFaceRecord
 10
0.0
 20
0.0
 30
0.0
 70
   128
 71
   176
 72
   168
 73
   167
  0
VERTEX
  5
AD5
330
92C
100
AcDbEntity
  8
0
 62
     7
100
AcDbFaceRecord
 10
0.0
 20
0.0
 30
0.0
 70
   128
 71
   174
 72
   176
 73
   167
  0
VERTEX
  5
AD6
330
92C
100
AcDbEntity
  8
0
 62
     7
100
AcDbFaceRecord
 10
0.0
 20
0.0
 30
0.0
 70
   128
 71
   176
 72
   174
 73
   170
  0
VERTEX
  5
AD7
330
92C
100
AcDbEntity
  8
0
 62
     7
100
AcDbFaceRecord
 10
0.0
 20
0.0
 30
0.0
 70
   128
 71
   177
 72
   172
 73
   171
  0
VERTEX
  5
AD8
330
92C
100
AcDbEntity
  8
0
 62
     7
100
AcDbFaceRecord
 10
0.0
 20
0.0
 30
0.0
 70
   128
 71
   178
 72
   172
 73
   177
  0
VERTEX
  5
AD9
330
92C
100
AcDbEntity
  8
0
 62
     7
100
AcDbFaceRecord
 10
0.0
 20
0.0
 30
0.0
 70
   128
 71
   177
 72
   179
 73
   180
  0
VERTEX
  5
ADA
330
92C
100
AcDbEntity
  8
0
 62
     7
100
AcDbFaceRecord
 10
0.0
 20
0.0
 30
0.0
 70
   128
 71
   178
 72
   177
 73
   180
  0
VERTEX
  5
ADB
330
92C
100
AcDbEntity
  8
0
 62
     7
100
AcDbFaceRecord
 10
0.0
 20
0.0
 30
0.0
 70
   128
 71
   180
 72
   179
 73
   181
  0
VERTEX
  5
ADC
330
92C
100
AcDbEntity
  8
0
 62
     7
100
AcDbFaceRecord
 10
0.0
 20
0.0
 30
0.0
 70
   128
 71
   182
 72
   180
 73
   181
  0
VERTEX
  5
ADD
330
92C
100
AcDbEntity
  8
0
 62
     7
100
AcDbFaceRecord
 10
0.0
 20
0.0
 30
0.0
 70
   128
 71
   183
 72
   184
 73
   185
  0
VERTEX
  5
ADE
330
92C
100
AcDbEntity
  8
0
 62
     7
100
AcDbFaceRecord
 10
0.0
 20
0.0
 30
0.0
 70
   128
 71
   181
 72
   183
 73
   185
  0
VERTEX
  5
ADF
330
92C
100
AcDbEntity
  8
0
 62
     7
100
AcDbFaceRecord
 10
0.0
 20
0.0
 30
0.0
 70
   128
 71
   182
 72
   181
 73
   185
  0
VERTEX
  5
AE0
330
92C
100
AcDbEntity
  8
0
 62
     7
100
AcDbFaceRecord
 10
0.0
 20
0.0
 30
0.0
 70
   128
 71
   186
 72
   185
 73
   184
  0
VERTEX
  5
AE1
330
92C
100
AcDbEntity
  8
0
 62
     7
100
AcDbFaceRecord
 10
0.0
 20
0.0
 30
0.0
 70
   128
 71
   184
 72
   187
 73
   188
  0
VERTEX
  5
AE2
330
92C
100
AcDbEntity
  8
0
 62
     7
100
AcDbFaceRecord
 10
0.0
 20
0.0
 30
0.0
 70
   128
 71
   186
 72
   184
 73
   188
  0
VERTEX
  5
AE3
330
92C
100
AcDbEntity
  8
0
 62
     7
100
AcDbFaceRecord
 10
0.0
 20
0.0
 30
0.0
 70
   128
 71
   187
 72
   189
 73
   190
  0
VERTEX
  5
AE4
330
92C
100
AcDbEntity
  8
0
 62
     7
100
AcDbFaceRecord
 10
0.0
 20
0.0
 30
0.0
 70
   128
 71
   188
 72
   187
 73
   190
  0
VERTEX
  5
AE5
330
92C
100
AcDbEntity
  8
0
 62
     7
100
AcDbFaceRecord
 10
0.0
 20
0.0
 30
0.0
 70
   128
 71
   190
 72
   189
 73
   191
  0
VERTEX
  5
AE6
330
92C
100
AcDbEntity
  8
0
 62
     7
100
AcDbFaceRecord
 10
0.0
 20
0.0
 30
0.0
 70
   128
 71
   192
 72
   190
 73
   191
  0
VERTEX
  5
AE7
330
92C
100
AcDbEntity
  8
0
 62
     7
100
AcDbFaceRecord
 10
0.0
 20
0.0
 30
0.0
 70
   128
 71
   193
 72
   194
 73
   192
  0
VERTEX
  5
AE8
330
92C
100
AcDbEntity
  8
0
 62
     7
100
AcDbFaceRecord
 10
0.0
 20
0.0
 30
0.0
 70
   128
 71
   191
 72
   193
 73
   192
  0
VERTEX
  5
AE9
330
92C
100
AcDbEntity
  8
0
 62
     7
100
AcDbFaceRecord
 10
0.0
 20
0.0
 30
0.0
 70
   128
 71
   195
 72
   194
 73
   193
  0
VERTEX
  5
AEA
330
92C
100
AcDbEntity
  8
0
 62
     7
100
AcDbFaceRecord
 10
0.0
 20
0.0
 30
0.0
 70
   128
 71
   196
 72
   195
 73
   193
  0
VERTEX
  5
AEB
330
92C
100
AcDbEntity
  8
0
 62
     7
100
AcDbFaceRecord
 10
0.0
 20
0.0
 30
0.0
 70
   128
 71
   196
 72
   197
 73
   198
  0
VERTEX
  5
AEC
330
92C
100
AcDbEntity
  8
0
 62
     7
100
AcDbFaceRecord
 10
0.0
 20
0.0
 30
0.0
 70
   128
 71
   195
 72
   196
 73
   198
  0
VERTEX
  5
AED
330
92C
100
AcDbEntity
  8
0
 62
     7
100
AcDbFaceRecord
 10
0.0
 20
0.0
 30
0.0
 70
   128
 71
   199
 72
   200
 73
   198
  0
VERTEX
  5
AEE
330
92C
100
AcDbEntity
  8
0
 62
     7
100
AcDbFaceRecord
 10
0.0
 20
0.0
 30
0.0
 70
   128
 71
   201
 72
   202
 73
   203
  0
VERTEX
  5
AEF
330
92C
100
AcDbEntity
  8
0
 62
     7
100
AcDbFaceRecord
 10
0.0
 20
0.0
 30
0.0
 70
   128
 71
   204
 72
   201
 73
   203
  0
VERTEX
  5
AF0
330
92C
100
AcDbEntity
  8
0
 62
     7
100
AcDbFaceRecord
 10
0.0
 20
0.0
 30
0.0
 70
   128
 71
   205
 72
   206
 73
   207
  0
VERTEX
  5
AF1
330
92C
100
AcDbEntity
  8
0
 62
     7
100
AcDbFaceRecord
 10
0.0
 20
0.0
 30
0.0
 70
   128
 71
   208
 72
   206
 73
   205
  0
VERTEX
  5
AF2
330
92C
100
AcDbEntity
  8
0
 62
     7
100
AcDbFaceRecord
 10
0.0
 20
0.0
 30
0.0
 70
   128
 71
   197
 72
   199
 73
   198
  0
VERTEX
  5
AF3
330
92C
100
AcDbEntity
  8
0
 62
     7
100
AcDbFaceRecord
 10
0.0
 20
0.0
 30
0.0
 70
   128
 71
   209
 72
   200
 73
   199
  0
VERTEX
  5
AF4
330
92C
100
AcDbEntity
  8
0
 62
     7
100
AcDbFaceRecord
 10
0.0
 20
0.0
 30
0.0
 70
   128
 71
   208
 72
   209
 73
   199
  0
VERTEX
  5
AF5
330
92C
100
AcDbEntity
  8
0
 62
     7
100
AcDbFaceRecord
 10
0.0
 20
0.0
 30
0.0
 70
   128
 71
   209
 72
   208
 73
   205
  0
VERTEX
  5
AF6
330
92C
100
AcDbEntity
  8
0
 62
     7
100
AcDbFaceRecord
 10
0.0
 20
0.0
 30
0.0
 70
   128
 71
   204
 72
   207
 73
   206
  0
VERTEX
  5
AF7
330
92C
100
AcDbEntity
  8
0
 62
     7
100
AcDbFaceRecord
 10
0.0
 20
0.0
 30
0.0
 70
   128
 71
   207
 72
   204
 73
   203
  0
VERTEX
  5
AF8
330
92C
100
AcDbEntity
  8
0
 62
     7
100
AcDbFaceRecord
 10
0.0
 20
0.0
 30
0.0
 70
   128
 71
   210
 72
   203
 73
   202
  0
VERTEX
  5
AF9
330
92C
100
AcDbEntity
  8
0
 62
     7
100
AcDbFaceRecord
 10
0.0
 20
0.0
 30
0.0
 70
   128
 71
   202
 72
   211
 73
   212
  0
VERTEX
  5
AFA
330
92C
100
AcDbEntity
  8
0
 62
     7
100
AcDbFaceRecord
 10
0.0
 20
0.0
 30
0.0
 70
   128
 71
   210
 72
   202
 73
   212
  0
VERTEX
  5
AFB
330
92C
100
AcDbEntity
  8
0
 62
     7
100
AcDbFaceRecord
 10
0.0
 20
0.0
 30
0.0
 70
   128
 71
   213
 72
   214
 73
   212
  0
VERTEX
  5
AFC
330
92C
100
AcDbEntity
  8
0
 62
     7
100
AcDbFaceRecord
 10
0.0
 20
0.0
 30
0.0
 70
   128
 71
   215
 72
   216
 73
   217
  0
VERTEX
  5
AFD
330
92C
100
AcDbEntity
  8
0
 62
     7
100
AcDbFaceRecord
 10
0.0
 20
0.0
 30
0.0
 70
   128
 71
   218
 72
   215
 73
   217
  0
VERTEX
  5
AFE
330
92C
100
AcDbEntity
  8
0
 62
     7
100
AcDbFaceRecord
 10
0.0
 20
0.0
 30
0.0
 70
   128
 71
   211
 72
   213
 73
   212
  0
VERTEX
  5
AFF
330
92C
100
AcDbEntity
  8
0
 62
     7
100
AcDbFaceRecord
 10
0.0
 20
0.0
 30
0.0
 70
   128
 71
   219
 72
   214
 73
   213
  0
VERTEX
  5
B00
330
92C
100
AcDbEntity
  8
0
 62
     7
100
AcDbFaceRecord
 10
0.0
 20
0.0
 30
0.0
 70
   128
 71
   218
 72
   219
 73
   213
  0
VERTEX
  5
B01
330
92C
100
AcDbEntity
  8
0
 62
     7
100
AcDbFaceRecord
 10
0.0
 20
0.0
 30
0.0
 70
   128
 71
   219
 72
   218
 73
   217
  0
VERTEX
  5
B02
330
92C
100
AcDbEntity
  8
0
 62
     7
100
AcDbFaceRecord
 10
0.0
 20
0.0
 30
0.0
 70
   128
 71
   220
 72
   217
 73
   216
  0
VERTEX
  5
B03
330
92C
100
AcDbEntity
  8
0
 62
     7
100
AcDbFaceRecord
 10
0.0
 20
0.0
 30
0.0
 70
   128
 71
   216
 72
   221
 73
   222
  0
VERTEX
  5
B04
330
92C
100
AcDbEntity
  8
0
 62
     7
100
AcDbFaceRecord
 10
0.0
 20
0.0
 30
0.0
 70
   128
 71
   220
 72
   216
 73
   222
  0
VERTEX
  5
B05
330
92C
100
AcDbEntity
  8
0
 62
     7
100
AcDbFaceRecord
 10
0.0
 20
0.0
 30
0.0
 70
   128
 71
   223
 72
   224
 73
   222
  0
VERTEX
  5
B06
330
92C
100
AcDbEntity
  8
0
 62
     7
100
AcDbFaceRecord
 10
0.0
 20
0.0
 30
0.0
 70
   128
 71
   225
 72
   226
 73
   227
  0
VERTEX
  5
B07
330
92C
100
AcDbEntity
  8
0
 62
     7
100
AcDbFaceRecord
 10
0.0
 20
0.0
 30
0.0
 70
   128
 71
   228
 72
   225
 73
   227
  0
VERTEX
  5
B08
330
92C
100
AcDbEntity
  8
0
 62
     7
100
AcDbFaceRecord
 10
0.0
 20
0.0
 30
0.0
 70
   128
 71
   229
 72
   230
 73
   231
  0
VERTEX
  5
B09
330
92C
100
AcDbEntity
  8
0
 62
     7
100
AcDbFaceRecord
 10
0.0
 20
0.0
 30
0.0
 70
   128
 71
   232
 72
   230
 73
   229
  0
VERTEX
  5
B0A
330
92C
100
AcDbEntity
  8
0
 62
     7
100
AcDbFaceRecord
 10
0.0
 20
0.0
 30
0.0
 70
   128
 71
   221
 72
   223
 73
   222
  0
VERTEX
  5
B0B
330
92C
100
AcDbEntity
  8
0
 62
     7
100
AcDbFaceRecord
 10
0.0
 20
0.0
 30
0.0
 70
   128
 71
   233
 72
   224
 73
   223
  0
VERTEX
  5
B0C
330
92C
100
AcDbEntity
  8
0
 62
     7
100
AcDbFaceRecord
 10
0.0
 20
0.0
 30
0.0
 70
   128
 71
   232
 72
   233
 73
   223
  0
VERTEX
  5
B0D
330
92C
100
AcDbEntity
  8
0
 62
     7
100
AcDbFaceRecord
 10
0.0
 20
0.0
 30
0.0
 70
   128
 71
   233
 72
   232
 73
   229
  0
VERTEX
  5
B0E
330
92C
100
AcDbEntity
  8
0
 62
     7
100
AcDbFaceRecord
 10
0.0
 20
0.0
 30
0.0
 70
   128
 71
   228
 72
   231
 73
   230
  0
VERTEX
  5
B0F
330
92C
100
AcDbEntity
  8
0
 62
     7
100
AcDbFaceRecord
 10
0.0
 20
0.0
 30
0.0
 70
   128
 71
   231
 72
   228
 73
   227
  0
VERTEX
  5
B10
330
92C
100
AcDbEntity
  8
0
 62
     7
100
AcDbFaceRecord
 10
0.0
 20
0.0
 30
0.0
 70
   128
 71
   234
 72
   227
 73
   226
  0
VERTEX
  5
B11
330
92C
100
AcDbEntity
  8
0
 62
     7
100
AcDbFaceRecord
 10
0.0
 20
0.0
 30
0.0
 70
   128
 71
   226
 72
   235
 73
   236
  0
VERTEX
  5
B12
330
92C
100
AcDbEntity
  8
0
 62
     7
100
AcDbFaceRecord
 10
0.0
 20
0.0
 30
0.0
 70
   128
 71
   234
 72
   226
 73
   236
  0
VERTEX
  5
B13
330
92C
100
AcDbEntity
  8
0
 62
     7
100
AcDbFaceRecord
 10
0.0
 20
0.0
 30
0.0
 70
   128
 71
   235
 72
   237
 73
   238
  0
VERTEX
  5
B14
330
92C
100
AcDbEntity
  8
0
 62
     7
100
AcDbFaceRecord
 10
0.0
 20
0.0
 30
0.0
 70
   128
 71
   236
 72
   235
 73
   238
  0
VERTEX
  5
B15
330
92C
100
AcDbEntity
  8
0
 62
     7
100
AcDbFaceRecord
 10
0.0
 20
0.0
 30
0.0
 70
   128
 71
   239
 72
   240
 73
   241
  0
VERTEX
  5
B16
330
92C
100
AcDbEntity
  8
0
 62
     7
100
AcDbFaceRecord
 10
0.0
 20
0.0
 30
0.0
 70
   128
 71
   242
 72
   239
 73
   241
  0
VERTEX
  5
B17
330
92C
100
AcDbEntity
  8
0
 62
     7
100
AcDbFaceRecord
 10
0.0
 20
0.0
 30
0.0
 70
   128
 71
   243
 72
   242
 73
   244
  0
VERTEX
  5
B18
330
92C
100
AcDbEntity
  8
0
 62
     7
100
AcDbFaceRecord
 10
0.0
 20
0.0
 30
0.0
 70
   128
 71
   237
 72
   243
 73
   244
  0
VERTEX
  5
B19
330
92C
100
AcDbEntity
  8
0
 62
     7
100
AcDbFaceRecord
 10
0.0
 20
0.0
 30
0.0
 70
   128
 71
   238
 72
   237
 73
   244
  0
VERTEX
  5
B1A
330
92C
100
AcDbEntity
  8
0
 62
     7
100
AcDbFaceRecord
 10
0.0
 20
0.0
 30
0.0
 70
   128
 71
   244
 72
   242
 73
   241
  0
VERTEX
  5
B1B
330
92C
100
AcDbEntity
  8
0
 62
     7
100
AcDbFaceRecord
 10
0.0
 20
0.0
 30
0.0
 70
   128
 71
   245
 72
   240
 73
   239
  0
VERTEX
  5
B1C
330
92C
100
AcDbEntity
  8
0
 62
     7
100
AcDbFaceRecord
 10
0.0
 20
0.0
 30
0.0
 70
   128
 71
   246
 72
   245
 73
   239
  0
VERTEX
  5
B1D
330
92C
100
AcDbEntity
  8
0
 62
     7
100
AcDbFaceRecord
 10
0.0
 20
0.0
 30
0.0
 70
   128
 71
   247
 72
   248
 73
   245
  0
VERTEX
  5
B1E
330
92C
100
AcDbEntity
  8
0
 62
     7
100
AcDbFaceRecord
 10
0.0
 20
0.0
 30
0.0
 70
   128
 71
   246
 72
   247
 73
   245
  0
VERTEX
  5
B1F
330
92C
100
AcDbEntity
  8
0
 62
     7
100
AcDbFaceRecord
 10
0.0
 20
0.0
 30
0.0
 70
   128
 71
   249
 72
   248
 73
   247
  0
VERTEX
  5
B20
330
92C
100
AcDbEntity
  8
0
 62
     7
100
AcDbFaceRecord
 10
0.0
 20
0.0
 30
0.0
 70
   128
 71
   250
 72
   249
 73
   247
  0
VERTEX
  5
B21
330
92C
100
AcDbEntity
  8
0
 62
     7
100
AcDbFaceRecord
 10
0.0
 20
0.0
 30
0.0
 70
   128
 71
   251
 72
   252
 73
   249
  0
VERTEX
  5
B22
330
92C
100
AcDbEntity
  8
0
 62
     7
100
AcDbFaceRecord
 10
0.0
 20
0.0
 30
0.0
 70
   128
 71
   250
 72
   251
 73
   249
  0
VERTEX
  5
B23
330
92C
100
AcDbEntity
  8
0
 62
     7
100
AcDbFaceRecord
 10
0.0
 20
0.0
 30
0.0
 70
   128
 71
   253
 72
   252
 73
   251
  0
VERTEX
  5
B24
330
92C
100
AcDbEntity
  8
0
 62
     7
100
AcDbFaceRecord
 10
0.0
 20
0.0
 30
0.0
 70
   128
 71
   254
 72
   253
 73
   251
  0
VERTEX
  5
B25
330
92C
100
AcDbEntity
  8
0
 62
     7
100
AcDbFaceRecord
 10
0.0
 20
0.0
 30
0.0
 70
   128
 71
   254
 72
   255
 73
   256
  0
VERTEX
  5
B26
330
92C
100
AcDbEntity
  8
0
 62
     7
100
AcDbFaceRecord
 10
0.0
 20
0.0
 30
0.0
 70
   128
 71
   253
 72
   254
 73
   256
  0
VERTEX
  5
B27
330
92C
100
AcDbEntity
  8
0
 62
     7
100
AcDbFaceRecord
 10
0.0
 20
0.0
 30
0.0
 70
   128
 71
   255
 72
   131
 73
   134
  0
VERTEX
  5
B28
330
92C
100
AcDbEntity
  8
0
 62
     7
100
AcDbFaceRecord
 10
0.0
 20
0.0
 30
0.0
 70
   128
 71
   256
 72
   255
 73
   134
  0
VERTEX
  5
B29
330
92C
100
AcDbEntity
  8
0
 62
     7
100
AcDbFaceRecord
 10
0.0
 20
0.0
 30
0.0
 70
   128
 71
    10
 72
     9
 73
     3
  0
VERTEX
  5
B2A
330
92C
100
AcDbEntity
  8
0
 62
     7
100
AcDbFaceRecord
 10
0.0
 20
0.0
 30
0.0
 70
   128
 71
   136
 72
    10
 73
     3
  0
VERTEX
  5
B2B
330
92C
100
AcDbEntity
  8
0
 62
     7
100
AcDbFaceRecord
 10
0.0
 20
0.0
 30
0.0
 70
   128
 71
     7
 72
    10
 73
   136
  0
VERTEX
  5
B2C
330
92C
100
AcDbEntity
  8
0
 62
     7
100
AcDbFaceRecord
 10
0.0
 20
0.0
 30
0.0
 70
   128
 71
   135
 72
     7
 73
   136
  0
VERTEX
  5
B2D
330
92C
100
AcDbEntity
  8
0
 62
     7
100
AcDbFaceRecord
 10
0.0
 20
0.0
 30
0.0
 70
   128
 71
   137
 72
     8
 73
     2
  0
VERTEX
  5
B2E
330
92C
100
AcDbEntity
  8
0
 62
     7
100
AcDbFaceRecord
 10
0.0
 20
0.0
 30
0.0
 70
   128
 71
     1
 72
   137
 73
     2
  0
VERTEX
  5
B2F
330
92C
100
AcDbEntity
  8
0
 62
     7
100
AcDbFaceRecord
 10
0.0
 20
0.0
 30
0.0
 70
   128
 71
   139
 72
   137
 73
     1
  0
VERTEX
  5
B30
330
92C
100
AcDbEntity
  8
0
 62
     7
100
AcDbFaceRecord
 10
0.0
 20
0.0
 30
0.0
 70
   128
 71
     6
 72
   139
 73
     1
  0
VERTEX
  5
B31
330
92C
100
AcDbEntity
  8
0
 62
     7
100
AcDbFaceRecord
 10
0.0
 20
0.0
 30
0.0
 70
   128
 71
   141
 72
   139
 73
     6
  0
VERTEX
  5
B32
330
92C
100
AcDbEntity
  8
0
 62
     7
100
AcDbFaceRecord
 10
0.0
 20
0.0
 30
0.0
 70
   128
 71
    11
 72
   141
 73
     6
  0
VERTEX
  5
B33
330
92C
100
AcDbEntity
  8
0
 62
     7
100
AcDbFaceRecord
 10
0.0
 20
0.0
 30
0.0
 70
   128
 71
    16
 72
   147
 73
    14
  0
VERTEX
  5
B34
330
92C
100
AcDbEntity
  8
0
 62
     7
100
AcDbFaceRecord
 10
0.0
 20
0.0
 30
0.0
 70
   128
 71
   146
 72
   147
 73
    16
  0
VERTEX
  5
B35
330
92C
100
AcDbEntity
  8
0
 62
     7
100
AcDbFaceRecord
 10
0.0
 20
0.0
 30
0.0
 70
   128
 71
   143
 72
   146
 73
    16
  0
VERTEX
  5
B36
330
92C
100
AcDbEntity
  8
0
 62
     7
100
AcDbFaceRecord
 10
0.0
 20
0.0
 30
0.0
 70
   128
 71
    19
 72
   144
 73
   143
  0
VERTEX
  5
B37
330
92C
100
AcDbEntity
  8
0
 62
     7
100
AcDbFaceRecord
 10
0.0
 20
0.0
 30
0.0
 70
   128
 71
    17
 72
    19
 73
   143
  0
VERTEX
  5
B38
330
92C
100
AcDbEntity
  8
0
 62
     7
100
AcDbFaceRecord
 10
0.0
 20
0.0
 30
0.0
 70
   128
 71
    17
 72
   143
 73
    16
  0
VERTEX
  5
B39
330
92C
100
AcDbEntity
  8
0
 62
     7
100
AcDbFaceRecord
 10
0.0
 20
0.0
 30
0.0
 70
   128
 71
   141
 72
    14
 73
   147
  0
VERTEX
  5
B3A
330
92C
100
AcDbEntity
  8
0
 62
     7
100
AcDbFaceRecord
 10
0.0
 20
0.0
 30
0.0
 70
   128
 71
    11
 72
    14
 73
   141
  0
VERTEX
  5
B3B
330
92C
100
AcDbEntity
  8
0
 62
     7
100
AcDbFaceRecord
 10
0.0
 20
0.0
 30
0.0
 70
   128
 71
   151
 72
   144
 73
    19
  0
VERTEX
  5
B3C
330
92C
100
AcDbEntity
  8
0
 62
     7
100
AcDbFaceRecord
 10
0.0
 20
0.0
 30
0.0
 70
   128
 71
    21
 72
   151
 73
    19
  0
VERTEX
  5
B3D
330
92C
100
AcDbEntity
  8
0
 62
     7
100
AcDbFaceRecord
 10
0.0
 20
0.0
 30
0.0
 70
   128
 71
   155
 72
    23
 73
    33
  0
VERTEX
  5
B3E
330
92C
100
AcDbEntity
  8
0
 62
     7
100
AcDbFaceRecord
 10
0.0
 20
0.0
 30
0.0
 70
   128
 71
   153
 72
   151
 73
    26
  0
VERTEX
  5
B3F
330
92C
100
AcDbEntity
  8
0
 62
     7
100
AcDbFaceRecord
 10
0.0
 20
0.0
 30
0.0
 70
   128
 71
   162
 72
   153
 73
    26
  0
VERTEX
  5
B40
330
92C
100
AcDbEntity
  8
0
 62
     7
100
AcDbFaceRecord
 10
0.0
 20
0.0
 30
0.0
 70
   128
 71
    30
 72
   160
 73
    28
  0
VERTEX
  5
B41
330
92C
100
AcDbEntity
  8
0
 62
     7
100
AcDbFaceRecord
 10
0.0
 20
0.0
 30
0.0
 70
   128
 71
   158
 72
   160
 73
    30
  0
VERTEX
  5
B42
330
92C
100
AcDbEntity
  8
0
 62
     7
100
AcDbFaceRecord
 10
0.0
 20
0.0
 30
0.0
 70
   128
 71
   156
 72
   155
 73
    33
  0
VERTEX
  5
B43
330
92C
100
AcDbEntity
  8
0
 62
     7
100
AcDbFaceRecord
 10
0.0
 20
0.0
 30
0.0
 70
   128
 71
    32
 72
    23
 73
   155
  0
VERTEX
  5
B44
330
92C
100
AcDbEntity
  8
0
 62
     7
100
AcDbFaceRecord
 10
0.0
 20
0.0
 30
0.0
 70
   128
 71
   158
 72
    32
 73
   155
  0
VERTEX
  5
B45
330
92C
100
AcDbEntity
  8
0
 62
     7
100
AcDbFaceRecord
 10
0.0
 20
0.0
 30
0.0
 70
   128
 71
    32
 72
   158
 73
    30
  0
VERTEX
  5
B46
330
92C
100
AcDbEntity
  8
0
 62
     7
100
AcDbFaceRecord
 10
0.0
 20
0.0
 30
0.0
 70
   128
 71
   162
 72
    28
 73
   160
  0
VERTEX
  5
B47
330
92C
100
AcDbEntity
  8
0
 62
     7
100
AcDbFaceRecord
 10
0.0
 20
0.0
 30
0.0
 70
   128
 71
    28
 72
   162
 73
    26
  0
VERTEX
  5
B48
330
92C
100
AcDbEntity
  8
0
 62
     7
100
AcDbFaceRecord
 10
0.0
 20
0.0
 30
0.0
 70
   128
 71
    21
 72
    26
 73
   151
  0
VERTEX
  5
B49
330
92C
100
AcDbEntity
  8
0
 62
     7
100
AcDbFaceRecord
 10
0.0
 20
0.0
 30
0.0
 70
   128
 71
   165
 72
   156
 73
    33
  0
VERTEX
  5
B4A
330
92C
100
AcDbEntity
  8
0
 62
     7
100
AcDbFaceRecord
 10
0.0
 20
0.0
 30
0.0
 70
   128
 71
    35
 72
   165
 73
    33
  0
VERTEX
  5
B4B
330
92C
100
AcDbEntity
  8
0
 62
     7
100
AcDbFaceRecord
 10
0.0
 20
0.0
 30
0.0
 70
   128
 71
   173
 72
    37
 73
    45
  0
VERTEX
  5
B4C
330
92C
100
AcDbEntity
  8
0
 62
     7
100
AcDbFaceRecord
 10
0.0
 20
0.0
 30
0.0
 70
   128
 71
    43
 72
   175
 73
    41
  0
VERTEX
  5
B4D
330
92C
100
AcDbEntity
  8
0
 62
     7
100
AcDbFaceRecord
 10
0.0
 20
0.0
 30
0.0
 70
   128
 71
   167
 72
   175
 73
    43
  0
VERTEX
  5
B4E
330
92C
100
AcDbEntity
  8
0
 62
     7
100
AcDbFaceRecord
 10
0.0
 20
0.0
 30
0.0
 70
   128
 71
   174
 72
   167
 73
    43
  0
VERTEX
  5
B4F
330
92C
100
AcDbEntity
  8
0
 62
     7
100
AcDbFaceRecord
 10
0.0
 20
0.0
 30
0.0
 70
   128
 71
   171
 72
   173
 73
    45
  0
VERTEX
  5
B50
330
92C
100
AcDbEntity
  8
0
 62
     7
100
AcDbFaceRecord
 10
0.0
 20
0.0
 30
0.0
 70
   128
 71
    47
 72
   177
 73
   171
  0
VERTEX
  5
B51
330
92C
100
AcDbEntity
  8
0
 62
     7
100
AcDbFaceRecord
 10
0.0
 20
0.0
 30
0.0
 70
   128
 71
    47
 72
   171
 73
    45
  0
VERTEX
  5
B52
330
92C
100
AcDbEntity
  8
0
 62
     7
100
AcDbFaceRecord
 10
0.0
 20
0.0
 30
0.0
 70
   128
 71
    44
 72
    37
 73
   173
  0
VERTEX
  5
B53
330
92C
100
AcDbEntity
  8
0
 62
     7
100
AcDbFaceRecord
 10
0.0
 20
0.0
 30
0.0
 70
   128
 71
   174
 72
    44
 73
   173
  0
VERTEX
  5
B54
330
92C
100
AcDbEntity
  8
0
 62
     7
100
AcDbFaceRecord
 10
0.0
 20
0.0
 30
0.0
 70
   128
 71
    44
 72
   174
 73
    43
  0
VERTEX
  5
B55
330
92C
100
AcDbEntity
  8
0
 62
     7
100
AcDbFaceRecord
 10
0.0
 20
0.0
 30
0.0
 70
   128
 71
   165
 72
    41
 73
   175
  0
VERTEX
  5
B56
330
92C
100
AcDbEntity
  8
0
 62
     7
100
AcDbFaceRecord
 10
0.0
 20
0.0
 30
0.0
 70
   128
 71
    35
 72
    41
 73
   165
  0
VERTEX
  5
B57
330
92C
100
AcDbEntity
  8
0
 62
     7
100
AcDbFaceRecord
 10
0.0
 20
0.0
 30
0.0
 70
   128
 71
   179
 72
   177
 73
    47
  0
VERTEX
  5
B58
330
92C
100
AcDbEntity
  8
0
 62
     7
100
AcDbFaceRecord
 10
0.0
 20
0.0
 30
0.0
 70
   128
 71
    49
 72
   179
 73
    47
  0
VERTEX
  5
B59
330
92C
100
AcDbEntity
  8
0
 62
     7
100
AcDbFaceRecord
 10
0.0
 20
0.0
 30
0.0
 70
   128
 71
    52
 72
   181
 73
   179
  0
VERTEX
  5
B5A
330
92C
100
AcDbEntity
  8
0
 62
     7
100
AcDbFaceRecord
 10
0.0
 20
0.0
 30
0.0
 70
   128
 71
    49
 72
    52
 73
   179
  0
VERTEX
  5
B5B
330
92C
100
AcDbEntity
  8
0
 62
     7
100
AcDbFaceRecord
 10
0.0
 20
0.0
 30
0.0
 70
   128
 71
   183
 72
    54
 73
    56
  0
VERTEX
  5
B5C
330
92C
100
AcDbEntity
  8
0
 62
     7
100
AcDbFaceRecord
 10
0.0
 20
0.0
 30
0.0
 70
   128
 71
   184
 72
   183
 73
    56
  0
VERTEX
  5
B5D
330
92C
100
AcDbEntity
  8
0
 62
     7
100
AcDbFaceRecord
 10
0.0
 20
0.0
 30
0.0
 70
   128
 71
    52
 72
    54
 73
   183
  0
VERTEX
  5
B5E
330
92C
100
AcDbEntity
  8
0
 62
     7
100
AcDbFaceRecord
 10
0.0
 20
0.0
 30
0.0
 70
   128
 71
   181
 72
    52
 73
   183
  0
VERTEX
  5
B5F
330
92C
100
AcDbEntity
  8
0
 62
     7
100
AcDbFaceRecord
 10
0.0
 20
0.0
 30
0.0
 70
   128
 71
   187
 72
   184
 73
    56
  0
VERTEX
  5
B60
330
92C
100
AcDbEntity
  8
0
 62
     7
100
AcDbFaceRecord
 10
0.0
 20
0.0
 30
0.0
 70
   128
 71
    57
 72
   187
 73
    56
  0
VERTEX
  5
B61
330
92C
100
AcDbEntity
  8
0
 62
     7
100
AcDbFaceRecord
 10
0.0
 20
0.0
 30
0.0
 70
   128
 71
   189
 72
   187
 73
    57
  0
VERTEX
  5
B62
330
92C
100
AcDbEntity
  8
0
 62
     7
100
AcDbFaceRecord
 10
0.0
 20
0.0
 30
0.0
 70
   128
 71
    60
 72
   189
 73
    57
  0
VERTEX
  5
B63
330
92C
100
AcDbEntity
  8
0
 62
     7
100
AcDbFaceRecord
 10
0.0
 20
0.0
 30
0.0
 70
   128
 71
    61
 72
   191
 73
   189
  0
VERTEX
  5
B64
330
92C
100
AcDbEntity
  8
0
 62
     7
100
AcDbFaceRecord
 10
0.0
 20
0.0
 30
0.0
 70
   128
 71
    60
 72
    61
 73
   189
  0
VERTEX
  5
B65
330
92C
100
AcDbEntity
  8
0
 62
     7
100
AcDbFaceRecord
 10
0.0
 20
0.0
 30
0.0
 70
   128
 71
   193
 72
   191
 73
    63
  0
VERTEX
  5
B66
330
92C
100
AcDbEntity
  8
0
 62
     7
100
AcDbFaceRecord
 10
0.0
 20
0.0
 30
0.0
 70
   128
 71
   196
 72
   193
 73
    63
  0
VERTEX
  5
B67
330
92C
100
AcDbEntity
  8
0
 62
     7
100
AcDbFaceRecord
 10
0.0
 20
0.0
 30
0.0
 70
   128
 71
    65
 72
   196
 73
    63
  0
VERTEX
  5
B68
330
92C
100
AcDbEntity
  8
0
 62
     7
100
AcDbFaceRecord
 10
0.0
 20
0.0
 30
0.0
 70
   128
 71
    61
 72
    63
 73
   191
  0
VERTEX
  5
B69
330
92C
100
AcDbEntity
  8
0
 62
     7
100
AcDbFaceRecord
 10
0.0
 20
0.0
 30
0.0
 70
   128
 71
   197
 72
   196
 73
    65
  0
VERTEX
  5
B6A
330
92C
100
AcDbEntity
  8
0
 62
     7
100
AcDbFaceRecord
 10
0.0
 20
0.0
 30
0.0
 70
   128
 71
    67
 72
   197
 73
    65
  0
VERTEX
  5
B6B
330
92C
100
AcDbEntity
  8
0
 62
     7
100
AcDbFaceRecord
 10
0.0
 20
0.0
 30
0.0
 70
   128
 71
   201
 72
    69
 73
    79
  0
VERTEX
  5
B6C
330
92C
100
AcDbEntity
  8
0
 62
     7
100
AcDbFaceRecord
 10
0.0
 20
0.0
 30
0.0
 70
   128
 71
   199
 72
   197
 73
    72
  0
VERTEX
  5
B6D
330
92C
100
AcDbEntity
  8
0
 62
     7
100
AcDbFaceRecord
 10
0.0
 20
0.0
 30
0.0
 70
   128
 71
   208
 72
   199
 73
    72
  0
VERTEX
  5
B6E
330
92C
100
AcDbEntity
  8
0
 62
     7
100
AcDbFaceRecord
 10
0.0
 20
0.0
 30
0.0
 70
   128
 71
    76
 72
   206
 73
    74
  0
VERTEX
  5
B6F
330
92C
100
AcDbEntity
  8
0
 62
     7
100
AcDbFaceRecord
 10
0.0
 20
0.0
 30
0.0
 70
   128
 71
   204
 72
   206
 73
    76
  0
VERTEX
  5
B70
330
92C
100
AcDbEntity
  8
0
 62
     7
100
AcDbFaceRecord
 10
0.0
 20
0.0
 30
0.0
 70
   128
 71
   202
 72
   201
 73
    79
  0
VERTEX
  5
B71
330
92C
100
AcDbEntity
  8
0
 62
     7
100
AcDbFaceRecord
 10
0.0
 20
0.0
 30
0.0
 70
   128
 71
    78
 72
    69
 73
   201
  0
VERTEX
  5
B72
330
92C
100
AcDbEntity
  8
0
 62
     7
100
AcDbFaceRecord
 10
0.0
 20
0.0
 30
0.0
 70
   128
 71
   204
 72
    78
 73
   201
  0
VERTEX
  5
B73
330
92C
100
AcDbEntity
  8
0
 62
     7
100
AcDbFaceRecord
 10
0.0
 20
0.0
 30
0.0
 70
   128
 71
    78
 72
   204
 73
    76
  0
VERTEX
  5
B74
330
92C
100
AcDbEntity
  8
0
 62
     7
100
AcDbFaceRecord
 10
0.0
 20
0.0
 30
0.0
 70
   128
 71
   208
 72
    74
 73
   206
  0
VERTEX
  5
B75
330
92C
100
AcDbEntity
  8
0
 62
     7
100
AcDbFaceRecord
 10
0.0
 20
0.0
 30
0.0
 70
   128
 71
    74
 72
   208
 73
    72
  0
VERTEX
  5
B76
330
92C
100
AcDbEntity
  8
0
 62
     7
100
AcDbFaceRecord
 10
0.0
 20
0.0
 30
0.0
 70
   128
 71
    67
 72
    72
 73
   197
  0
VERTEX
  5
B77
330
92C
100
AcDbEntity
  8
0
 62
     7
100
AcDbFaceRecord
 10
0.0
 20
0.0
 30
0.0
 70
   128
 71
   211
 72
   202
 73
    79
  0
VERTEX
  5
B78
330
92C
100
AcDbEntity
  8
0
 62
     7
100
AcDbFaceRecord
 10
0.0
 20
0.0
 30
0.0
 70
   128
 71
    81
 72
   211
 73
    79
  0
VERTEX
  5
B79
330
92C
100
AcDbEntity
  8
0
 62
     7
100
AcDbFaceRecord
 10
0.0
 20
0.0
 30
0.0
 70
   128
 71
   215
 72
    83
 73
    89
  0
VERTEX
  5
B7A
330
92C
100
AcDbEntity
  8
0
 62
     7
100
AcDbFaceRecord
 10
0.0
 20
0.0
 30
0.0
 70
   128
 71
   213
 72
   211
 73
    86
  0
VERTEX
  5
B7B
330
92C
100
AcDbEntity
  8
0
 62
     7
100
AcDbFaceRecord
 10
0.0
 20
0.0
 30
0.0
 70
   128
 71
   218
 72
   213
 73
    86
  0
VERTEX
  5
B7C
330
92C
100
AcDbEntity
  8
0
 62
     7
100
AcDbFaceRecord
 10
0.0
 20
0.0
 30
0.0
 70
   128
 71
   216
 72
   215
 73
    89
  0
VERTEX
  5
B7D
330
92C
100
AcDbEntity
  8
0
 62
     7
100
AcDbFaceRecord
 10
0.0
 20
0.0
 30
0.0
 70
   128
 71
    88
 72
    83
 73
   215
  0
VERTEX
  5
B7E
330
92C
100
AcDbEntity
  8
0
 62
     7
100
AcDbFaceRecord
 10
0.0
 20
0.0
 30
0.0
 70
   128
 71
   218
 72
    88
 73
   215
  0
VERTEX
  5
B7F
330
92C
100
AcDbEntity
  8
0
 62
     7
100
AcDbFaceRecord
 10
0.0
 20
0.0
 30
0.0
 70
   128
 71
    88
 72
   218
 73
    86
  0
VERTEX
  5
B80
330
92C
100
AcDbEntity
  8
0
 62
     7
100
AcDbFaceRecord
 10
0.0
 20
0.0
 30
0.0
 70
   128
 71
    81
 72
    86
 73
   211
  0
VERTEX
  5
B81
330
92C
100
AcDbEntity
  8
0
 62
     7
100
AcDbFaceRecord
 10
0.0
 20
0.0
 30
0.0
 70
   128
 71
   221
 72
   216
 73
    89
  0
VERTEX
  5
B82
330
92C
100
AcDbEntity
  8
0
 62
     7
100
AcDbFaceRecord
 10
0.0
 20
0.0
 30
0.0
 70
   128
 71
    91
 72
   221
 73
    89
  0
VERTEX
  5
B83
330
92C
100
AcDbEntity
  8
0
 62
     7
100
AcDbFaceRecord
 10
0.0
 20
0.0
 30
0.0
 70
   128
 71
   225
 72
    93
 73
   103
  0
VERTEX
  5
B84
330
92C
100
AcDbEntity
  8
0
 62
     7
100
AcDbFaceRecord
 10
0.0
 20
0.0
 30
0.0
 70
   128
 71
   223
 72
   221
 73
    96
  0
VERTEX
  5
B85
330
92C
100
AcDbEntity
  8
0
 62
     7
100
AcDbFaceRecord
 10
0.0
 20
0.0
 30
0.0
 70
   128
 71
   232
 72
   223
 73
    96
  0
VERTEX
  5
B86
330
92C
100
AcDbEntity
  8
0
 62
     7
100
AcDbFaceRecord
 10
0.0
 20
0.0
 30
0.0
 70
   128
 71
   100
 72
   230
 73
    98
  0
VERTEX
  5
B87
330
92C
100
AcDbEntity
  8
0
 62
     7
100
AcDbFaceRecord
 10
0.0
 20
0.0
 30
0.0
 70
   128
 71
   228
 72
   230
 73
   100
  0
VERTEX
  5
B88
330
92C
100
AcDbEntity
  8
0
 62
     7
100
AcDbFaceRecord
 10
0.0
 20
0.0
 30
0.0
 70
   128
 71
   226
 72
   225
 73
   103
  0
VERTEX
  5
B89
330
92C
100
AcDbEntity
  8
0
 62
     7
100
AcDbFaceRecord
 10
0.0
 20
0.0
 30
0.0
 70
   128
 71
   102
 72
    93
 73
   225
  0
VERTEX
  5
B8A
330
92C
100
AcDbEntity
  8
0
 62
     7
100
AcDbFaceRecord
 10
0.0
 20
0.0
 30
0.0
 70
   128
 71
   228
 72
   102
 73
   225
  0
VERTEX
  5
B8B
330
92C
100
AcDbEntity
  8
0
 62
     7
100
AcDbFaceRecord
 10
0.0
 20
0.0
 30
0.0
 70
   128
 71
   102
 72
   228
 73
   100
  0
VERTEX
  5
B8C
330
92C
100
AcDbEntity
  8
0
 62
     7
100
AcDbFaceRecord
 10
0.0
 20
0.0
 30
0.0
 70
   128
 71
   232
 72
    98
 73
   230
  0
VERTEX
  5
B8D
330
92C
100
AcDbEntity
  8
0
 62
     7
100
AcDbFaceRecord
 10
0.0
 20
0.0
 30
0.0
 70
   128
 71
    98
 72
   232
 73
    96
  0
VERTEX
  5
B8E
330
92C
100
AcDbEntity
  8
0
 62
     7
100
AcDbFaceRecord
 10
0.0
 20
0.0
 30
0.0
 70
   128
 71
    91
 72
    96
 73
   221
  0
VERTEX
  5
B8F
330
92C
100
AcDbEntity
  8
0
 62
     7
100
AcDbFaceRecord
 10
0.0
 20
0.0
 30
0.0
 70
   128
 71
   235
 72
   226
 73
   103
  0
VERTEX
  5
B90
330
92C
100
AcDbEntity
  8
0
 62
     7
100
AcDbFaceRecord
 10
0.0
 20
0.0
 30
0.0
 70
   128
 71
   105
 72
   235
 73
   103
  0
VERTEX
  5
B91
330
92C
100
AcDbEntity
  8
0
 62
     7
100
AcDbFaceRecord
 10
0.0
 20
0.0
 30
0.0
 70
   128
 71
   237
 72
   235
 73
   105
  0
VERTEX
  5
B92
330
92C
100
AcDbEntity
  8
0
 62
     7
100
AcDbFaceRecord
 10
0.0
 20
0.0
 30
0.0
 70
   128
 71
   107
 72
   237
 73
   105
  0
VERTEX
  5
B93
330
92C
100
AcDbEntity
  8
0
 62
     7
100
AcDbFaceRecord
 10
0.0
 20
0.0
 30
0.0
 70
   128
 71
   243
 72
   109
 73
   112
  0
VERTEX
  5
B94
330
92C
100
AcDbEntity
  8
0
 62
     7
100
AcDbFaceRecord
 10
0.0
 20
0.0
 30
0.0
 70
   128
 71
   242
 72
   243
 73
   112
  0
VERTEX
  5
B95
330
92C
100
AcDbEntity
  8
0
 62
     7
100
AcDbFaceRecord
 10
0.0
 20
0.0
 30
0.0
 70
   128
 71
   239
 72
   242
 73
   113
  0
VERTEX
  5
B96
330
92C
100
AcDbEntity
  8
0
 62
     7
100
AcDbFaceRecord
 10
0.0
 20
0.0
 30
0.0
 70
   128
 71
   246
 72
   239
 73
   113
  0
VERTEX
  5
B97
330
92C
100
AcDbEntity
  8
0
 62
     7
100
AcDbFaceRecord
 10
0.0
 20
0.0
 30
0.0
 70
   128
 71
   115
 72
   246
 73
   113
  0
VERTEX
  5
B98
330
92C
100
AcDbEntity
  8
0
 62
     7
100
AcDbFaceRecord
 10
0.0
 20
0.0
 30
0.0
 70
   128
 71
   113
 72
   242
 73
   112
  0
VERTEX
  5
B99
330
92C
100
AcDbEntity
  8
0
 62
     7
100
AcDbFaceRecord
 10
0.0
 20
0.0
 30
0.0
 70
   128
 71
   107
 72
   109
 73
   243
  0
VERTEX
  5
B9A
330
92C
100
AcDbEntity
  8
0
 62
     7
100
AcDbFaceRecord
 10
0.0
 20
0.0
 30
0.0
 70
   128
 71
   237
 72
   107
 73
   243
  0
VERTEX
  5
B9B
330
92C
100
AcDbEntity
  8
0
 62
     7
100
AcDbFaceRecord
 10
0.0
 20
0.0
 30
0.0
 70
   128
 71
   247
 72
   246
 73
   117
  0
VERTEX
  5
B9C
330
92C
100
AcDbEntity
  8
0
 62
     7
100
AcDbFaceRecord
 10
0.0
 20
0.0
 30
0.0
 70
   128
 71
   250
 72
   247
 73
   117
  0
VERTEX
  5
B9D
330
92C
100
AcDbEntity
  8
0
 62
     7
100
AcDbFaceRecord
 10
0.0
 20
0.0
 30
0.0
 70
   128
 71
   119
 72
   250
 73
   117
  0
VERTEX
  5
B9E
330
92C
100
AcDbEntity
  8
0
 62
     7
100
AcDbFaceRecord
 10
0.0
 20
0.0
 30
0.0
 70
   128
 71
   115
 72
   117
 73
   246
  0
VERTEX
  5
B9F
330
92C
100
AcDbEntity
  8
0
 62
     7
100
AcDbFaceRecord
 10
0.0
 20
0.0
 30
0.0
 70
   128
 71
   251
 72
   250
 73
   121
  0
VERTEX
  5
BA0
330
92C
100
AcDbEntity
  8
0
 62
     7
100
AcDbFaceRecord
 10
0.0
 20
0.0
 30
0.0
 70
   128
 71
   254
 72
   251
 73
   121
  0
VERTEX
  5
BA1
330
92C
100
AcDbEntity
  8
0
 62
     7
100
AcDbFaceRecord
 10
0.0
 20
0.0
 30
0.0
 70
   128
 71
   123
 72
   254
 73
   121
  0
VERTEX
  5
BA2
330
92C
100
AcDbEntity
  8
0
 62
     7
100
AcDbFaceRecord
 10
0.0
 20
0.0
 30
0.0
 70
   128
 71
   119
 72
   121
 73
   250
  0
VERTEX
  5
BA3
330
92C
100
AcDbEntity
  8
0
 62
     7
100
AcDbFaceRecord
 10
0.0
 20
0.0
 30
0.0
 70
   128
 71
   255
 72
   254
 73
   123
  0
VERTEX
  5
BA4
330
92C
100
AcDbEntity
  8
0
 62
     7
100
AcDbFaceRecord
 10
0.0
 20
0.0
 30
0.0
 70
   128
 71
   125
 72
   255
 73
   123
  0
VERTEX
  5
BA5
330
92C
100
AcDbEntity
  8
0
 62
     7
100
AcDbFaceRecord
 10
0.0
 20
0.0
 30
0.0
 70
   128
 71
   131
 72
   255
 73
   125
  0
VERTEX
  5
BA6
330
92C
100
AcDbEntity
  8
0
 62
     7
100
AcDbFaceRecord
 10
0.0
 20
0.0
 30
0.0
 70
   128
 71
   127
 72
   131
 73
   125
  0
VERTEX
  5
BA7
330
92C
100
AcDbEntity
  8
0
 62
     7
100
AcDbFaceRecord
 10
0.0
 20
0.0
 30
0.0
 70
   128
 71
   132
 72
   131
 73
   127
  0
VERTEX
  5
BA8
330
92C
100
AcDbEntity
  8
0
 62
     7
100
AcDbFaceRecord
 10
0.0
 20
0.0
 30
0.0
 70
   128
 71
   129
 72
   132
 73
   127
  0
VERTEX
  5
BA9
330
92C
100
AcDbEntity
  8
0
 62
     7
100
AcDbFaceRecord
 10
0.0
 20
0.0
 30
0.0
 70
   128
 71
   133
 72
   132
 73
   129
  0
VERTEX
  5
BAA
330
92C
100
AcDbEntity
  8
0
 62
     7
100
AcDbFaceRecord
 10
0.0
 20
0.0
 30
0.0
 70
   128
 71
   130
 72
   133
 73
   129
  0
VERTEX
  5
BAB
330
92C
100
AcDbEntity
  8
0
 62
     7
100
AcDbFaceRecord
 10
0.0
 20
0.0
 30
0.0
 70
   128
 71
   134
 72
   133
 73
   130
  0
VERTEX
  5
BAC
330
92C
100
AcDbEntity
  8
0
 62
     7
100
AcDbFaceRecord
 10
0.0
 20
0.0
 30
0.0
 70
   128
 71
   128
 72
   134
 73
   130
  0
VERTEX
  5
BAD
330
92C
100
AcDbEntity
  8
0
 62
     7
100
AcDbFaceRecord
 10
0.0
 20
0.0
 30
0.0
 70
   128
 71
   256
 72
   134
 73
   128
  0
VERTEX
  5
BAE
330
92C
100
AcDbEntity
  8
0
 62
     7
100
AcDbFaceRecord
 10
0.0
 20
0.0
 30
0.0
 70
   128
 71
   126
 72
   256
 73
   128
  0
VERTEX
  5
BAF
330
92C
100
AcDbEntity
  8
0
 62
     7
100
AcDbFaceRecord
 10
0.0
 20
0.0
 30
0.0
 70
   128
 71
   253
 72
   256
 73
   126
  0
VERTEX
  5
BB0
330
92C
100
AcDbEntity
  8
0
 62
     7
100
AcDbFaceRecord
 10
0.0
 20
0.0
 30
0.0
 70
   128
 71
   124
 72
   253
 73
   126
  0
VERTEX
  5
BB1
330
92C
100
AcDbEntity
  8
0
 62
     7
100
AcDbFaceRecord
 10
0.0
 20
0.0
 30
0.0
 70
   128
 71
   252
 72
   122
 73
   120
  0
VERTEX
  5
BB2
330
92C
100
AcDbEntity
  8
0
 62
     7
100
AcDbFaceRecord
 10
0.0
 20
0.0
 30
0.0
 70
   128
 71
   249
 72
   252
 73
   120
  0
VERTEX
  5
BB3
330
92C
100
AcDbEntity
  8
0
 62
     7
100
AcDbFaceRecord
 10
0.0
 20
0.0
 30
0.0
 70
   128
 71
   124
 72
   122
 73
   252
  0
VERTEX
  5
BB4
330
92C
100
AcDbEntity
  8
0
 62
     7
100
AcDbFaceRecord
 10
0.0
 20
0.0
 30
0.0
 70
   128
 71
   253
 72
   124
 73
   252
  0
VERTEX
  5
BB5
330
92C
100
AcDbEntity
  8
0
 62
     7
100
AcDbFaceRecord
 10
0.0
 20
0.0
 30
0.0
 70
   128
 71
   248
 72
   118
 73
   116
  0
VERTEX
  5
BB6
330
92C
100
AcDbEntity
  8
0
 62
     7
100
AcDbFaceRecord
 10
0.0
 20
0.0
 30
0.0
 70
   128
 71
   245
 72
   248
 73
   116
  0
VERTEX
  5
BB7
330
92C
100
AcDbEntity
  8
0
 62
     7
100
AcDbFaceRecord
 10
0.0
 20
0.0
 30
0.0
 70
   128
 71
   120
 72
   118
 73
   248
  0
VERTEX
  5
BB8
330
92C
100
AcDbEntity
  8
0
 62
     7
100
AcDbFaceRecord
 10
0.0
 20
0.0
 30
0.0
 70
   128
 71
   249
 72
   120
 73
   248
  0
VERTEX
  5
BB9
330
92C
100
AcDbEntity
  8
0
 62
     7
100
AcDbFaceRecord
 10
0.0
 20
0.0
 30
0.0
 70
   128
 71
   240
 72
   114
 73
   111
  0
VERTEX
  5
BBA
330
92C
100
AcDbEntity
  8
0
 62
     7
100
AcDbFaceRecord
 10
0.0
 20
0.0
 30
0.0
 70
   128
 71
   241
 72
   240
 73
   111
  0
VERTEX
  5
BBB
330
92C
100
AcDbEntity
  8
0
 62
     7
100
AcDbFaceRecord
 10
0.0
 20
0.0
 30
0.0
 70
   128
 71
   244
 72
   241
 73
   110
  0
VERTEX
  5
BBC
330
92C
100
AcDbEntity
  8
0
 62
     7
100
AcDbFaceRecord
 10
0.0
 20
0.0
 30
0.0
 70
   128
 71
   238
 72
   244
 73
   110
  0
VERTEX
  5
BBD
330
92C
100
AcDbEntity
  8
0
 62
     7
100
AcDbFaceRecord
 10
0.0
 20
0.0
 30
0.0
 70
   128
 71
   108
 72
   238
 73
   110
  0
VERTEX
  5
BBE
330
92C
100
AcDbEntity
  8
0
 62
     7
100
AcDbFaceRecord
 10
0.0
 20
0.0
 30
0.0
 70
   128
 71
   110
 72
   241
 73
   111
  0
VERTEX
  5
BBF
330
92C
100
AcDbEntity
  8
0
 62
     7
100
AcDbFaceRecord
 10
0.0
 20
0.0
 30
0.0
 70
   128
 71
   116
 72
   114
 73
   240
  0
VERTEX
  5
BC0
330
92C
100
AcDbEntity
  8
0
 62
     7
100
AcDbFaceRecord
 10
0.0
 20
0.0
 30
0.0
 70
   128
 71
   245
 72
   116
 73
   240
  0
VERTEX
  5
BC1
330
92C
100
AcDbEntity
  8
0
 62
     7
100
AcDbFaceRecord
 10
0.0
 20
0.0
 30
0.0
 70
   128
 71
   236
 72
   238
 73
   108
  0
VERTEX
  5
BC2
330
92C
100
AcDbEntity
  8
0
 62
     7
100
AcDbFaceRecord
 10
0.0
 20
0.0
 30
0.0
 70
   128
 71
   106
 72
   236
 73
   108
  0
VERTEX
  5
BC3
330
92C
100
AcDbEntity
  8
0
 62
     7
100
AcDbFaceRecord
 10
0.0
 20
0.0
 30
0.0
 70
   128
 71
   234
 72
   236
 73
   106
  0
VERTEX
  5
BC4
330
92C
100
AcDbEntity
  8
0
 62
     7
100
AcDbFaceRecord
 10
0.0
 20
0.0
 30
0.0
 70
   128
 71
    95
 72
   234
 73
   106
  0
VERTEX
  5
BC5
330
92C
100
AcDbEntity
  8
0
 62
     7
100
AcDbFaceRecord
 10
0.0
 20
0.0
 30
0.0
 70
   128
 71
   224
 72
    97
 73
    92
  0
VERTEX
  5
BC6
330
92C
100
AcDbEntity
  8
0
 62
     7
100
AcDbFaceRecord
 10
0.0
 20
0.0
 30
0.0
 70
   128
 71
   227
 72
   234
 73
    94
  0
VERTEX
  5
BC7
330
92C
100
AcDbEntity
  8
0
 62
     7
100
AcDbFaceRecord
 10
0.0
 20
0.0
 30
0.0
 70
   128
 71
   231
 72
   227
 73
    94
  0
VERTEX
  5
BC8
330
92C
100
AcDbEntity
  8
0
 62
     7
100
AcDbFaceRecord
 10
0.0
 20
0.0
 30
0.0
 70
   128
 71
    99
 72
   229
 73
   104
  0
VERTEX
  5
BC9
330
92C
100
AcDbEntity
  8
0
 62
     7
100
AcDbFaceRecord
 10
0.0
 20
0.0
 30
0.0
 70
   128
 71
   233
 72
   229
 73
    99
  0
VERTEX
  5
BCA
330
92C
100
AcDbEntity
  8
0
 62
     7
100
AcDbFaceRecord
 10
0.0
 20
0.0
 30
0.0
 70
   128
 71
   222
 72
   224
 73
    92
  0
VERTEX
  5
BCB
330
92C
100
AcDbEntity
  8
0
 62
     7
100
AcDbFaceRecord
 10
0.0
 20
0.0
 30
0.0
 70
   128
 71
   101
 72
    97
 73
   224
  0
VERTEX
  5
BCC
330
92C
100
AcDbEntity
  8
0
 62
     7
100
AcDbFaceRecord
 10
0.0
 20
0.0
 30
0.0
 70
   128
 71
   233
 72
   101
 73
   224
  0
VERTEX
  5
BCD
330
92C
100
AcDbEntity
  8
0
 62
     7
100
AcDbFaceRecord
 10
0.0
 20
0.0
 30
0.0
 70
   128
 71
   101
 72
   233
 73
    99
  0
VERTEX
  5
BCE
330
92C
100
AcDbEntity
  8
0
 62
     7
100
AcDbFaceRecord
 10
0.0
 20
0.0
 30
0.0
 70
   128
 71
   231
 72
   104
 73
   229
  0
VERTEX
  5
BCF
330
92C
100
AcDbEntity
  8
0
 62
     7
100
AcDbFaceRecord
 10
0.0
 20
0.0
 30
0.0
 70
   128
 71
   104
 72
   231
 73
    94
  0
VERTEX
  5
BD0
330
92C
100
AcDbEntity
  8
0
 62
     7
100
AcDbFaceRecord
 10
0.0
 20
0.0
 30
0.0
 70
   128
 71
    95
 72
    94
 73
   234
  0
VERTEX
  5
BD1
330
92C
100
AcDbEntity
  8
0
 62
     7
100
AcDbFaceRecord
 10
0.0
 20
0.0
 30
0.0
 70
   128
 71
   220
 72
   222
 73
    92
  0
VERTEX
  5
BD2
330
92C
100
AcDbEntity
  8
0
 62
     7
100
AcDbFaceRecord
 10
0.0
 20
0.0
 30
0.0
 70
   128
 71
    85
 72
   220
 73
    92
  0
VERTEX
  5
BD3
330
92C
100
AcDbEntity
  8
0
 62
     7
100
AcDbFaceRecord
 10
0.0
 20
0.0
 30
0.0
 70
   128
 71
   214
 72
    87
 73
    82
  0
VERTEX
  5
BD4
330
92C
100
AcDbEntity
  8
0
 62
     7
100
AcDbFaceRecord
 10
0.0
 20
0.0
 30
0.0
 70
   128
 71
   217
 72
   220
 73
    84
  0
VERTEX
  5
BD5
330
92C
100
AcDbEntity
  8
0
 62
     7
100
AcDbFaceRecord
 10
0.0
 20
0.0
 30
0.0
 70
   128
 71
   219
 72
   217
 73
    84
  0
VERTEX
  5
BD6
330
92C
100
AcDbEntity
  8
0
 62
     7
100
AcDbFaceRecord
 10
0.0
 20
0.0
 30
0.0
 70
   128
 71
   212
 72
   214
 73
    82
  0
VERTEX
  5
BD7
330
92C
100
AcDbEntity
  8
0
 62
     7
100
AcDbFaceRecord
 10
0.0
 20
0.0
 30
0.0
 70
   128
 71
    90
 72
    87
 73
   214
  0
VERTEX
  5
BD8
330
92C
100
AcDbEntity
  8
0
 62
     7
100
AcDbFaceRecord
 10
0.0
 20
0.0
 30
0.0
 70
   128
 71
   219
 72
    90
 73
   214
  0
VERTEX
  5
BD9
330
92C
100
AcDbEntity
  8
0
 62
     7
100
AcDbFaceRecord
 10
0.0
 20
0.0
 30
0.0
 70
   128
 71
    90
 72
   219
 73
    84
  0
VERTEX
  5
BDA
330
92C
100
AcDbEntity
  8
0
 62
     7
100
AcDbFaceRecord
 10
0.0
 20
0.0
 30
0.0
 70
   128
 71
    85
 72
    84
 73
   220
  0
VERTEX
  5
BDB
330
92C
100
AcDbEntity
  8
0
 62
     7
100
AcDbFaceRecord
 10
0.0
 20
0.0
 30
0.0
 70
   128
 71
   210
 72
   212
 73
    82
  0
VERTEX
  5
BDC
330
92C
100
AcDbEntity
  8
0
 62
     7
100
AcDbFaceRecord
 10
0.0
 20
0.0
 30
0.0
 70
   128
 71
    71
 72
   210
 73
    82
  0
VERTEX
  5
BDD
330
92C
100
AcDbEntity
  8
0
 62
     7
100
AcDbFaceRecord
 10
0.0
 20
0.0
 30
0.0
 70
   128
 71
   200
 72
    73
 73
    68
  0
VERTEX
  5
BDE
330
92C
100
AcDbEntity
  8
0
 62
     7
100
AcDbFaceRecord
 10
0.0
 20
0.0
 30
0.0
 70
   128
 71
   203
 72
   210
 73
    70
  0
VERTEX
  5
BDF
330
92C
100
AcDbEntity
  8
0
 62
     7
100
AcDbFaceRecord
 10
0.0
 20
0.0
 30
0.0
 70
   128
 71
   207
 72
   203
 73
    70
  0
VERTEX
  5
BE0
330
92C
100
AcDbEntity
  8
0
 62
     7
100
AcDbFaceRecord
 10
0.0
 20
0.0
 30
0.0
 70
   128
 71
    75
 72
   205
 73
    80
  0
VERTEX
  5
BE1
330
92C
100
AcDbEntity
  8
0
 62
     7
100
AcDbFaceRecord
 10
0.0
 20
0.0
 30
0.0
 70
   128
 71
   209
 72
   205
 73
    75
  0
VERTEX
  5
BE2
330
92C
100
AcDbEntity
  8
0
 62
     7
100
AcDbFaceRecord
 10
0.0
 20
0.0
 30
0.0
 70
   128
 71
   198
 72
   200
 73
    68
  0
VERTEX
  5
BE3
330
92C
100
AcDbEntity
  8
0
 62
     7
100
AcDbFaceRecord
 10
0.0
 20
0.0
 30
0.0
 70
   128
 71
    77
 72
    73
 73
   200
  0
VERTEX
  5
BE4
330
92C
100
AcDbEntity
  8
0
 62
     7
100
AcDbFaceRecord
 10
0.0
 20
0.0
 30
0.0
 70
   128
 71
   209
 72
    77
 73
   200
  0
VERTEX
  5
BE5
330
92C
100
AcDbEntity
  8
0
 62
     7
100
AcDbFaceRecord
 10
0.0
 20
0.0
 30
0.0
 70
   128
 71
    77
 72
   209
 73
    75
  0
VERTEX
  5
BE6
330
92C
100
AcDbEntity
  8
0
 62
     7
100
AcDbFaceRecord
 10
0.0
 20
0.0
 30
0.0
 70
   128
 71
   207
 72
    80
 73
   205
  0
VERTEX
  5
BE7
330
92C
100
AcDbEntity
  8
0
 62
     7
100
AcDbFaceRecord
 10
0.0
 20
0.0
 30
0.0
 70
   128
 71
    80
 72
   207
 73
    70
  0
VERTEX
  5
BE8
330
92C
100
AcDbEntity
  8
0
 62
     7
100
AcDbFaceRecord
 10
0.0
 20
0.0
 30
0.0
 70
   128
 71
    71
 72
    70
 73
   210
  0
VERTEX
  5
BE9
330
92C
100
AcDbEntity
  8
0
 62
     7
100
AcDbFaceRecord
 10
0.0
 20
0.0
 30
0.0
 70
   128
 71
   195
 72
   198
 73
    68
  0
VERTEX
  5
BEA
330
92C
100
AcDbEntity
  8
0
 62
     7
100
AcDbFaceRecord
 10
0.0
 20
0.0
 30
0.0
 70
   128
 71
    66
 72
   195
 73
    68
  0
VERTEX
  5
BEB
330
92C
100
AcDbEntity
  8
0
 62
     7
100
AcDbFaceRecord
 10
0.0
 20
0.0
 30
0.0
 70
   128
 71
   194
 72
    64
 73
    62
  0
VERTEX
  5
BEC
330
92C
100
AcDbEntity
  8
0
 62
     7
100
AcDbFaceRecord
 10
0.0
 20
0.0
 30
0.0
 70
   128
 71
   192
 72
   194
 73
    62
  0
VERTEX
  5
BED
330
92C
100
AcDbEntity
  8
0
 62
     7
100
AcDbFaceRecord
 10
0.0
 20
0.0
 30
0.0
 70
   128
 71
    66
 72
    64
 73
   194
  0
VERTEX
  5
BEE
330
92C
100
AcDbEntity
  8
0
 62
     7
100
AcDbFaceRecord
 10
0.0
 20
0.0
 30
0.0
 70
   128
 71
   195
 72
    66
 73
   194
  0
VERTEX
  5
BEF
330
92C
100
AcDbEntity
  8
0
 62
     7
100
AcDbFaceRecord
 10
0.0
 20
0.0
 30
0.0
 70
   128
 71
   190
 72
   192
 73
    62
  0
VERTEX
  5
BF0
330
92C
100
AcDbEntity
  8
0
 62
     7
100
AcDbFaceRecord
 10
0.0
 20
0.0
 30
0.0
 70
   128
 71
    59
 72
   190
 73
    62
  0
VERTEX
  5
BF1
330
92C
100
AcDbEntity
  8
0
 62
     7
100
AcDbFaceRecord
 10
0.0
 20
0.0
 30
0.0
 70
   128
 71
    58
 72
   188
 73
   190
  0
VERTEX
  5
BF2
330
92C
100
AcDbEntity
  8
0
 62
     7
100
AcDbFaceRecord
 10
0.0
 20
0.0
 30
0.0
 70
   128
 71
    59
 72
    58
 73
   190
  0
VERTEX
  5
BF3
330
92C
100
AcDbEntity
  8
0
 62
     7
100
AcDbFaceRecord
 10
0.0
 20
0.0
 30
0.0
 70
   128
 71
   186
 72
   188
 73
    58
  0
VERTEX
  5
BF4
330
92C
100
AcDbEntity
  8
0
 62
     7
100
AcDbFaceRecord
 10
0.0
 20
0.0
 30
0.0
 70
   128
 71
    53
 72
   186
 73
    58
  0
VERTEX
  5
BF5
330
92C
100
AcDbEntity
  8
0
 62
     7
100
AcDbFaceRecord
 10
0.0
 20
0.0
 30
0.0
 70
   128
 71
   185
 72
   186
 73
    55
  0
VERTEX
  5
BF6
330
92C
100
AcDbEntity
  8
0
 62
     7
100
AcDbFaceRecord
 10
0.0
 20
0.0
 30
0.0
 70
   128
 71
   182
 72
   185
 73
    55
  0
VERTEX
  5
BF7
330
92C
100
AcDbEntity
  8
0
 62
     7
100
AcDbFaceRecord
 10
0.0
 20
0.0
 30
0.0
 70
   128
 71
    51
 72
   182
 73
    55
  0
VERTEX
  5
BF8
330
92C
100
AcDbEntity
  8
0
 62
     7
100
AcDbFaceRecord
 10
0.0
 20
0.0
 30
0.0
 70
   128
 71
    53
 72
    55
 73
   186
  0
VERTEX
  5
BF9
330
92C
100
AcDbEntity
  8
0
 62
     7
100
AcDbFaceRecord
 10
0.0
 20
0.0
 30
0.0
 70
   128
 71
    50
 72
   180
 73
   182
  0
VERTEX
  5
BFA
330
92C
100
AcDbEntity
  8
0
 62
     7
100
AcDbFaceRecord
 10
0.0
 20
0.0
 30
0.0
 70
   128
 71
    51
 72
    50
 73
   182
  0
VERTEX
  5
BFB
330
92C
100
AcDbEntity
  8
0
 62
     7
100
AcDbFaceRecord
 10
0.0
 20
0.0
 30
0.0
 70
   128
 71
   178
 72
   180
 73
    50
  0
VERTEX
  5
BFC
330
92C
100
AcDbEntity
  8
0
 62
     7
100
AcDbFaceRecord
 10
0.0
 20
0.0
 30
0.0
 70
   128
 71
    46
 72
   178
 73
    50
  0
VERTEX
  5
BFD
330
92C
100
AcDbEntity
  8
0
 62
     7
100
AcDbFaceRecord
 10
0.0
 20
0.0
 30
0.0
 70
   128
 71
   168
 72
    40
 73
    42
  0
VERTEX
  5
BFE
330
92C
100
AcDbEntity
  8
0
 62
     7
100
AcDbFaceRecord
 10
0.0
 20
0.0
 30
0.0
 70
   128
 71
    38
 72
   172
 73
    39
  0
VERTEX
  5
BFF
330
92C
100
AcDbEntity
  8
0
 62
     7
100
AcDbFaceRecord
 10
0.0
 20
0.0
 30
0.0
 70
   128
 71
   170
 72
   172
 73
    38
  0
VERTEX
  5
C00
330
92C
100
AcDbEntity
  8
0
 62
     7
100
AcDbFaceRecord
 10
0.0
 20
0.0
 30
0.0
 70
   128
 71
   176
 72
   170
 73
    38
  0
VERTEX
  5
C01
330
92C
100
AcDbEntity
  8
0
 62
     7
100
AcDbFaceRecord
 10
0.0
 20
0.0
 30
0.0
 70
   128
 71
   169
 72
   168
 73
    42
  0
VERTEX
  5
C02
330
92C
100
AcDbEntity
  8
0
 62
     7
100
AcDbFaceRecord
 10
0.0
 20
0.0
 30
0.0
 70
   128
 71
    36
 72
   166
 73
   169
  0
VERTEX
  5
C03
330
92C
100
AcDbEntity
  8
0
 62
     7
100
AcDbFaceRecord
 10
0.0
 20
0.0
 30
0.0
 70
   128
 71
    36
 72
   169
 73
    42
  0
VERTEX
  5
C04
330
92C
100
AcDbEntity
  8
0
 62
     7
100
AcDbFaceRecord
 10
0.0
 20
0.0
 30
0.0
 70
   128
 71
    48
 72
    40
 73
   168
  0
VERTEX
  5
C05
330
92C
100
AcDbEntity
  8
0
 62
     7
100
AcDbFaceRecord
 10
0.0
 20
0.0
 30
0.0
 70
   128
 71
   176
 72
    48
 73
   168
  0
VERTEX
  5
C06
330
92C
100
AcDbEntity
  8
0
 62
     7
100
AcDbFaceRecord
 10
0.0
 20
0.0
 30
0.0
 70
   128
 71
    48
 72
   176
 73
    38
  0
VERTEX
  5
C07
330
92C
100
AcDbEntity
  8
0
 62
     7
100
AcDbFaceRecord
 10
0.0
 20
0.0
 30
0.0
 70
   128
 71
   178
 72
    39
 73
   172
  0
VERTEX
  5
C08
330
92C
100
AcDbEntity
  8
0
 62
     7
100
AcDbFaceRecord
 10
0.0
 20
0.0
 30
0.0
 70
   128
 71
    46
 72
    39
 73
   178
  0
VERTEX
  5
C09
330
92C
100
AcDbEntity
  8
0
 62
     7
100
AcDbFaceRecord
 10
0.0
 20
0.0
 30
0.0
 70
   128
 71
   164
 72
   166
 73
    36
  0
VERTEX
  5
C0A
330
92C
100
AcDbEntity
  8
0
 62
     7
100
AcDbFaceRecord
 10
0.0
 20
0.0
 30
0.0
 70
   128
 71
    25
 72
   164
 73
    36
  0
VERTEX
  5
C0B
330
92C
100
AcDbEntity
  8
0
 62
     7
100
AcDbFaceRecord
 10
0.0
 20
0.0
 30
0.0
 70
   128
 71
   154
 72
    27
 73
    22
  0
VERTEX
  5
C0C
330
92C
100
AcDbEntity
  8
0
 62
     7
100
AcDbFaceRecord
 10
0.0
 20
0.0
 30
0.0
 70
   128
 71
   157
 72
   164
 73
    24
  0
VERTEX
  5
C0D
330
92C
100
AcDbEntity
  8
0
 62
     7
100
AcDbFaceRecord
 10
0.0
 20
0.0
 30
0.0
 70
   128
 71
   161
 72
   157
 73
    24
  0
VERTEX
  5
C0E
330
92C
100
AcDbEntity
  8
0
 62
     7
100
AcDbFaceRecord
 10
0.0
 20
0.0
 30
0.0
 70
   128
 71
    29
 72
   159
 73
    34
  0
VERTEX
  5
C0F
330
92C
100
AcDbEntity
  8
0
 62
     7
100
AcDbFaceRecord
 10
0.0
 20
0.0
 30
0.0
 70
   128
 71
   163
 72
   159
 73
    29
  0
VERTEX
  5
C10
330
92C
100
AcDbEntity
  8
0
 62
     7
100
AcDbFaceRecord
 10
0.0
 20
0.0
 30
0.0
 70
   128
 71
   152
 72
   154
 73
    22
  0
VERTEX
  5
C11
330
92C
100
AcDbEntity
  8
0
 62
     7
100
AcDbFaceRecord
 10
0.0
 20
0.0
 30
0.0
 70
   128
 71
    31
 72
    27
 73
   154
  0
VERTEX
  5
C12
330
92C
100
AcDbEntity
  8
0
 62
     7
100
AcDbFaceRecord
 10
0.0
 20
0.0
 30
0.0
 70
   128
 71
   163
 72
    31
 73
   154
  0
VERTEX
  5
C13
330
92C
100
AcDbEntity
  8
0
 62
     7
100
AcDbFaceRecord
 10
0.0
 20
0.0
 30
0.0
 70
   128
 71
    31
 72
   163
 73
    29
  0
VERTEX
  5
C14
330
92C
100
AcDbEntity
  8
0
 62
     7
100
AcDbFaceRecord
 10
0.0
 20
0.0
 30
0.0
 70
   128
 71
   161
 72
    34
 73
   159
  0
VERTEX
  5
C15
330
92C
100
AcDbEntity
  8
0
 62
     7
100
AcDbFaceRecord
 10
0.0
 20
0.0
 30
0.0
 70
   128
 71
    34
 72
   161
 73
    24
  0
VERTEX
  5
C16
330
92C
100
AcDbEntity
  8
0
 62
     7
100
AcDbFaceRecord
 10
0.0
 20
0.0
 30
0.0
 70
   128
 71
    25
 72
    24
 73
   164
  0
VERTEX
  5
C17
330
92C
100
AcDbEntity
  8
0
 62
     7
100
AcDbFaceRecord
 10
0.0
 20
0.0
 30
0.0
 70
   128
 71
   150
 72
   152
 73
    22
  0
VERTEX
  5
C18
330
92C
100
AcDbEntity
  8
0
 62
     7
100
AcDbFaceRecord
 10
0.0
 20
0.0
 30
0.0
 70
   128
 71
    18
 72
   150
 73
    22
  0
VERTEX
  5
C19
330
92C
100
AcDbEntity
  8
0
 62
     7
100
AcDbFaceRecord
 10
0.0
 20
0.0
 30
0.0
 70
   128
 71
   145
 72
   150
 73
    20
  0
VERTEX
  5
C1A
330
92C
100
AcDbEntity
  8
0
 62
     7
100
AcDbFaceRecord
 10
0.0
 20
0.0
 30
0.0
 70
   128
 71
   149
 72
   145
 73
    20
  0
VERTEX
  5
C1B
330
92C
100
AcDbEntity
  8
0
 62
     7
100
AcDbFaceRecord
 10
0.0
 20
0.0
 30
0.0
 70
   128
 71
    12
 72
   148
 73
    15
  0
VERTEX
  5
C1C
330
92C
100
AcDbEntity
  8
0
 62
     7
100
AcDbFaceRecord
 10
0.0
 20
0.0
 30
0.0
 70
   128
 71
   142
 72
   148
 73
    12
  0
VERTEX
  5
C1D
330
92C
100
AcDbEntity
  8
0
 62
     7
100
AcDbFaceRecord
 10
0.0
 20
0.0
 30
0.0
 70
   128
 71
   149
 72
    15
 73
   148
  0
VERTEX
  5
C1E
330
92C
100
AcDbEntity
  8
0
 62
     7
100
AcDbFaceRecord
 10
0.0
 20
0.0
 30
0.0
 70
   128
 71
    13
 72
    15
 73
   149
  0
VERTEX
  5
C1F
330
92C
100
AcDbEntity
  8
0
 62
     7
100
AcDbFaceRecord
 10
0.0
 20
0.0
 30
0.0
 70
   128
 71
    13
 72
   149
 73
    20
  0
VERTEX
  5
C20
330
92C
100
AcDbEntity
  8
0
 62
     7
100
AcDbFaceRecord
 10
0.0
 20
0.0
 30
0.0
 70
   128
 71
    18
 72
    20
 73
   150
  0
VERTEX
  5
C21
330
92C
100
AcDbEntity
  8
0
 62
     7
100
AcDbFaceRecord
 10
0.0
 20
0.0
 30
0.0
 70
   128
 71
   140
 72
   142
 73
    12
  0
VERTEX
  5
C22
330
92C
100
AcDbEntity
  8
0
 62
     7
100
AcDbFaceRecord
 10
0.0
 20
0.0
 30
0.0
 70
   128
 71
     5
 72
   140
 73
    12
  0
VERTEX
  5
C23
330
92C
100
AcDbEntity
  8
0
 62
     7
100
AcDbFaceRecord
 10
0.0
 20
0.0
 30
0.0
 70
   128
 71
     4
 72
   138
 73
   140
  0
VERTEX
  5
C24
330
92C
100
AcDbEntity
  8
0
 62
     7
100
AcDbFaceRecord
 10
0.0
 20
0.0
 30
0.0
 70
   128
 71
     5
 72
     4
 73
   140
  0
VERTEX
  5
C25
330
92C
100
AcDbEntity
  8
0
 62
     7
100
AcDbFaceRecord
 10
0.0
 20
0.0
 30
0.0
 70
   128
 71
     9
 72
   138
 73
     4
  0
VERTEX
  5
C26
330
92C
100
AcDbEntity
  8
0
 62
     7
100
AcDbFaceRecord
 10
0.0
 20
0.0
 30
0.0
 70
   128
 71
     3
 72
     9
 73
     4
  0
VERTEX
  5
C27
330
92C
100
AcDbEntity
  8
0
 62
     7
100
AcDbFaceRecord
 10
0.0
 20
0.0
 30
0.0
 70
   128
 71
     8
 72
     7
 73
   135
  0
VERTEX
  5
C28
330
92C
100
AcDbEntity
  8
0
 62
     7
100
AcDbFaceRecord
 10
0.0
 20
0.0
 30
0.0
 70
   128
 71
     2
 72
     8
 73
   135
  0
SEQEND
  5
C29
330
92C
100
AcDbEntity
  8
0
 62
     7
  0
INSERT
  5
C2A
330
1F
100
AcDbEntity
  8
0
100
AcDbBlockReference
 66
     1
  2
RM_SDB
 10
-10.3810358834927
 20
0.0
 30
-1.690010159850203
1001
AVE_MATERIAL
1002
{
1000
*GLOBAL*01
1000
2
1000

1002
{
1002
}
1002
{
1070
    39
1002
{
1002
{
1010
1.428571462631224
1020
1.428571462631224
1030
1.428571462631224
1002
}
1040
0.6999999880790711
1000

1040
0.0
1002
{
1002
}
1040
0.0
1002
{
1002
}
1040
0.0
1002
}
1002
{
1002
{
1010
1.0
1020
1.0
1030
1.0
1002
}
1040
1.0
1000

1040
0.0
1002
{
1002
}
1040
0.0
1002
{
1002
}
1040
0.0
1002
}
1002
{
1002
{
1010
5.0
1020
5.0
1030
5.0
1002
}
1040
0.2000000029802322
1000

1040
0.0
1002
{
1002
}
1040
0.0
1002
{
1002
}
1040
0.0
1002
}
1002
{
1070
     0
1002
{
1070
     1
1002
{
1040
1.0
1040
1.0
1000

1040
0.0
1002
{
1002
}
1040
0.0
1002
{
1002
}
1040
0.0
1002
}
1002
}
1040
0.0
1040
0.0
1040
0.0
1002
}
1002
{
1040
0.0
1040
0.0
1000

1040
0.0
1002
{
1002
}
1040
0.0
1002
{
1002
}
1040
0.0
1002
}
1002
{
1040
0.5
1040
1.0
1000

1040
0.0
1002
{
1002
}
1040
0.0
1002
{
1002
}
1040
0.0
1002
}
1002
{
1070
     0
1040
0.0
1002
{
1002
}
1040
0.0
1002
{
1002
}
1040
0.0
1002
}
1002
{
1040
0.0
1002
{
1002
{
1010
0.0
1020
0.0
1030
0.0
1002
}
1040
0.0
1000

1040
0.0
1002
{
1002
}
1040
0.0
1002
{
1002
}
1040
0.0
1002
}
1002
}
1002
{
1002
{
1070
     1
1002
{
1040
0.0
1040
1.0
1000

1040
0.0
1002
{
1002
}
1040
0.0
1002
{
1002
}
1040
0.0
1002
}
1002
}
1040
0.0
1002
{
1002
}
1010
0.0
1020
0.0
1030
0.0
1010
0.0
1020
0.0
1030
0.0
1010
0.0
1020
0.0
1030
0.0
1070
     0
1002
}
1002
{
1002
{
1040
0.0
1040
0.0
1002
{
1070
     0
1002
}
1002
}
1070
     0
1040
0.0
1002
{
1002
}
1002
}
1002
{
1002
}
1002
}
1002
{
1071
        3
1070
     3
1070
     0
1002
{
1070
     2
1070
     1
1070
     0
1040
0.0
1002
}
1070
     0
1070
     2
1002
{
1002
}
1002
}
1002
{
1040
8030.0
1040
190.3000030517578
1040
0.3050000071525574
1040
228.0
1040
545.0
1040
14.0
1040
17.39999961853027
1040
0.4560000002384186
1002
}
1000
5F9
1002
}
  0
ATTRIB
  5
C2B
330
C2A
100
AcDbEntity
  8
0
100
AcDbText
 10
-10.3810358834927
 20
0.0
 30
-1.690010159850203
 40
0.2
  1
*GLOBAL*01
100
AcDbAttribute
  2
NAME
 70
     1
  0
ATTRIB
  5
C2C
330
C2A
100
AcDbEntity
  8
0
100
AcDbText
 10
-10.3810358834927
 20
0.0
 30
-1.690010159850203
 40
0.2
  1

100
AcDbAttribute
  2
ACADCOLOR
 70
     1
  0
ATTRIB
  5
C2D
330
C2A
100
AcDbEntity
  8
0
100
AcDbText
 10
-10.3810358834927
 20
0.0
 30
-1.690010159850203
 40
0.2
  1
1.0000,1.0000,1.0000
100
AcDbAttribute
  2
COLOR
 70
     1
  0
ATTRIB
  5
C2E
330
C2A
100
AcDbEntity
  8
0
100
AcDbText
 10
-10.3810358834927
 20
0.0
 30
-1.690010159850203
 40
0.2
  1
1.0,1.0,1.0
100
AcDbAttribute
  2
OPACITY
 70
     1
  0
ATTRIB
  5
C2F
330
C2A
100
AcDbEntity
  8
0
100
AcDbText
 10
-10.3810358834927
 20
0.0
 30
-1.690010159850203
 40
0.2
  1
("nullsurf" "")
100
AcDbAttribute
  2
SURFACE
 70
     1
  0
ATTRIB
  5
C30
330
C2A
100
AcDbEntity
  8
0
100
AcDbText
 10
-10.3810358834927
 20
0.0
 30
-1.690010159850203
 40
0.2
  1
(11 "Ka" "0.7")(11 "Kd" "1")(11 "Ks" "0.2")(11 "roughness" "0.5")
100
AcDbAttribute
  2
SURF1
 70
     1
  0
ATTRIB
  5
C31
330
C2A
100
AcDbEntity
  8
0
100
AcDbText
 10
-10.3810358834927
 20
0.0
 30
-1.690010159850203
 40
0.2
  1

100
AcDbAttribute
  2
SURF2
 70
     1
  0
ATTRIB
  5
C32
330
C2A
100
AcDbEntity
  8
0
100
AcDbText
 10
-10.3810358834927
 20
0.0
 30
-1.690010159850203
 40
0.2
  1

100
AcDbAttribute
  2
SURF3
 70
     1
  0
ATTRIB
  5
C33
330
C2A
100
AcDbEntity
  8
0
100
AcDbText
 10
-10.3810358834927
 20
0.0
 30
-1.690010159850203
 40
0.2
  1

100
AcDbAttribute
  2
SURF4
 70
     1
  0
ATTRIB
  5
C34
330
C2A
100
AcDbEntity
  8
0
100
AcDbText
 10
-10.3810358834927
 20
0.0
 30
-1.690010159850203
 40
0.2
  1
-1.0
100
AcDbAttribute
  2
SHADINGRATE
 70
     1
  0
ATTRIB
  5
C35
330
C2A
100
AcDbEntity
  8
0
100
AcDbText
 10
-10.3810358834927
 20
0.0
 30
-1.690010159850203
 40
0.2
  1
("nulldisp" "")
100
AcDbAttribute
  2
DISPLACEMENT
 70
     1
  0
ATTRIB
  5
C36
330
C2A
100
AcDbEntity
  8
0
100
AcDbText
 10
-10.3810358834927
 20
0.0
 30
-1.690010159850203
 40
0.2
  1

100
AcDbAttribute
  2
DISP1
 70
     1
  0
ATTRIB
  5
C37
330
C2A
100
AcDbEntity
  8
0
100
AcDbText
 10
-10.3810358834927
 20
0.0
 30
-1.690010159850203
 40
0.2
  1

100
AcDbAttribute
  2
DISP2
 70
     1
  0
ATTRIB
  5
C38
330
C2A
100
AcDbEntity
  8
0
100
AcDbText
 10
-10.3810358834927
 20
0.0
 30
-1.690010159850203
 40
0.2
  1

100
AcDbAttribute
  2
DISP3
 70
     1
  0
ATTRIB
  5
C39
330
C2A
100
AcDbEntity
  8
0
100
AcDbText
 10
-10.3810358834927
 20
0.0
 30
-1.690010159850203
 40
0.2
  1

100
AcDbAttribute
  2
DISP4
 70
     1
  0
ATTRIB
  5
C3A
330
C2A
100
AcDbEntity
  8
0
100
AcDbText
 10
-10.3810358834927
 20
0.0
 30
-1.690010159850203
 40
0.2
  1
0.0
100
AcDbAttribute
  2
DBOUND
 70
     1
  0
ATTRIB
  5
C3B
330
C2A
100
AcDbEntity
  8
0
100
AcDbText
 10
-10.3810358834927
 20
0.0
 30
-1.690010159850203
 40
0.2
  1
0
100
AcDbAttribute
  2
SMOOTH
 70
     1
  0
ATTRIB
  5
C3C
330
C2A
100
AcDbEntity
  8
0
100
AcDbText
 10
-10.3810358834927
 20
0.0
 30
-1.690010159850203
 40
0.2
  1
("" "")
100
AcDbAttribute
  2
ATMOSHPERE
 70
     1
  0
ATTRIB
  5
C3D
330
C2A
100
AcDbEntity
  8
0
100
AcDbText
 10
-10.3810358834927
 20
0.0
 30
-1.690010159850203
 40
0.2
  1

100
AcDbAttribute
  2
ATMO1
 70
     1
  0
ATTRIB
  5
C3E
330
C2A
100
AcDbEntity
  8
0
100
AcDbText
 10
-10.3810358834927
 20
0.0
 30
-1.690010159850203
 40
0.2
  1

100
AcDbAttribute
  2
ATMO2
 70
     1
  0
ATTRIB
  5
C3F
330
C2A
100
AcDbEntity
  8
0
100
AcDbText
 10
-10.3810358834927
 20
0.0
 30
-1.690010159850203
 40
0.2
  1

100
AcDbAttribute
  2
ATMO3
 70
     1
  0
ATTRIB
  5
C40
330
C2A
100
AcDbEntity
  8
0
100
AcDbText
 10
-10.3810358834927
 20
0.0
 30
-1.690010159850203
 40
0.2
  1

100
AcDbAttribute
  2
ATMO4
 70
     1
  0
ATTRIB
  5
C41
330
C2A
100
AcDbEntity
  8
0
100
AcDbText
 10
-10.3810358834927
 20
0.0
 30
-1.690010159850203
 40
0.2
  1
0.0 0.0 1.0 0.0 0.0 1.0 1.0 1.0
100
AcDbAttribute
  2
TCCORD
 70
     1
  0
SEQEND
  5
C42
330
C2A
100
AcDbEntity
  8
0
  0
ENDSEC
  0
SECTION
  2
OBJECTS
  0
DICTIONARY
  5
C
330
0
100
AcDbDictionary
281
     1
  3
ACAD_COLOR
350
FF
  3
ACAD_GROUP
350
D
  3
ACAD_LAYOUT
350
1A
  3
ACAD_MATERIAL
350
FE
  3
ACAD_MLEADERSTYLE
350
25B
  3
ACAD_MLINESTYLE
350
17
  3
ACAD_PERSUBENTMGR
350
299
  3
ACAD_PLOTSETTINGS
350
19
  3
ACAD_PLOTSTYLENAME
350
E
  3
ACAD_SCALELIST
350
239
  3
ACAD_TABLESTYLE
350
100
  3
ACAD_VISUALSTYLE
350
228
  3
ACDB_RECOMPOSE_DATA
350
280
  3
AcDbVariableDictionary
350
FB
  3
AVE_ACITABLE
350
2B3
  3
DWGPROPS
350
C44
  0
DICTIONARY
  5
276
330
10
100
AcDbDictionary
280
     1
281
     1
  3
ADSK_XREC_LAYER_RECONCILED
360
277
  0
DICTIONARY
  5
278
330
AB
100
AcDbDictionary
280
     1
281
     1
  3
ADSK_XREC_LAYER_RECONCILED
360
279
  0
DICTIONARY
  5
108
330
1F
100
AcDbDictionary
280
     1
281
     1
  3
ACAD_SORTENTS
360
109
  0
DICTIONARY
  5
FF
102
{ACAD_REACTORS
330
C
102
}
330
C
100
AcDbDictionary
281
     1
  0
DICTIONARY
  5
D
102
{ACAD_REACTORS
330
C
102
}
330
C
100
AcDbDictionary
281
     1
  0
DICTIONARY
  5
1A
102
{ACAD_REACTORS
330
C
102
}
330
C
100
AcDbDictionary
281
     1
  3
Layout1
350
1E
  3
Layout2
350
26
  3
Model
350
22
  0
DICTIONARY
  5
FE
102
{ACAD_REACTORS
330
C
102
}
330
C
100
AcDbDictionary
281
     1
  3
_GLOBAL_01
350
5F9
  3
ByBlock
350
218
  3
ByLayer
350
210
  3
Global
350
220
  0
DICTIONARY
  5
25B
102
{ACAD_REACTORS
330
C
102
}
330
C
100
AcDbDictionary
281
     1
  3
Standard
350
25C
  0
DICTIONARY
  5
17
102
{ACAD_REACTORS
330
C
102
}
330
C
100
AcDbDictionary
281
     1
  3
Standard
350
18
  0
ACDBPERSSUBENTMANAGER
  5
299
102
{ACAD_REACTORS
330
C
102
}
330
C
100
AcDbPersSubentManager
 90
        2
 90
        0
 90
        2
 90
        2
 90
        0
 90
        0
  0
DICTIONARY
  5
19
102
{ACAD_REACTORS
330
C
102
}
330
C
100
AcDbDictionary
281
     1
  0
ACDBDICTIONARYWDFLT
  5
E
102
{ACAD_REACTORS
330
C
102
}
330
C
100
AcDbDictionary
281
     1
  3
Normal
350
F
100
AcDbDictionaryWithDefault
340
F
  0
DICTIONARY
  5
239
102
{ACAD_REACTORS
330
C
102
}
330
C
100
AcDbDictionary
281
     1
  3
A0
350
23A
  3
A1
350
23B
  3
A2
350
23C
  3
A3
350
23D
  3
A4
350
23E
  3
A5
350
23F
  3
A6
350
240
  3
A7
350
241
  3
A8
350
242
  3
A9
350
243
  3
B0
350
244
  3
B1
350
245
  3
B2
350
246
  3
B3
350
247
  3
B4
350
248
  3
B5
350
249
  3
B6
350
24A
  3
B7
350
24B
  3
B8
350
24C
  3
B9
350
24D
  3
C0
350
24E
  3
C1
350
24F
  3
C2
350
250
  3
C3
350
251
  3
C4
350
252
  3
C5
350
253
  3
C6
350
254
  3
C7
350
255
  3
C8
350
256
  3
C9
350
257
  3
D0
350
258
  3
D1
350
259
  3
D2
350
25A
  0
DICTIONARY
  5
100
102
{ACAD_REACTORS
330
C
102
}
330
C
100
AcDbDictionary
281
     1
  3
Standard
350
101
  0
DICTIONARY
  5
228
102
{ACAD_REACTORS
330
C
102
}
330
C
100
AcDbDictionary
281
     1
  3
2dWireframe
350
22E
  3
3D Hidden
350
230
  3
3dWireframe
350
22F
  3
Basic
350
22D
  3
Brighten
350
234
  3
ColorChange
350
238
  3
Conceptual
350
231
  3
Dim
350
233
  3
Facepattern
350
237
  3
Flat
350
229
  3
FlatWithEdges
350
22A
  3
Gouraud
350
22B
  3
GouraudWithEdges
350
22C
  3
Linepattern
350
236
  3
Realistic
350
232
  3
Thicken
350
235
  0
XRECORD
  5
280
102
{ACAD_REACTORS
330
C
102
}
330
C
100
AcDbXrecord
280
     1
 90
        1
330
101
  0
DICTIONARY
  5
FB
102
{ACAD_REACTORS
330
C
102
}
330
C
100
AcDbDictionary
281
     1
  3
CANNOSCALE
350
27B
  3
CMLEADERSTYLE
350
27A
  3
CTABLESTYLE
350
105
  3
DIMASSOC
350
FC
  3
INDEXCTL
350
27D
  3
SORTENTS
350
27C
  0
DICTIONARY
  5
2B3
102
{ACAD_REACTORS
330
C
102
}
330
C
100
AcDbDictionary
281
     1
  0
XRECORD
  5
C44
102
{ACAD_REACTORS
330
C
102
}
330
C
100
AcDbXrecord
280
     1
  1
DWGPROPS COOKIE
  2

  3

  4

  6

  7

  8
Christian
  9

300
=
301
=
302
=
303
=
304
=
305
=
306
=
307
=
308
=
309
=
 40
0.0216365277777778
 41
2452703.363634792
 42
2454459.395393021
  1

 90
        0
  0
XRECORD
  5
277
102
{ACAD_REACTORS
330
276
102
}
330
276
100
AcDbXrecord
280
     1
290
     1
  0
XRECORD
  5
279
102
{ACAD_REACTORS
330
278
102
}
330
278
100
AcDbXrecord
280
     1
290
     1
  0
SORTENTSTABLE
  5
109
102
{ACAD_REACTORS
330
108
102
}
330
108
100
AcDbSortentsTable
330
1F
  0
LAYOUT
  5
1E
102
{ACAD_XDICTIONARY
360
C45
102
}
102
{ACAD_REACTORS
330
1A
102
}
330
1A
100
AcDbPlotSettings
  1

  2

  4

  6

 40
0.0
 41
0.0
 42
0.0
 43
0.0
 44
0.0
 45
0.0
 46
0.0
 47
0.0
 48
0.0
 49
0.0
140
0.0
141
0.0
142
1.0
143
1.0
 70
   688
 72
     0
 73
     0
 74
     5
  7

 75
    16
147
1.0
148
0.0
149
0.0
100
AcDbLayout
  1
Layout1
 70
     1
 71
     1
 10
0.0
 20
0.0
 11
12.0
 21
9.0
 12
0.0
 22
0.0
 32
0.0
 14
1.000000000000000E+20
 24
1.000000000000000E+20
 34
1.000000000000000E+20
 15
-1.000000000000000E+20
 25
-1.000000000000000E+20
 35
-1.000000000000000E+20
146
0.0
 13
0.0
 23
0.0
 33
0.0
 16
1.0
 26
0.0
 36
0.0
 17
0.0
 27
1.0
 37
0.0
 76
     0
330
1B
  0
LAYOUT
  5
26
102
{ACAD_XDICTIONARY
360
C49
102
}
102
{ACAD_REACTORS
330
1A
102
}
330
1A
100
AcDbPlotSettings
  1

  2

  4

  6

 40
0.0
 41
0.0
 42
0.0
 43
0.0
 44
0.0
 45
0.0
 46
0.0
 47
0.0
 48
0.0
 49
0.0
140
0.0
141
0.0
142
1.0
143
1.0
 70
   688
 72
     0
 73
     0
 74
     5
  7

 75
    16
147
1.0
148
0.0
149
0.0
100
AcDbLayout
  1
Layout2
 70
     1
 71
     2
 10
0.0
 20
0.0
 11
12.0
 21
9.0
 12
0.0
 22
0.0
 32
0.0
 14
0.0
 24
0.0
 34
0.0
 15
0.0
 25
0.0
 35
0.0
146
0.0
 13
0.0
 23
0.0
 33
0.0
 16
1.0
 26
0.0
 36
0.0
 17
0.0
 27
1.0
 37
0.0
 76
     0
330
23
  0
LAYOUT
  5
22
102
{ACAD_XDICTIONARY
360
C47
102
}
102
{ACAD_REACTORS
330
1A
102
}
330
1A
100
AcDbPlotSettings
  1

  2

  4

  6

 40
0.0
 41
0.0
 42
0.0
 43
0.0
 44
0.0
 45
0.0
 46
0.0
 47
0.0
 48
0.0
 49
0.0
140
0.0
141
0.0
142
1.0
143
1.0
 70
  1712
 72
     0
 73
     0
 74
     0
  7

 75
     0
147
1.0
148
0.0
149
0.0
100
AcDbLayout
  1
Model
 70
     1
 71
     0
 10
0.0
 20
0.0
 11
12.0
 21
9.0
 12
0.0
 22
0.0
 32
0.0
 14
0.0
 24
0.0
 34
0.0
 15
0.0
 25
0.0
 35
0.0
146
0.0
 13
0.0
 23
0.0
 33
0.0
 16
1.0
 26
0.0
 36
0.0
 17
0.0
 27
1.0
 37
0.0
 76
     0
330
1F
331
203
  0
MATERIAL
  5
5F9
102
{ACAD_XDICTIONARY
360
5FA
102
}
102
{ACAD_REACTORS
330
FE
102
}
330
FE
100
AcDbMaterial
  1
_GLOBAL_01
 70
     1
 40
0.6999999880790711
 90
-1033081748
 71
     1
 91
-1023410177
 72
     0
 76
     1
 45
0.2000000029802322
 92
-1023673349
 77
     0
171
     0
175
     0
179
     0
  0
MATERIAL
  5
218
102
{ACAD_XDICTIONARY
360
219
102
}
102
{ACAD_REACTORS
330
FE
102
}
330
FE
100
AcDbMaterial
  1
ByBlock
 72
     0
 43
0.0208333333333333
 43
0.0
 43
0.0
 43
0.0
 43
0.0
 43
0.0208333333333333
 43
0.0
 43
0.0
 43
0.0
 43
0.0
 43
1.0
 43
0.0
 43
0.0
 43
0.0
 43
0.0
 43
1.0
 77
     0
 47
0.0208333333333333
 47
0.0
 47
0.0
 47
0.0
 47
0.0
 47
0.0208333333333333
 47
0.0
 47
0.0
 47
0.0
 47
0.0
 47
1.0
 47
0.0
 47
0.0
 47
0.0
 47
0.0
 47
1.0
171
     0
 49
0.0208333333333333
 49
0.0
 49
0.0
 49
0.0
 49
0.0
 49
0.0208333333333333
 49
0.0
 49
0.0
 49
0.0
 49
0.0
 49
1.0
 49
0.0
 49
0.0
 49
0.0
 49
0.0
 49
1.0
175
     0
142
0.0208333333333333
142
0.0
142
0.0
142
0.0
142
0.0
142
0.0208333333333333
142
0.0
142
0.0
142
0.0
142
0.0
142
1.0
142
0.0
142
0.0
142
0.0
142
0.0
142
1.0
179
     0
144
0.0208333333333333
144
0.0
144
0.0
144
0.0
144
0.0
144
0.0208333333333333
144
0.0
144
0.0
144
0.0
144
0.0
144
1.0
144
0.0
144
0.0
144
0.0
144
0.0
144
1.0
147
0.0208333333333333
147
0.0
147
0.0
147
0.0
147
0.0
147
0.0208333333333333
147
0.0
147
0.0
147
0.0
147
0.0
147
1.0
147
0.0
147
0.0
147
0.0
147
0.0
147
1.0
  0
MATERIAL
  5
210
102
{ACAD_XDICTIONARY
360
211
102
}
102
{ACAD_REACTORS
330
FE
102
}
330
FE
100
AcDbMaterial
  1
ByLayer
 72
     0
 43
0.0208333333333333
 43
0.0
 43
0.0
 43
0.0
 43
0.0
 43
0.0208333333333333
 43
0.0
 43
0.0
 43
0.0
 43
0.0
 43
1.0
 43
0.0
 43
0.0
 43
0.0
 43
0.0
 43
1.0
 77
     0
 47
0.0208333333333333
 47
0.0
 47
0.0
 47
0.0
 47
0.0
 47
0.0208333333333333
 47
0.0
 47
0.0
 47
0.0
 47
0.0
 47
1.0
 47
0.0
 47
0.0
 47
0.0
 47
0.0
 47
1.0
171
     0
 49
0.0208333333333333
 49
0.0
 49
0.0
 49
0.0
 49
0.0
 49
0.0208333333333333
 49
0.0
 49
0.0
 49
0.0
 49
0.0
 49
1.0
 49
0.0
 49
0.0
 49
0.0
 49
0.0
 49
1.0
175
     0
142
0.0208333333333333
142
0.0
142
0.0
142
0.0
142
0.0
142
0.0208333333333333
142
0.0
142
0.0
142
0.0
142
0.0
142
1.0
142
0.0
142
0.0
142
0.0
142
0.0
142
1.0
179
     0
144
0.0208333333333333
144
0.0
144
0.0
144
0.0
144
0.0
144
0.0208333333333333
144
0.0
144
0.0
144
0.0
144
0.0
144
1.0
144
0.0
144
0.0
144
0.0
144
0.0
144
1.0
147
0.0208333333333333
147
0.0
147
0.0
147
0.0
147
0.0
147
0.0208333333333333
147
0.0
147
0.0
147
0.0
147
0.0
147
1.0
147
0.0
147
0.0
147
0.0
147
0.0
147
1.0
  0
MATERIAL
  5
220
102
{ACAD_XDICTIONARY
360
221
102
}
102
{ACAD_REACTORS
330
FE
102
}
330
FE
100
AcDbMaterial
  1
Global
 72
     0
 43
0.0208333333333333
 43
0.0
 43
0.0
 43
0.0
 43
0.0
 43
0.0208333333333333
 43
0.0
 43
0.0
 43
0.0
 43
0.0
 43
1.0
 43
0.0
 43
0.0
 43
0.0
 43
0.0
 43
1.0
 77
     0
 47
0.0208333333333333
 47
0.0
 47
0.0
 47
0.0
 47
0.0
 47
0.0208333333333333
 47
0.0
 47
0.0
 47
0.0
 47
0.0
 47
1.0
 47
0.0
 47
0.0
 47
0.0
 47
0.0
 47
1.0
171
     0
 49
0.0208333333333333
 49
0.0
 49
0.0
 49
0.0
 49
0.0
 49
0.0208333333333333
 49
0.0
 49
0.0
 49
0.0
 49
0.0
 49
1.0
 49
0.0
 49
0.0
 49
0.0
 49
0.0
 49
1.0
175
     0
142
0.0208333333333333
142
0.0
142
0.0
142
0.0
142
0.0
142
0.0208333333333333
142
0.0
142
0.0
142
0.0
142
0.0
142
1.0
142
0.0
142
0.0
142
0.0
142
0.0
142
1.0
179
     0
144
0.0208333333333333
144
0.0
144
0.0
144
0.0
144
0.0
144
0.0208333333333333
144
0.0
144
0.0
144
0.0
144
0.0
144
1.0
144
0.0
144
0.0
144
0.0
144
0.0
144
1.0
147
0.0208333333333333
147
0.0
147
0.0
147
0.0
147
0.0
147
0.0208333333333333
147
0.0
147
0.0
147
0.0
147
0.0
147
1.0
147
0.0
147
0.0
147
0.0
147
0.0
147
1.0
  0
MLEADERSTYLE
  5
25C
102
{ACAD_REACTORS
330
25B
102
}
330
25B
100
AcDbMLeaderStyle
170
     2
171
     1
172
     0
 90
        2
 40
0.0
 41
0.0
173
     1
 91
-1056964608
340
14
 92
       -2
290
     1
 42
0.09
291
     1
 43
0.36
  3
Standard
 44
0.18
300

342
11
174
     1
178
     6
175
     1
176
     0
 93
-1056964608
 45
0.18
292
     0
297
     0
 46
0.18
 94
-1056964608
 47
1.0
 49
1.0
140
1.0
293
     1
141
0.0
294
     1
177
     0
142
1.0
295
     0
296
     0
143
0.125
1001
ACAD_MLEADERVER
1070
     2
  0
MLINESTYLE
  5
18
102
{ACAD_REACTORS
330
17
102
}
330
17
100
AcDbMlineStyle
  2
STANDARD
 70
     0
  3

 62
   256
 51
90.0
 52
90.0
 71
     2
 49
0.5
 62
   256
  6
BYLAYER
 49
-0.5
 62
   256
  6
BYLAYER
  0
ACDBPLACEHOLDER
  5
F
102
{ACAD_REACTORS
330
E
102
}
330
E
  0
SCALE
  5
23A
102
{ACAD_REACTORS
330
239
102
}
330
239
100
AcDbScale
 70
     0
300
1:1
140
1.0
141
1.0
290
     1
  0
SCALE
  5
23B
102
{ACAD_REACTORS
330
239
102
}
330
239
100
AcDbScale
 70
     0
300
1:2
140
1.0
141
2.0
290
     0
  0
SCALE
  5
23C
102
{ACAD_REACTORS
330
239
102
}
330
239
100
AcDbScale
 70
     0
300
1:4
140
1.0
141
4.0
290
     0
  0
SCALE
  5
23D
102
{ACAD_REACTORS
330
239
102
}
330
239
100
AcDbScale
 70
     0
300
1:5
140
1.0
141
5.0
290
     0
  0
SCALE
  5
23E
102
{ACAD_REACTORS
330
239
102
}
330
239
100
AcDbScale
 70
     0
300
1:8
140
1.0
141
8.0
290
     0
  0
SCALE
  5
23F
102
{ACAD_REACTORS
330
239
102
}
330
239
100
AcDbScale
 70
     0
300
1:10
140
1.0
141
10.0
290
     0
  0
SCALE
  5
240
102
{ACAD_REACTORS
330
239
102
}
330
239
100
AcDbScale
 70
     0
300
1:16
140
1.0
141
16.0
290
     0
  0
SCALE
  5
241
102
{ACAD_REACTORS
330
239
102
}
330
239
100
AcDbScale
 70
     0
300
1:20
140
1.0
141
20.0
290
     0
  0
SCALE
  5
242
102
{ACAD_REACTORS
330
239
102
}
330
239
100
AcDbScale
 70
     0
300
1:30
140
1.0
141
30.0
290
     0
  0
SCALE
  5
243
102
{ACAD_REACTORS
330
239
102
}
330
239
100
AcDbScale
 70
     0
300
1:40
140
1.0
141
40.0
290
     0
  0
SCALE
  5
244
102
{ACAD_REACTORS
330
239
102
}
330
239
100
AcDbScale
 70
     0
300
1:50
140
1.0
141
50.0
290
     0
  0
SCALE
  5
245
102
{ACAD_REACTORS
330
239
102
}
330
239
100
AcDbScale
 70
     0
300
1:100
140
1.0
141
100.0
290
     0
  0
SCALE
  5
246
102
{ACAD_REACTORS
330
239
102
}
330
239
100
AcDbScale
 70
     0
300
2:1
140
2.0
141
1.0
290
     0
  0
SCALE
  5
247
102
{ACAD_REACTORS
330
239
102
}
330
239
100
AcDbScale
 70
     0
300
4:1
140
4.0
141
1.0
290
     0
  0
SCALE
  5
248
102
{ACAD_REACTORS
330
239
102
}
330
239
100
AcDbScale
 70
     0
300
8:1
140
8.0
141
1.0
290
     0
  0
SCALE
  5
249
102
{ACAD_REACTORS
330
239
102
}
330
239
100
AcDbScale
 70
     0
300
10:1
140
10.0
141
1.0
290
     0
  0
SCALE
  5
24A
102
{ACAD_REACTORS
330
239
102
}
330
239
100
AcDbScale
 70
     0
300
100:1
140
100.0
141
1.0
290
     0
  0
SCALE
  5
24B
102
{ACAD_REACTORS
330
239
102
}
330
239
100
AcDbScale
 70
     0
300
1/128" = 1'-0"
140
0.0078125
141
12.0
290
     0
  0
SCALE
  5
24C
102
{ACAD_REACTORS
330
239
102
}
330
239
100
AcDbScale
 70
     0
300
1/64" = 1'-0"
140
0.015625
141
12.0
290
     0
  0
SCALE
  5
24D
102
{ACAD_REACTORS
330
239
102
}
330
239
100
AcDbScale
 70
     0
300
1/32" = 1'-0"
140
0.03125
141
12.0
290
     0
  0
SCALE
  5
24E
102
{ACAD_REACTORS
330
239
102
}
330
239
100
AcDbScale
 70
     0
300
1/16" = 1'-0"
140
0.0625
141
12.0
290
     0
  0
SCALE
  5
24F
102
{ACAD_REACTORS
330
239
102
}
330
239
100
AcDbScale
 70
     0
300
3/32" = 1'-0"
140
0.09375
141
12.0
290
     0
  0
SCALE
  5
250
102
{ACAD_REACTORS
330
239
102
}
330
239
100
AcDbScale
 70
     0
300
1/8" = 1'-0"
140
0.125
141
12.0
290
     0
  0
SCALE
  5
251
102
{ACAD_REACTORS
330
239
102
}
330
239
100
AcDbScale
 70
     0
300
3/16" = 1'-0"
140
0.1875
141
12.0
290
     0
  0
SCALE
  5
252
102
{ACAD_REACTORS
330
239
102
}
330
239
100
AcDbScale
 70
     0
300
1/4" = 1'-0"
140
0.25
141
12.0
290
     0
  0
SCALE
  5
253
102
{ACAD_REACTORS
330
239
102
}
330
239
100
AcDbScale
 70
     0
300
3/8" = 1'-0"
140
0.375
141
12.0
290
     0
  0
SCALE
  5
254
102
{ACAD_REACTORS
330
239
102
}
330
239
100
AcDbScale
 70
     0
300
1/2" = 1'-0"
140
0.5
141
12.0
290
     0
  0
SCALE
  5
255
102
{ACAD_REACTORS
330
239
102
}
330
239
100
AcDbScale
 70
     0
300
3/4" = 1'-0"
140
0.75
141
12.0
290
     0
  0
SCALE
  5
256
102
{ACAD_REACTORS
330
239
102
}
330
239
100
AcDbScale
 70
     0
300
1" = 1'-0"
140
1.0
141
12.0
290
     0
  0
SCALE
  5
257
102
{ACAD_REACTORS
330
239
102
}
330
239
100
AcDbScale
 70
     0
300
1-1/2" = 1'-0"
140
1.5
141
12.0
290
     0
  0
SCALE
  5
258
102
{ACAD_REACTORS
330
239
102
}
330
239
100
AcDbScale
 70
     0
300
3" = 1'-0"
140
3.0
141
12.0
290
     0
  0
SCALE
  5
259
102
{ACAD_REACTORS
330
239
102
}
330
239
100
AcDbScale
 70
     0
300
6" = 1'-0"
140
6.0
141
12.0
290
     0
  0
SCALE
  5
25A
102
{ACAD_REACTORS
330
239
102
}
330
239
100
AcDbScale
 70
     0
300
1'-0" = 1'-0"
140
12.0
141
12.0
290
     0
  0
TABLESTYLE
  5
101
102
{ACAD_XDICTIONARY
360
27E
102
}
102
{ACAD_REACTORS
330
100
102
}
330
100
100
AcDbTableStyle
  3
Standard
 70
     0
 71
     0
 40
0.06
 41
0.06
280
     0
281
     0
  7
Standard
140
0.18
170
     2
 62
     0
 63
     7
283
     0
274
    -2
284
     1
 64
     0
275
    -2
285
     1
 65
     0
276
    -2
286
     1
 66
     0
277
    -2
287
     1
 67
     0
278
    -2
288
     1
 68
     0
279
    -2
289
     1
 69
     0
  7
Standard
140
0.25
170
     5
 62
     0
 63
     7
283
     0
274
    -2
284
     1
 64
     0
275
    -2
285
     1
 65
     0
276
    -2
286
     1
 66
     0
277
    -2
287
     1
 67
     0
278
    -2
288
     1
 68
     0
279
    -2
289
     1
 69
     0
  7
Standard
140
0.18
170
     5
 62
     0
 63
     7
283
     0
274
    -2
284
     1
 64
     0
275
    -2
285
     1
 65
     0
276
    -2
286
     1
 66
     0
277
    -2
287
     1
 67
     0
278
    -2
288
     1
 68
     0
279
    -2
289
     1
 69
     0
  0
VISUALSTYLE
  5
22E
102
{ACAD_REACTORS
330
228
102
}
330
228
100
AcDbVisualStyle
  2
2dWireframe
 70
     4
 71
     0
 72
     2
 73
     0
 90
        0
 40
-0.6
 41
-30.0
 62
     5
 63
     7
 74
     1
 91
        4
 64
     7
 65
   257
 75
     1
175
     1
 42
1.0
 92
        0
 66
   257
 43
1.0
 76
     1
 77
     6
 78
     2
 67
     7
 79
     5
170
     0
171
     0
290
     0
174
     0
 93
        1
 44
0.0
173
     0
291
     0
 45
0.0
1001
ACAD
1000
AcDbSavedByObjectVersion
1070
     0
1000
AcDbSavedByObjectVersion
1070
     0
1000
AcDbSavedByObjectVersion
1070
     0
1000
AcDbSavedByObjectVersion
1070
     0
  0
VISUALSTYLE
  5
230
102
{ACAD_REACTORS
330
228
102
}
330
228
100
AcDbVisualStyle
  2
3D Hidden
 70
     6
 71
     1
 72
     2
 73
     2
 90
        0
 40
-0.6
 41
-30.0
 62
     5
 63
     7
 74
     2
 91
        2
 64
     7
 65
   257
 75
     2
175
     1
 42
40.0
 92
        0
 66
   257
 43
1.0
 76
     1
 77
     6
 78
     2
 67
     7
 79
     3
170
     0
171
     0
290
     0
174
     0
 93
        1
 44
0.0
173
     0
291
     0
 45
0.0
1001
ACAD
1000
AcDbSavedByObjectVersion
1070
     0
1000
AcDbSavedByObjectVersion
1070
     0
1000
AcDbSavedByObjectVersion
1070
     0
1000
AcDbSavedByObjectVersion
1070
     0
  0
VISUALSTYLE
  5
22F
102
{ACAD_REACTORS
330
228
102
}
330
228
100
AcDbVisualStyle
  2
3dWireframe
 70
     5
 71
     0
 72
     2
 73
     0
 90
        0
 40
-0.6
 41
-30.0
 62
     5
 63
     7
 74
     1
 91
        4
 64
     7
 65
   257
 75
     1
175
     1
 42
1.0
 92
        0
 66
   257
 43
1.0
 76
     1
 77
     6
 78
     2
 67
     7
 79
     5
170
     0
171
     0
290
     0
174
     0
 93
        1
 44
0.0
173
     0
291
     0
 45
0.0
1001
ACAD
1000
AcDbSavedByObjectVersion
1070
     0
1000
AcDbSavedByObjectVersion
1070
     0
1000
AcDbSavedByObjectVersion
1070
     0
1000
AcDbSavedByObjectVersion
1070
     0
  0
VISUALSTYLE
  5
22D
102
{ACAD_REACTORS
330
228
102
}
330
228
100
AcDbVisualStyle
  2
Basic
 70
     7
 71
     1
 72
     0
 73
     1
 90
        0
 40
-0.6
 41
-30.0
 62
     5
 63
     7
 74
     0
 91
        4
 64
     7
 65
   257
 75
     1
175
     1
 42
1.0
 92
        8
 66
     7
 43
1.0
 76
     1
 77
     6
 78
     2
 67
     7
 79
     5
170
     0
171
     0
290
     0
174
     0
 93
        1
 44
0.0
173
     0
291
     1
 45
0.0
1001
ACAD
1000
AcDbSavedByObjectVersion
1070
     0
1000
AcDbSavedByObjectVersion
1070
     0
1000
AcDbSavedByObjectVersion
1070
     0
1000
AcDbSavedByObjectVersion
1070
     0
  0
VISUALSTYLE
  5
234
102
{ACAD_REACTORS
330
228
102
}
330
228
100
AcDbVisualStyle
  2
Brighten
 70
    12
 71
     2
 72
     2
 73
     0
 90
        0
 40
-0.6
 41
-30.0
 62
     5
 63
     7
 74
     1
 91
        4
 64
     7
 65
   257
 75
     1
175
     1
 42
1.0
 92
        8
 66
     7
 43
1.0
 76
     1
 77
     6
 78
     2
 67
     7
 79
     5
170
     0
171
     0
290
     0
174
     0
 93
        1
 44
50.0
173
     0
291
     1
 45
0.0
1001
ACAD
1000
AcDbSavedByObjectVersion
1070
     0
1000
AcDbSavedByObjectVersion
1070
     0
1000
AcDbSavedByObjectVersion
1070
     0
1000
AcDbSavedByObjectVersion
1070
     0
  0
VISUALSTYLE
  5
238
102
{ACAD_REACTORS
330
228
102
}
330
228
100
AcDbVisualStyle
  2
ColorChange
 70
    16
 71
     2
 72
     2
 73
     3
 90
        0
 40
-0.6
 41
-30.0
 62
     5
 63
     8
 74
     1
 91
        4
 64
     7
 65
   257
 75
     1
175
     1
 42
1.0
 92
        8
 66
     8
 43
1.0
 76
     1
 77
     6
 78
     2
 67
     7
 79
     5
170
     0
171
     0
290
     0
174
     0
 93
        1
 44
0.0
173
     0
291
     1
 45
0.0
1001
ACAD
1000
AcDbSavedByObjectVersion
1070
     0
1000
AcDbSavedByObjectVersion
1070
     0
1000
AcDbSavedByObjectVersion
1070
     0
1000
AcDbSavedByObjectVersion
1070
     0
  0
VISUALSTYLE
  5
231
102
{ACAD_REACTORS
330
228
102
}
330
228
100
AcDbVisualStyle
  2
Conceptual
 70
     9
 71
     3
 72
     2
 73
     0
 90
        0
 40
-0.6
 41
-30.0
 62
     5
 63
     7
 74
     2
 91
        2
 64
     7
 65
   257
 75
     1
175
     1
 42
40.0
 92
        8
 66
     7
 43
1.0
 76
     1
 77
     6
 78
     2
 67
     7
 79
     3
170
     0
171
     0
290
     0
174
     0
 93
        1
 44
0.0
173
     0
291
     0
 45
0.0
1001
ACAD
1000
AcDbSavedByObjectVersion
1070
     0
1000
AcDbSavedByObjectVersion
1070
     0
1000
AcDbSavedByObjectVersion
1070
     0
1000
AcDbSavedByObjectVersion
1070
     0
  0
VISUALSTYLE
  5
233
102
{ACAD_REACTORS
330
228
102
}
330
228
100
AcDbVisualStyle
  2
Dim
 70
    11
 71
     2
 72
     2
 73
     0
 90
        0
 40
-0.6
 41
-30.0
 62
     5
 63
     7
 74
     1
 91
        4
 64
     7
 65
   257
 75
     1
175
     1
 42
1.0
 92
        8
 66
     7
 43
1.0
 76
     1
 77
     6
 78
     2
 67
     7
 79
     5
170
     0
171
     0
290
     0
174
     0
 93
        1
 44
-50.0
173
     0
291
     1
 45
0.0
1001
ACAD
1000
AcDbSavedByObjectVersion
1070
     0
1000
AcDbSavedByObjectVersion
1070
     0
1000
AcDbSavedByObjectVersion
1070
     0
1000
AcDbSavedByObjectVersion
1070
     0
  0
VISUALSTYLE
  5
237
102
{ACAD_REACTORS
330
228
102
}
330
228
100
AcDbVisualStyle
  2
Facepattern
 70
    15
 71
     2
 72
     2
 73
     0
 90
        0
 40
-0.6
 41
-30.0
 62
     5
 63
     7
 74
     1
 91
        4
 64
     7
 65
   257
 75
     1
175
     1
 42
1.0
 92
        8
 66
     7
 43
1.0
 76
     1
 77
     6
 78
     2
 67
     7
 79
     5
170
     0
171
     0
290
     0
174
     0
 93
        1
 44
0.0
173
     0
291
     1
 45
0.0
1001
ACAD
1000
AcDbSavedByObjectVersion
1070
     0
1000
AcDbSavedByObjectVersion
1070
     0
1000
AcDbSavedByObjectVersion
1070
     0
1000
AcDbSavedByObjectVersion
1070
     0
  0
VISUALSTYLE
  5
229
102
{ACAD_REACTORS
330
228
102
}
330
228
100
AcDbVisualStyle
  2
Flat
 70
     0
 71
     2
 72
     1
 73
     1
 90
        2
 40
-0.6
 41
30.0
 62
     5
 63
     7
 74
     0
 91
        4
 64
     7
 65
   257
 75
     1
175
     1
 42
1.0
 92
        8
 66
     7
 43
1.0
 76
     1
 77
     6
 78
     2
 67
     7
 79
     5
170
     0
171
     0
290
     0
174
     0
 93
       13
 44
0.0
173
     0
291
     1
 45
0.0
1001
ACAD
1000
AcDbSavedByObjectVersion
1070
     0
1000
AcDbSavedByObjectVersion
1070
     0
1000
AcDbSavedByObjectVersion
1070
     0
1000
AcDbSavedByObjectVersion
1070
     0
  0
VISUALSTYLE
  5
22A
102
{ACAD_REACTORS
330
228
102
}
330
228
100
AcDbVisualStyle
  2
FlatWithEdges
 70
     1
 71
     2
 72
     1
 73
     1
 90
        2
 40
-0.6
 41
30.0
 62
     5
 63
     7
 74
     1
 91
        4
 64
     7
 65
   257
 75
     1
175
     1
 42
1.0
 92
        0
 66
   257
 43
1.0
 76
     1
 77
     6
 78
     2
 67
     7
 79
     5
170
     0
171
     0
290
     0
174
     0
 93
       13
 44
0.0
173
     0
291
     1
 45
0.0
1001
ACAD
1000
AcDbSavedByObjectVersion
1070
     0
1000
AcDbSavedByObjectVersion
1070
     0
1000
AcDbSavedByObjectVersion
1070
     0
1000
AcDbSavedByObjectVersion
1070
     0
  0
VISUALSTYLE
  5
22B
102
{ACAD_REACTORS
330
228
102
}
330
228
100
AcDbVisualStyle
  2
Gouraud
 70
     2
 71
     2
 72
     2
 73
     1
 90
        2
 40
-0.6
 41
30.0
 62
     5
 63
     7
 74
     0
 91
        4
 64
     7
 65
   257
 75
     1
175
     1
 42
1.0
 92
        0
 66
     7
 43
1.0
 76
     1
 77
     6
 78
     2
 67
     7
 79
     5
170
     0
171
     0
290
     0
174
     0
 93
       13
 44
0.0
173
     0
291
     1
 45
0.0
1001
ACAD
1000
AcDbSavedByObjectVersion
1070
     0
1000
AcDbSavedByObjectVersion
1070
     0
1000
AcDbSavedByObjectVersion
1070
     0
1000
AcDbSavedByObjectVersion
1070
     0
  0
VISUALSTYLE
  5
22C
102
{ACAD_REACTORS
330
228
102
}
330
228
100
AcDbVisualStyle
  2
GouraudWithEdges
 70
     3
 71
     2
 72
     2
 73
     1
 90
        2
 40
-0.6
 41
30.0
 62
     5
 63
     7
 74
     1
 91
        4
 64
     7
 65
   257
 75
     1
175
     1
 42
1.0
 92
        0
 66
   257
 43
1.0
 76
     1
 77
     6
 78
     2
 67
     7
 79
     5
170
     0
171
     0
290
     0
174
     0
 93
       13
 44
0.0
173
     0
291
     1
 45
0.0
1001
ACAD
1000
AcDbSavedByObjectVersion
1070
     0
1000
AcDbSavedByObjectVersion
1070
     0
1000
AcDbSavedByObjectVersion
1070
     0
1000
AcDbSavedByObjectVersion
1070
     0
  0
VISUALSTYLE
  5
236
102
{ACAD_REACTORS
330
228
102
}
330
228
100
AcDbVisualStyle
  2
Linepattern
 70
    14
 71
     2
 72
     2
 73
     0
 90
        0
 40
-0.6
 41
-30.0
 62
     5
 63
     7
 74
     1
 91
        4
 64
     7
 65
   257
 75
     7
175
     7
 42
1.0
 92
        8
 66
     7
 43
1.0
 76
     1
 77
     6
 78
     2
 67
     7
 79
     5
170
     0
171
     0
290
     0
174
     0
 93
        1
 44
0.0
173
     0
291
     1
 45
0.0
1001
ACAD
1000
AcDbSavedByObjectVersion
1070
     0
1000
AcDbSavedByObjectVersion
1070
     0
1000
AcDbSavedByObjectVersion
1070
     0
1000
AcDbSavedByObjectVersion
1070
     0
  0
VISUALSTYLE
  5
232
102
{ACAD_REACTORS
330
228
102
}
330
228
100
AcDbVisualStyle
  2
Realistic
 70
     8
 71
     2
 72
     2
 73
     0
 90
        0
 40
-0.6
 41
-30.0
 62
     5
 63
     7
 74
     1
 91
        0
 64
     7
 65
   257
 75
     1
175
     1
 42
1.0
 92
        8
 66
     8
 43
1.0
 76
     1
 77
     6
 78
     2
 67
     7
 79
     5
170
     0
171
     0
290
     0
174
     0
 93
       13
 44
0.0
173
     0
291
     0
 45
0.0
1001
ACAD
1000
AcDbSavedByObjectVersion
1070
     0
1000
AcDbSavedByObjectVersion
1070
     0
1000
AcDbSavedByObjectVersion
1070
     0
1000
AcDbSavedByObjectVersion
1070
     0
  0
VISUALSTYLE
  5
235
102
{ACAD_REACTORS
330
228
102
}
330
228
100
AcDbVisualStyle
  2
Thicken
 70
    13
 71
     2
 72
     2
 73
     0
 90
        0
 40
-0.6
 41
-30.0
 62
     5
 63
     7
 74
     1
 91
        4
 64
     7
 65
   257
 75
     1
175
     1
 42
1.0
 92
       12
 66
     7
 43
1.0
 76
     1
 77
     6
 78
     2
 67
     7
 79
     5
170
     0
171
     0
290
     0
174
     0
 93
        1
 44
0.0
173
     0
291
     1
 45
0.0
1001
ACAD
1000
AcDbSavedByObjectVersion
1070
     0
1000
AcDbSavedByObjectVersion
1070
     0
1000
AcDbSavedByObjectVersion
1070
     0
1000
AcDbSavedByObjectVersion
1070
     0
  0
DICTIONARYVAR
  5
27B
102
{ACAD_REACTORS
330
FB
102
}
330
FB
100
DictionaryVariables
280
     0
  1
1:1
  0
DICTIONARYVAR
  5
27A
102
{ACAD_REACTORS
330
FB
102
}
330
FB
100
DictionaryVariables
280
     0
  1
STANDARD
  0
DICTIONARYVAR
  5
105
102
{ACAD_REACTORS
330
FB
102
}
330
FB
100
DictionaryVariables
280
     0
  1
STANDARD
  0
DICTIONARYVAR
  5
FC
102
{ACAD_REACTORS
330
FB
102
}
330
FB
100
DictionaryVariables
280
     0
  1
1
  0
DICTIONARYVAR
  5
27D
102
{ACAD_REACTORS
330
FB
102
}
330
FB
100
DictionaryVariables
280
     0
  1
0
  0
DICTIONARYVAR
  5
27C
102
{ACAD_REACTORS
330
FB
102
}
330
FB
100
DictionaryVariables
280
     0
  1
127
  0
DICTIONARY
  5
C45
330
1E
100
AcDbDictionary
280
     1
281
     1
  3
ACAD_XREC_ROUNDTRIP
360
C46
  0
DICTIONARY
  5
C49
330
26
100
AcDbDictionary
280
     1
281
     1
  3
ACAD_XREC_ROUNDTRIP
360
C4A
  0
DICTIONARY
  5
C47
330
22
100
AcDbDictionary
280
     1
281
     1
  3
ACAD_XREC_ROUNDTRIP
360
C48
  0
DICTIONARY
  5
5FA
330
5F9
100
AcDbDictionary
280
     1
281
     1
  3
ACAD_XREC_ROUNDTRIP
360
60A
  3
BUMPTILE
360
5FF
  3
DIFFUSETILE
360
5FB
  3
OPACITYTILE
360
5FE
  3
REFLECTIONTILE
360
5FD
  3
REFRACTIONTILE
360
600
  3
SPECULARTILE
360
5FC
  0
DICTIONARY
  5
219
330
218
100
AcDbDictionary
280
     1
281
     1
  3
ACAD_XREC_ROUNDTRIP
360
28A
  3
BUMPTILE
360
21B
  3
DIFFUSETILE
360
21A
  3
OPACITYTILE
360
21E
  3
REFLECTIONTILE
360
21D
  3
REFRACTIONTILE
360
21F
  3
SPECULARTILE
360
21C
  0
DICTIONARY
  5
211
330
210
100
AcDbDictionary
280
     1
281
     1
  3
ACAD_XREC_ROUNDTRIP
360
289
  3
BUMPTILE
360
213
  3
DIFFUSETILE
360
212
  3
OPACITYTILE
360
216
  3
REFLECTIONTILE
360
215
  3
REFRACTIONTILE
360
217
  3
SPECULARTILE
360
214
  0
DICTIONARY
  5
221
330
220
100
AcDbDictionary
280
     1
281
     1
  3
ACAD_XREC_ROUNDTRIP
360
28B
  3
BUMPTILE
360
223
  3
DIFFUSETILE
360
222
  3
OPACITYTILE
360
226
  3
REFLECTIONTILE
360
225
  3
REFRACTIONTILE
360
227
  3
SPECULARTILE
360
224
  0
DICTIONARY
  5
27E
330
101
100
AcDbDictionary
280
     1
281
     1
  3
ACAD_ROUNDTRIP_2008_TABLESTYLE_CELLSTYLEMAP
360
C43
  3
ACAD_XREC_ROUNDTRIP
360
C4B
  0
XRECORD
  5
C46
102
{ACAD_REACTORS
330
C45
102
}
330
C45
100
AcDbXrecord
280
     1
102
SHADEPLOT
 70
     0
102
SHADEPLOTRESLEVEL
 70
     2
102
SHADEPLOTCUSTOMDPI
 70
   300
  0
XRECORD
  5
C4A
102
{ACAD_REACTORS
330
C49
102
}
330
C49
100
AcDbXrecord
280
     1
102
SHADEPLOT
 70
     0
102
SHADEPLOTRESLEVEL
 70
     2
102
SHADEPLOTCUSTOMDPI
 70
   300
  0
XRECORD
  5
C48
102
{ACAD_REACTORS
330
C47
102
}
330
C47
100
AcDbXrecord
280
     1
102
SHADEPLOT
 70
     0
102
SHADEPLOTRESLEVEL
 70
     2
102
SHADEPLOTCUSTOMDPI
 70
   300
  0
XRECORD
  5
60A
102
{ACAD_REACTORS
330
5FA
102
}
330
5FA
100
AcDbXrecord
280
     1
102
MATERIAL
148
0.0
149
0.0
149
0.0
 93
        0
 94
      127
282
     0
 72
     0
 77
     0
171
     0
175
     0
179
     0
273
     0
  0
XRECORD
  5
5FF
102
{ACAD_REACTORS
330
5FA
102
}
330
5FA
100
AcDbXrecord
280
     1
270
     1
271
     1
  0
XRECORD
  5
5FB
102
{ACAD_REACTORS
330
5FA
102
}
330
5FA
100
AcDbXrecord
280
     1
270
     1
271
     1
  0
XRECORD
  5
5FE
102
{ACAD_REACTORS
330
5FA
102
}
330
5FA
100
AcDbXrecord
280
     1
270
     1
271
     1
  0
XRECORD
  5
5FD
102
{ACAD_REACTORS
330
5FA
102
}
330
5FA
100
AcDbXrecord
280
     1
270
     1
271
     1
  0
XRECORD
  5
600
102
{ACAD_REACTORS
330
5FA
102
}
330
5FA
100
AcDbXrecord
280
     1
270
     1
271
     1
  0
XRECORD
  5
5FC
102
{ACAD_REACTORS
330
5FA
102
}
330
5FA
100
AcDbXrecord
280
     1
270
     1
271
     1
  0
XRECORD
  5
28A
102
{ACAD_REACTORS
330
219
102
}
330
219
100
AcDbXrecord
280
     1
102
MATERIAL
148
0.0
149
0.0
149
0.0
 93
        0
 94
      127
282
     0
 72
     0
 77
     0
171
     0
175
     0
179
     0
273
     0
  0
XRECORD
  5
21B
102
{ACAD_REACTORS
330
219
102
}
330
219
100
AcDbXrecord
280
     1
270
     1
271
     1
  0
XRECORD
  5
21A
102
{ACAD_REACTORS
330
219
102
}
330
219
100
AcDbXrecord
280
     1
270
     1
271
     1
  0
XRECORD
  5
21E
102
{ACAD_REACTORS
330
219
102
}
330
219
100
AcDbXrecord
280
     1
270
     1
271
     1
  0
XRECORD
  5
21D
102
{ACAD_REACTORS
330
219
102
}
330
219
100
AcDbXrecord
280
     1
270
     1
271
     1
  0
XRECORD
  5
21F
102
{ACAD_REACTORS
330
219
102
}
330
219
100
AcDbXrecord
280
     1
270
     1
271
     1
  0
XRECORD
  5
21C
102
{ACAD_REACTORS
330
219
102
}
330
219
100
AcDbXrecord
280
     1
270
     1
271
     1
  0
XRECORD
  5
289
102
{ACAD_REACTORS
330
211
102
}
330
211
100
AcDbXrecord
280
     1
102
MATERIAL
148
0.0
149
0.0
149
0.0
 93
        0
 94
      127
282
     0
 72
     0
 77
     0
171
     0
175
     0
179
     0
273
     0
  0
XRECORD
  5
213
102
{ACAD_REACTORS
330
211
102
}
330
211
100
AcDbXrecord
280
     1
270
     1
271
     1
  0
XRECORD
  5
212
102
{ACAD_REACTORS
330
211
102
}
330
211
100
AcDbXrecord
280
     1
270
     1
271
     1
  0
XRECORD
  5
216
102
{ACAD_REACTORS
330
211
102
}
330
211
100
AcDbXrecord
280
     1
270
     1
271
     1
  0
XRECORD
  5
215
102
{ACAD_REACTORS
330
211
102
}
330
211
100
AcDbXrecord
280
     1
270
     1
271
     1
  0
XRECORD
  5
217
102
{ACAD_REACTORS
330
211
102
}
330
211
100
AcDbXrecord
280
     1
270
     1
271
     1
  0
XRECORD
  5
214
102
{ACAD_REACTORS
330
211
102
}
330
211
100
AcDbXrecord
280
     1
270
     1
271
     1
  0
XRECORD
  5
28B
102
{ACAD_REACTORS
330
221
102
}
330
221
100
AcDbXrecord
280
     1
102
MATERIAL
148
0.0
149
0.0
149
0.0
 93
        0
 94
      127
282
     0
 72
     0
 77
     0
171
     0
175
     0
179
     0
273
     0
  0
XRECORD
  5
223
102
{ACAD_REACTORS
330
221
102
}
330
221
100
AcDbXrecord
280
     1
270
     1
271
     1
  0
XRECORD
  5
222
102
{ACAD_REACTORS
330
221
102
}
330
221
100
AcDbXrecord
280
     1
270
     1
271
     1
  0
XRECORD
  5
226
102
{ACAD_REACTORS
330
221
102
}
330
221
100
AcDbXrecord
280
     1
270
     1
271
     1
  0
XRECORD
  5
225
102
{ACAD_REACTORS
330
221
102
}
330
221
100
AcDbXrecord
280
     1
270
     1
271
     1
  0
XRECORD
  5
227
102
{ACAD_REACTORS
330
221
102
}
330
221
100
AcDbXrecord
280
     1
270
     1
271
     1
  0
XRECORD
  5
224
102
{ACAD_REACTORS
330
221
102
}
330
221
100
AcDbXrecord
280
     1
270
     1
271
     1
  0
CELLSTYLEMAP
  5
C43
102
{ACAD_REACTORS
330
27E
102
}
330
27E
100
AcDbCellStyleMap
 90
        3
300
CELLSTYLE
  1
TABLEFORMAT_BEGIN
 90
        5
170
     1
 91
        0
 92
    32768
 62
   257
 93
        1
300
CONTENTFORMAT
  1
CONTENTFORMAT_BEGIN
 90
        0
 91
        0
 92
        4
 93
        0
300

 40
0.0
140
1.0
 94
        5
 62
     0
340
11
144
0.25
309
CONTENTFORMAT_END
171
     1
301
MARGIN
  1
CELLMARGIN_BEGIN
 40
0.06
 40
0.06
 40
0.06
 40
0.06
 40
0.18
 40
0.18
309
CELLMARGIN_END
 94
        6
 95
        1
302
GRIDFORMAT
  1
GRIDFORMAT_BEGIN
 90
        0
 91
        1
 62
     0
 92
       -2
340
0
 93
        0
 40
0.045
309
GRIDFORMAT_END
 95
        2
302
GRIDFORMAT
  1
GRIDFORMAT_BEGIN
 90
        0
 91
        1
 62
     0
 92
       -2
340
0
 93
        0
 40
0.045
309
GRIDFORMAT_END
 95
        4
302
GRIDFORMAT
  1
GRIDFORMAT_BEGIN
 90
        0
 91
        1
 62
     0
 92
       -2
340
0
 93
        0
 40
0.045
309
GRIDFORMAT_END
 95
        8
302
GRIDFORMAT
  1
GRIDFORMAT_BEGIN
 90
        0
 91
        1
 62
     0
 92
       -2
340
0
 93
        0
 40
0.045
309
GRIDFORMAT_END
 95
       16
302
GRIDFORMAT
  1
GRIDFORMAT_BEGIN
 90
        0
 91
        1
 62
     0
 92
       -2
340
0
 93
        0
 40
0.045
309
GRIDFORMAT_END
 95
       32
302
GRIDFORMAT
  1
GRIDFORMAT_BEGIN
 90
        0
 91
        1
 62
     0
 92
       -2
340
0
 93
        0
 40
0.045
309
GRIDFORMAT_END
309
TABLEFORMAT_END
  1
CELLSTYLE_BEGIN
 90
        1
 91
        1
300
_TITLE
309
CELLSTYLE_END
300
CELLSTYLE
  1
TABLEFORMAT_BEGIN
 90
        5
170
     1
 91
        0
 92
        0
 62
   257
 93
        1
300
CONTENTFORMAT
  1
CONTENTFORMAT_BEGIN
 90
        0
 91
        0
 92
        4
 93
        0
300

 40
0.0
140
1.0
 94
        5
 62
     0
340
11
144
0.18
309
CONTENTFORMAT_END
171
     1
301
MARGIN
  1
CELLMARGIN_BEGIN
 40
0.06
 40
0.06
 40
0.06
 40
0.06
 40
0.18
 40
0.18
309
CELLMARGIN_END
 94
        6
 95
        1
302
GRIDFORMAT
  1
GRIDFORMAT_BEGIN
 90
        0
 91
        1
 62
     0
 92
       -2
340
0
 93
        0
 40
0.045
309
GRIDFORMAT_END
 95
        2
302
GRIDFORMAT
  1
GRIDFORMAT_BEGIN
 90
        0
 91
        1
 62
     0
 92
       -2
340
0
 93
        0
 40
0.045
309
GRIDFORMAT_END
 95
        4
302
GRIDFORMAT
  1
GRIDFORMAT_BEGIN
 90
        0
 91
        1
 62
     0
 92
       -2
340
0
 93
        0
 40
0.045
309
GRIDFORMAT_END
 95
        8
302
GRIDFORMAT
  1
GRIDFORMAT_BEGIN
 90
        0
 91
        1
 62
     0
 92
       -2
340
0
 93
        0
 40
0.045
309
GRIDFORMAT_END
 95
       16
302
GRIDFORMAT
  1
GRIDFORMAT_BEGIN
 90
        0
 91
        1
 62
     0
 92
       -2
340
0
 93
        0
 40
0.045
309
GRIDFORMAT_END
 95
       32
302
GRIDFORMAT
  1
GRIDFORMAT_BEGIN
 90
        0
 91
        1
 62
     0
 92
       -2
340
0
 93
        0
 40
0.045
309
GRIDFORMAT_END
309
TABLEFORMAT_END
  1
CELLSTYLE_BEGIN
 90
        2
 91
        1
300
_HEADER
309
CELLSTYLE_END
300
CELLSTYLE
  1
TABLEFORMAT_BEGIN
 90
        5
170
     1
 91
        0
 92
        0
 62
   257
 93
        1
300
CONTENTFORMAT
  1
CONTENTFORMAT_BEGIN
 90
        0
 91
        0
 92
        4
 93
        0
300

 40
0.0
140
1.0
 94
        2
 62
     0
340
11
144
0.18
309
CONTENTFORMAT_END
171
     1
301
MARGIN
  1
CELLMARGIN_BEGIN
 40
0.06
 40
0.06
 40
0.06
 40
0.06
 40
0.18
 40
0.18
309
CELLMARGIN_END
 94
        6
 95
        1
302
GRIDFORMAT
  1
GRIDFORMAT_BEGIN
 90
        0
 91
        1
 62
     0
 92
       -2
340
0
 93
        0
 40
0.045
309
GRIDFORMAT_END
 95
        2
302
GRIDFORMAT
  1
GRIDFORMAT_BEGIN
 90
        0
 91
        1
 62
     0
 92
       -2
340
0
 93
        0
 40
0.045
309
GRIDFORMAT_END
 95
        4
302
GRIDFORMAT
  1
GRIDFORMAT_BEGIN
 90
        0
 91
        1
 62
     0
 92
       -2
340
0
 93
        0
 40
0.045
309
GRIDFORMAT_END
 95
        8
302
GRIDFORMAT
  1
GRIDFORMAT_BEGIN
 90
        0
 91
        1
 62
     0
 92
       -2
340
0
 93
        0
 40
0.045
309
GRIDFORMAT_END
 95
       16
302
GRIDFORMAT
  1
GRIDFORMAT_BEGIN
 90
        0
 91
        1
 62
     0
 92
       -2
340
0
 93
        0
 40
0.045
309
GRIDFORMAT_END
 95
       32
302
GRIDFORMAT
  1
GRIDFORMAT_BEGIN
 90
        0
 91
        1
 62
     0
 92
       -2
340
0
 93
        0
 40
0.045
309
GRIDFORMAT_END
309
TABLEFORMAT_END
  1
CELLSTYLE_BEGIN
 90
        3
 91
        2
300
_DATA
309
CELLSTYLE_END
  0
XRECORD
  5
C4B
102
{ACAD_REACTORS
330
27E
102
}
330
27E
100
AcDbXrecord
280
     1
102
ACAD_ROUNDTRIP_PRE2007_TABLESTYLE
 90
        4
 91
        0
  1

 92
        4
 93
        0
  2

 94
        4
 95
        0
  3

  0
ENDSEC
  0
EOF
