  0
SECTION
  2
HEADER
  9
$ACADVER
  1
AC1018
  9
$ACADMAINTVER
 70
     0
  9
$DWGCODEPAGE
  3
ANSI_1252
  9
$INSBASE
 10
0.0
 20
0.0
 30
0.0
  9
$EXTMIN
 10
-9.66376456908389
 20
-18.44857200252367
 30
12.76038123434489
  9
$EXTMAX
 10
25.73237943596342
 20
16.94757200252365
 30
37.7367435842252
  9
$LIMMIN
 10
0.0
 20
0.0
  9
$LIMMAX
 10
12.0
 20
9.0
  9
$ORTHOMODE
 70
     0
  9
$REGENMODE
 70
     1
  9
$FILLMODE
 70
     1
  9
$QTEXTMODE
 70
     0
  9
$MIRRTEXT
 70
     1
  9
$LTSCALE
 40
1.0
  9
$ATTMODE
 70
     1
  9
$TEXTSIZE
 40
0.2
  9
$TRACEWID
 40
0.05
  9
$TEXTSTYLE
  7
Standard
  9
$CLAYER
  8
0
  9
$CELTYPE
  6
ByLayer
  9
$CECOLOR
 62
   256
  9
$CELTSCALE
 40
1.0
  9
$DISPSILH
 70
     0
  9
$DIMSCALE
 40
1.0
  9
$DIMASZ
 40
0.18
  9
$DIMEXO
 40
0.0625
  9
$DIMDLI
 40
0.38
  9
$DIMRND
 40
0.0
  9
$DIMDLE
 40
0.0
  9
$DIMEXE
 40
0.18
  9
$DIMTP
 40
0.0
  9
$DIMTM
 40
0.0
  9
$DIMTXT
 40
0.18
  9
$DIMCEN
 40
0.09
  9
$DIMTSZ
 40
0.0
  9
$DIMTOL
 70
     0
  9
$DIMLIM
 70
     0
  9
$DIMTIH
 70
     1
  9
$DIMTOH
 70
     1
  9
$DIMSE1
 70
     0
  9
$DIMSE2
 70
     0
  9
$DIMTAD
 70
     0
  9
$DIMZIN
 70
     0
  9
$DIMBLK
  1

  9
$DIMASO
 70
     1
  9
$DIMSHO
 70
     1
  9
$DIMPOST
  1

  9
$DIMAPOST
  1

  9
$DIMALT
 70
     0
  9
$DIMALTD
 70
     2
  9
$DIMALTF
 40
25.4
  9
$DIMLFAC
 40
1.0
  9
$DIMTOFL
 70
     0
  9
$DIMTVP
 40
0.0
  9
$DIMTIX
 70
     0
  9
$DIMSOXD
 70
     0
  9
$DIMSAH
 70
     0
  9
$DIMBLK1
  1

  9
$DIMBLK2
  1

  9
$DIMSTYLE
  2
Standard
  9
$DIMCLRD
 70
     0
  9
$DIMCLRE
 70
     0
  9
$DIMCLRT
 70
     0
  9
$DIMTFAC
 40
1.0
  9
$DIMGAP
 40
0.09
  9
$DIMJUST
 70
     0
  9
$DIMSD1
 70
     0
  9
$DIMSD2
 70
     0
  9
$DIMTOLJ
 70
     1
  9
$DIMTZIN
 70
     0
  9
$DIMALTZ
 70
     0
  9
$DIMALTTZ
 70
     0
  9
$DIMUPT
 70
     0
  9
$DIMDEC
 70
     4
  9
$DIMTDEC
 70
     4
  9
$DIMALTU
 70
     2
  9
$DIMALTTD
 70
     2
  9
$DIMTXSTY
  7
Standard
  9
$DIMAUNIT
 70
     0
  9
$DIMADEC
 70
     0
  9
$DIMALTRND
 40
0.0
  9
$DIMAZIN
 70
     0
  9
$DIMDSEP
 70
    46
  9
$DIMATFIT
 70
     3
  9
$DIMFRAC
 70
     0
  9
$DIMLDRBLK
  1

  9
$DIMLUNIT
 70
     2
  9
$DIMLWD
 70
    -2
  9
$DIMLWE
 70
    -2
  9
$DIMTMOVE
 70
     2
  9
$LUNITS
 70
     2
  9
$LUPREC
 70
     4
  9
$SKETCHINC
 40
0.1
  9
$FILLETRAD
 40
0.5
  9
$AUNITS
 70
     0
  9
$AUPREC
 70
     0
  9
$MENU
  1
.
  9
$ELEVATION
 40
0.0
  9
$PELEVATION
 40
0.0
  9
$THICKNESS
 40
0.0
  9
$LIMCHECK
 70
     0
  9
$CHAMFERA
 40
0.0
  9
$CHAMFERB
 40
0.0
  9
$CHAMFERC
 40
0.0
  9
$CHAMFERD
 40
0.0
  9
$SKPOLY
 70
     0
  9
$TDCREATE
 40
2457157.56098691
  9
$TDUCREATE
 40
2457157.727653577
  9
$TDUPDATE
 40
2457157.561006007
  9
$TDUUPDATE
 40
2457157.727672674
  9
$TDINDWG
 40
0.0000000116
  9
$TDUSRTIMER
 40
0.0000000116
  9
$USRTIMER
 70
     1
  9
$ANGBASE
 50
0.0
  9
$ANGDIR
 70
     0
  9
$PDMODE
 70
     0
  9
$PDSIZE
 40
0.0
  9
$PLINEWID
 40
0.0
  9
$SPLFRAME
 70
     0
  9
$SPLINETYPE
 70
     6
  9
$SPLINESEGS
 70
     8
  9
$HANDSEED
  5
22B
  9
$SURFTAB1
 70
     6
  9
$SURFTAB2
 70
     6
  9
$SURFTYPE
 70
     6
  9
$SURFU
 70
     6
  9
$SURFV
 70
     6
  9
$UCSBASE
  2

  9
$UCSNAME
  2

  9
$UCSORG
 10
0.0
 20
0.0
 30
0.0
  9
$UCSXDIR
 10
1.0
 20
0.0
 30
0.0
  9
$UCSYDIR
 10
0.0
 20
1.0
 30
0.0
  9
$UCSORTHOREF
  2

  9
$UCSORTHOVIEW
 70
     0
  9
$UCSORGTOP
 10
0.0
 20
0.0
 30
0.0
  9
$UCSORGBOTTOM
 10
0.0
 20
0.0
 30
0.0
  9
$UCSORGLEFT
 10
0.0
 20
0.0
 30
0.0
  9
$UCSORGRIGHT
 10
0.0
 20
0.0
 30
0.0
  9
$UCSORGFRONT
 10
0.0
 20
0.0
 30
0.0
  9
$UCSORGBACK
 10
0.0
 20
0.0
 30
0.0
  9
$PUCSBASE
  2

  9
$PUCSNAME
  2

  9
$PUCSORG
 10
0.0
 20
0.0
 30
0.0
  9
$PUCSXDIR
 10
1.0
 20
0.0
 30
0.0
  9
$PUCSYDIR
 10
0.0
 20
1.0
 30
0.0
  9
$PUCSORTHOREF
  2

  9
$PUCSORTHOVIEW
 70
     0
  9
$PUCSORGTOP
 10
0.0
 20
0.0
 30
0.0
  9
$PUCSORGBOTTOM
 10
0.0
 20
0.0
 30
0.0
  9
$PUCSORGLEFT
 10
0.0
 20
0.0
 30
0.0
  9
$PUCSORGRIGHT
 10
0.0
 20
0.0
 30
0.0
  9
$PUCSORGFRONT
 10
0.0
 20
0.0
 30
0.0
  9
$PUCSORGBACK
 10
0.0
 20
0.0
 30
0.0
  9
$USERI1
 70
     0
  9
$USERI2
 70
     0
  9
$USERI3
 70
     0
  9
$USERI4
 70
     0
  9
$USERI5
 70
     0
  9
$USERR1
 40
0.0
  9
$USERR2
 40
0.0
  9
$USERR3
 40
0.0
  9
$USERR4
 40
0.0
  9
$USERR5
 40
0.0
  9
$WORLDVIEW
 70
     1
  9
$SHADEDGE
 70
     3
  9
$SHADEDIF
 70
    70
  9
$TILEMODE
 70
     1
  9
$MAXACTVP
 70
    64
  9
$PINSBASE
 10
0.0
 20
0.0
 30
0.0
  9
$PLIMCHECK
 70
     0
  9
$PEXTMIN
 10
1.000000000000000E+20
 20
1.000000000000000E+20
 30
1.000000000000000E+20
  9
$PEXTMAX
 10
-1.000000000000000E+20
 20
-1.000000000000000E+20
 30
-1.000000000000000E+20
  9
$PLIMMIN
 10
0.0
 20
0.0
  9
$PLIMMAX
 10
12.0
 20
9.0
  9
$UNITMODE
 70
     0
  9
$VISRETAIN
 70
     1
  9
$PLINEGEN
 70
     0
  9
$PSLTSCALE
 70
     1
  9
$TREEDEPTH
 70
  3020
  9
$CMLSTYLE
  2
Standard
  9
$CMLJUST
 70
     0
  9
$CMLSCALE
 40
1.0
  9
$PROXYGRAPHICS
 70
     1
  9
$MEASUREMENT
 70
     0
  9
$CELWEIGHT
370
    -1
  9
$ENDCAPS
280
     0
  9
$JOINSTYLE
280
     0
  9
$LWDISPLAY
290
     0
  9
$INSUNITS
 70
     1
  9
$HYPERLINKBASE
  1

  9
$STYLESHEET
  1

  9
$XEDIT
290
     1
  9
$CEPSNTYPE
380
     0
  9
$PSTYLEMODE
290
     1
  9
$FINGERPRINTGUID
  2
{A5FD4650-630D-4593-A506-7189E55B9081}
  9
$VERSIONGUID
  2
{FAEB1C32-E019-11D5-929B-00C0DF256EC4}
  9
$EXTNAMES
290
     1
  9
$PSVPSCALE
 40
0.0
  9
$OLESTARTUP
290
     0
  9
$SORTENTS
280
   127
  9
$INDEXCTL
280
     0
  9
$HIDETEXT
280
     1
  9
$XCLIPFRAME
290
     0
  9
$HALOGAP
280
     0
  9
$OBSCOLOR
 70
   257
  9
$OBSLTYPE
280
     0
  9
$INTERSECTIONDISPLAY
280
     0
  9
$INTERSECTIONCOLOR
 70
   257
  9
$DIMASSOC
280
     2
  9
$PROJECTNAME
  1

  0
ENDSEC
  0
SECTION
  2
CLASSES
  0
CLASS
  1
ACDBDICTIONARYWDFLT
  2
AcDbDictionaryWithDefault
  3
ObjectDBX Classes
 90
        0
 91
        4
280
     0
281
     0
  0
CLASS
  1
VISUALSTYLE
  2
AcDbVisualStyle
  3
ObjectDBX Classes
 90
     4095
 91
        4
280
     0
281
     0
  0
CLASS
  1
MATERIAL
  2
AcDbMaterial
  3
ObjectDBX Classes
 90
     1153
 91
        4
280
     0
281
     0
  0
CLASS
  1
SCALE
  2
AcDbScale
  3
ObjectDBX Classes
 90
     1153
 91
        4
280
     0
281
     0
  0
CLASS
  1
TABLESTYLE
  2
AcDbTableStyle
  3
ObjectDBX Classes
 90
     4095
 91
        4
280
     0
281
     0
  0
CLASS
  1
MLEADERSTYLE
  2
AcDbMLeaderStyle
  3
ACDB_MLEADERSTYLE_CLASS
 90
     4095
 91
        4
280
     0
281
     0
  0
CLASS
  1
SUN
  2
AcDbSun
  3
SCENEOE
 90
     1153
 91
        4
280
     0
281
     0
  0
CLASS
  1
DICTIONARYVAR
  2
AcDbDictionaryVar
  3
ObjectDBX Classes
 90
        0
 91
        4
280
     0
281
     0
  0
CLASS
  1
CELLSTYLEMAP
  2
AcDbCellStyleMap
  3
ObjectDBX Classes
 90
     1152
 91
        4
280
     0
281
     0
  0
ENDSEC
  0
SECTION
  2
TABLES
  0
TABLE
  2
VPORT
  5
8
102
{ACAD_XDICTIONARY
360
1E4
102
}
330
0
100
AcDbSymbolTable
 70
     1
  0
VPORT
  5
29
330
8
100
AcDbSymbolTableRecord
100
AcDbViewportTableRecord
  2
*Active
 70
     0
 10
0.0
 20
0.0
 11
1.0
 21
1.0
 12
8.034307433439762
 22
-0.7505000000000095
 13
0.0
 23
0.0
 14
0.5
 24
0.5
 15
0.5
 25
0.5
 16
0.0
 26
0.0
 36
1.0
 17
0.0
 27
0.0
 37
0.0
 40
36.10406688514826
 41
0.9999999999999998
 42
50.0
 43
0.0
 44
0.0
 50
0.0
 51
0.0
 71
     0
 72
   100
 73
     1
 74
     3
 75
     0
 76
     0
 77
     0
 78
     0
281
     0
 65
     1
110
0.0
120
0.0
130
0.0
111
1.0
121
0.0
131
0.0
112
0.0
122
1.0
132
0.0
 79
     0
146
0.0
  0
ENDTAB
  0
TABLE
  2
LTYPE
  5
5
330
0
100
AcDbSymbolTable
 70
     1
  0
LTYPE
  5
14
330
5
100
AcDbSymbolTableRecord
100
AcDbLinetypeTableRecord
  2
ByBlock
 70
     0
  3

 72
    65
 73
     0
 40
0.0
  0
LTYPE
  5
15
330
5
100
AcDbSymbolTableRecord
100
AcDbLinetypeTableRecord
  2
ByLayer
 70
     0
  3

 72
    65
 73
     0
 40
0.0
  0
LTYPE
  5
16
330
5
100
AcDbSymbolTableRecord
100
AcDbLinetypeTableRecord
  2
Continuous
 70
     0
  3
Solid line
 72
    65
 73
     0
 40
0.0
  0
ENDTAB
  0
TABLE
  2
LAYER
  5
2
330
0
100
AcDbSymbolTable
 70
     1
  0
LAYER
  5
10
330
2
100
AcDbSymbolTableRecord
100
AcDbLayerTableRecord
  2
0
 70
     0
 62
     7
  6
Continuous
370
    -3
390
F
  0
ENDTAB
  0
TABLE
  2
STYLE
  5
3
330
0
100
AcDbSymbolTable
 70
     1
  0
STYLE
  5
11
330
3
100
AcDbSymbolTableRecord
100
AcDbTextStyleTableRecord
  2
Standard
 70
     0
 40
0.0
 41
1.0
 50
0.0
 71
     0
 42
0.2
  3
txt
  4

  0
ENDTAB
  0
TABLE
  2
VIEW
  5
6
330
0
100
AcDbSymbolTable
 70
     0
  0
ENDTAB
  0
TABLE
  2
UCS
  5
7
330
0
100
AcDbSymbolTable
 70
     0
  0
ENDTAB
  0
TABLE
  2
APPID
  5
9
330
0
100
AcDbSymbolTable
 70
     2
  0
APPID
  5
12
330
9
100
AcDbSymbolTableRecord
100
AcDbRegAppTableRecord
  2
ACAD
 70
     0
  0
APPID
  5
223
330
9
100
AcDbSymbolTableRecord
100
AcDbRegAppTableRecord
  2
ACAD_MLEADERVER
 70
     0
  0
ENDTAB
  0
TABLE
  2
DIMSTYLE
  5
A
330
0
100
AcDbSymbolTable
 70
     1
100
AcDbDimStyleTable
  0
DIMSTYLE
105
27
330
A
100
AcDbSymbolTableRecord
100
AcDbDimStyleTableRecord
  2
Standard
 70
     0
178
     0
340
11
  0
ENDTAB
  0
TABLE
  2
BLOCK_RECORD
  5
1
330
0
100
AcDbSymbolTable
 70
     1
  0
BLOCK_RECORD
  5
1F
330
1
100
AcDbSymbolTableRecord
100
AcDbBlockTableRecord
  2
*Model_Space
340
22
  0
BLOCK_RECORD
  5
1B
330
1
100
AcDbSymbolTableRecord
100
AcDbBlockTableRecord
  2
*Paper_Space
340
1E
  0
BLOCK_RECORD
  5
23
330
1
100
AcDbSymbolTableRecord
100
AcDbBlockTableRecord
  2
*Paper_Space0
340
26
  0
ENDTAB
  0
ENDSEC
  0
SECTION
  2
BLOCKS
  0
BLOCK
  5
20
330
1F
100
AcDbEntity
  8
0
100
AcDbBlockBegin
  2
*Model_Space
 70
     0
 10
0.0
 20
0.0
 30
0.0
  3
*Model_Space
  1

  0
ENDBLK
  5
21
330
1F
100
AcDbEntity
  8
0
100
AcDbBlockEnd
  0
BLOCK
  5
1C
330
1B
100
AcDbEntity
 67
     1
  8
0
100
AcDbBlockBegin
  2
*Paper_Space
 70
     0
 10
0.0
 20
0.0
 30
0.0
  3
*Paper_Space
  1

  0
ENDBLK
  5
1D
330
1B
100
AcDbEntity
 67
     1
  8
0
100
AcDbBlockEnd
  0
BLOCK
  5
24
330
23
100
AcDbEntity
  8
0
100
AcDbBlockBegin
  2
*Paper_Space0
 70
     0
 10
0.0
 20
0.0
 30
0.0
  3
*Paper_Space0
  1

  0
ENDBLK
  5
25
330
23
100
AcDbEntity
  8
0
100
AcDbBlockEnd
  0
ENDSEC
  0
SECTION
  2
ENTITIES
  0
SPLINE
  5
6E
330
1F
100
AcDbEntity
  8
0
100
AcDbSpline
210
1.0
220
-1.160507796845122E-15
230
-1.341921639676052E-15
 70
     8
 71
     3
 72
    25
 73
    21
 74
     0
 42
0.000000001
 43
0.0000000001
 40
-114.6399766093876
 40
-114.6399766093876
 40
-114.6399766093876
 40
-114.6399766093876
 40
-112.58169823495
 40
-110.7616161846782
 40
-107.8748159712324
 40
-104.8237814953214
 40
-98.346996035107
 40
-92.23216769958609
 40
-85.0647859284153
 40
-77.08231983773739
 40
-67.41848434707296
 40
-60.1571533922972
 40
-52.68200809745043
 40
-43.13072396029663
 40
-33.516444725592
 40
-25.39502646395592
 40
-15.92485526112194
 40
-8.188094727346382
 40
-2.377007516715403
 40
0.0
 40
0.0
 40
0.0
 40
0.0
 10
7.159307433439778
 20
14.87213470915201
 30
14.98474882657877
 10
7.159307433439785
 20
14.8009482924803
 30
14.93611673197313
 10
7.159307433439778
 20
14.6667535073231
 30
14.8457307630175
 10
7.159307433439785
 20
14.38951245106443
 30
14.92341069972254
 10
7.159307433439785
 20
14.09992463351358
 30
15.02254224553156
 10
7.159307433439785
 20
13.68915020067157
 30
15.31106372784538
 10
7.159307433439778
 20
13.18233390675699
 30
15.67887176891037
 10
7.159307433439777
 20
12.66817493664584
 30
16.28683522680153
 10
7.159307433439785
 20
12.18633553863399
 30
16.98682756468802
 10
7.159307433439785
 20
11.66204337303205
 30
17.83109732897582
 10
7.159307433439775
 20
11.22364842702142
 30
18.72685771997079
 10
7.159307433439781
 20
10.82027744052839
 30
19.61553328100663
 10
7.159307433439781
 20
10.35997714634557
 30
20.47202755116315
 10
7.159307433439774
 20
9.741466535563815
 30
21.34687463248689
 10
7.159307433439781
 20
8.941904301369918
 30
22.09888545137016
 10
7.159307433439773
 20
8.068164941846751
 30
22.74616531924659
 10
7.159307433439774
 20
7.19711584541394
 30
23.27943746263862
 10
7.159307433439777
 20
6.327620848857082
 30
23.57752045235203
 10
7.159307433439777
 20
5.710211437605863
 30
23.77208890880968
 10
7.159307433439777
 20
3.193998718969802
 30
23.76038123434491
 10
7.159307433439777
 20
3.193998718969802
 30
23.76038123434491
  0
SPLINE
  5
6F
330
1F
100
AcDbEntity
  8
0
100
AcDbSpline
210
0.0
220
0.0
230
1.0
 70
    24
 71
     2
 72
     6
 73
     3
 74
     0
 42
0.000000001
 43
0.0000000001
 40
0.0
 40
0.0
 40
0.0
 40
1.75
 40
1.75
 40
1.75
 10
7.159307433439777
 20
3.193998718969802
 30
23.76038123434491
 10
8.034307433439778
 20
3.193998718969802
 30
23.76038123434491
 10
8.90930743343978
 20
3.193998718969802
 30
23.76038123434491
  0
SPLINE
  5
70
330
1F
100
AcDbEntity
  8
0
100
AcDbSpline
210
1.0
220
-6.924171339377335E-16
230
-1.326269673802377E-15
 70
     8
 71
     3
 72
    25
 73
    21
 74
     0
 42
0.000000001
 43
0.0000000001
 40
0.0
 40
0.0
 40
0.0
 40
0.0
 40
2.377007516715403
 40
8.188094727346382
 40
15.92485526112194
 40
25.39502646395592
 40
33.516444725592
 40
43.13072396029663
 40
52.68200809745043
 40
60.1571533922972
 40
67.41848434707296
 40
77.08231983773739
 40
85.0647859284153
 40
92.23216769958609
 40
98.346996035107
 40
104.8237814953214
 40
107.8748159712324
 40
110.7616161846782
 40
112.58169823495
 40
114.6399766093876
 40
114.6399766093876
 40
114.6399766093876
 40
114.6399766093876
 10
8.90930743343978
 20
3.193998718969802
 30
23.76038123434491
 10
8.90930743343978
 20
3.193998718969802
 30
23.76038123434491
 10
8.90930743343978
 20
5.710211437605863
 30
23.77208890880968
 10
8.909307433439778
 20
6.327620848857082
 30
23.57752045235203
 10
8.909307433439775
 20
7.19711584541394
 30
23.27943746263862
 10
8.909307433439775
 20
8.068164941846751
 30
22.74616531924659
 10
8.909307433439782
 20
8.941904301369918
 30
22.09888545137016
 10
8.909307433439775
 20
9.741466535563815
 30
21.34687463248689
 10
8.909307433439782
 20
10.35997714634557
 30
20.47202755116315
 10
8.909307433439782
 20
10.82027744052839
 30
19.61553328100663
 10
8.909307433439775
 20
11.22364842702142
 30
18.72685771997079
 10
8.909307433439785
 20
11.66204337303205
 30
17.83109732897582
 10
8.909307433439785
 20
12.18633553863399
 30
16.98682756468802
 10
8.909307433439778
 20
12.66817493664584
 30
16.28683522680153
 10
8.909307433439777
 20
13.18233390675699
 30
15.67887176891037
 10
8.909307433439784
 20
13.68915020067157
 30
15.31106372784538
 10
8.909307433439784
 20
14.09992463351358
 30
15.02254224553156
 10
8.909307433439784
 20
14.38951245106443
 30
14.92341069972254
 10
8.909307433439777
 20
14.6667535073231
 30
14.8457307630175
 10
8.909307433439784
 20
14.8009482924803
 30
14.93611673197313
 10
8.909307433439777
 20
14.87213470915201
 30
14.98474882657877
  0
SPLINE
  5
71
330
1F
100
AcDbEntity
  8
0
100
AcDbSpline
210
0.0
220
0.0
230
1.0
 70
    24
 71
     2
 72
     6
 73
     3
 74
     0
 42
0.000000001
 43
0.0000000001
 40
-1.75
 40
-1.75
 40
-1.75
 40
0.0
 40
0.0
 40
0.0
 10
8.909307433439777
 20
14.87213470915201
 30
14.98474882657877
 10
8.034307433439778
 20
14.87213470915201
 30
14.98474882657877
 10
7.159307433439778
 20
14.87213470915201
 30
14.98474882657877
  0
ARC
  5
72
330
1F
100
AcDbEntity
  8
0
100
AcDbCircle
 10
15.67218489225291
 20
13.99150566120338
 30
8.909307433439778
 40
1.275387110270729
210
1.0
220
5.548481854966406E-31
230
2.826499663430050E-31
100
AcDbArc
 50
285.1390834735358
 51
128.8511924435585
  0
LINE
  5
73
330
1F
100
AcDbEntity
  8
0
100
AcDbLine
 10
8.909307433439778
 20
16.00526885559715
 30
12.7603812343449
 11
7.159307433439777
 21
16.00526885559715
 31
12.7603812343449
  0
ARC
  5
74
330
1F
100
AcDbEntity
  8
0
100
AcDbCircle
 10
15.6721848922529
 20
13.99150566120338
 30
7.159307433439772
 40
1.275387110270727
210
1.0
220
5.398110825545623E-16
230
-9.228946222717889E-16
100
AcDbArc
 50
285.1390834735361
 51
128.8511924435581
  0
SPLINE
  5
75
330
1F
100
AcDbEntity
  8
0
100
AcDbSpline
210
0.0
220
0.0
230
1.0
 70
    24
 71
     2
 72
     6
 73
     3
 74
     0
 42
0.000000001
 43
0.0000000001
 40
-1.999999999999971
 40
-1.999999999999971
 40
-1.999999999999971
 40
0.0
 40
0.0
 40
0.0
 10
8.909307433439778
 20
16.00526885559715
 30
12.7603812343449
 10
8.909307433439778
 20
15.00526885559717
 30
12.7603812343449
 10
8.909307433439778
 20
14.00526885559718
 30
12.76038123434491
  0
SPLINE
  5
76
330
1F
100
AcDbEntity
  8
0
100
AcDbSpline
210
0.0
220
0.0
230
1.0
 70
    24
 71
     2
 72
     6
 73
     3
 74
     0
 42
0.000000001
 43
0.0000000001
 40
-1.75
 40
-1.75
 40
-1.75
 40
0.0
 40
0.0
 40
0.0
 10
8.909307433439778
 20
14.00526885559718
 30
12.76038123434491
 10
8.03430743343978
 20
14.00526885559718
 30
12.76038123434491
 10
7.159307433439782
 20
14.00526885559718
 30
12.76038123434491
  0
SPLINE
  5
77
330
1F
100
AcDbEntity
  8
0
100
AcDbSpline
210
0.0
220
0.0
230
1.0
 70
    24
 71
     2
 72
     6
 73
     3
 74
     0
 42
0.000000001
 43
0.0000000001
 40
0.0
 40
0.0
 40
0.0
 40
1.999999999999971
 40
1.999999999999971
 40
1.999999999999971
 10
7.159307433439782
 20
14.00526885559718
 30
12.76038123434491
 10
7.159307433439779
 20
15.00526885559717
 30
12.7603812343449
 10
7.159307433439777
 20
16.00526885559715
 30
12.7603812343449
  0
SPLINE
  5
78
330
1F
100
AcDbEntity
  8
0
100
AcDbSpline
210
1.0
220
-2.113309374915202E-15
230
-2.332167581759169E-15
 70
     8
 71
     3
 72
    24
 73
    20
 74
     0
 42
0.000000001
 43
0.0000000001
 40
0.0
 40
0.0
 40
0.0
 40
0.0
 40
1.961969429764278
 40
2.739087112764722
 40
3.476453788106062
 40
4.176181763098614
 40
4.775513185963493
 40
5.368423345000551
 40
6.045972079965189
 40
6.559894692477542
 40
7.081004931480751
 40
7.746033273097304
 40
8.30840164281085
 40
9.112238104319296
 40
9.82370594476127
 40
10.38630872511861
 40
11.00026063938757
 40
11.45430606960549
 40
13.2073143020778
 40
13.2073143020778
 40
13.2073143020778
 40
13.2073143020778
 10
7.159307433439775
 20
3.193998718969802
 30
19.51038123434491
 10
7.159307433439782
 20
3.853183784759537
 30
19.50954131063678
 10
7.159307433439782
 20
4.773465870321189
 30
19.50836870102843
 10
7.159307433439774
 20
5.891845027615361
 30
19.18521807770146
 10
7.159307433439774
 20
6.579425748206191
 30
18.91305772674953
 10
7.159307433439781
 20
7.169550095685494
 30
18.57377570305552
 10
7.159307433439785
 20
7.689609792929105
 30
18.21647240375104
 10
7.159307433439784
 20
8.176471744221544
 30
17.82627282170881
 10
7.159307433439791
 20
8.613261493283545
 30
17.42239915887204
 10
7.159307433439784
 20
9.049988809148957
 30
17.05421085202454
 10
7.159307433439784
 20
9.450366578919457
 30
16.65274048433595
 10
7.159307433439777
 20
9.87019552018829
 30
16.24830710187813
 10
7.15930743343979
 20
10.32705329874121
 30
15.74823031165192
 10
7.159307433439783
 20
10.78262712450993
 30
15.22650790349716
 10
7.159307433439776
 20
11.22495773493135
 30
14.69372376280067
 10
7.159307433439776
 20
11.64381263160793
 30
14.22290500347653
 10
7.159307433439776
 20
12.04191316356322
 30
13.85341244276135
 10
7.159307433439782
 20
12.74086209921356
 30
13.21763835498304
 10
7.159307433439789
 20
13.44555147950219
 30
12.962796125338
 10
7.159307433439782
 20
14.00526885559718
 30
12.76038123434491
  0
SPLINE
  5
79
330
1F
100
AcDbEntity
  8
0
100
AcDbSpline
210
1.0
220
-1.236054320199069E-15
230
-1.453422737839547E-15
 70
     8
 71
     3
 72
    24
 73
    20
 74
     0
 42
0.000000001
 43
0.0000000001
 40
-13.2073143020778
 40
-13.2073143020778
 40
-13.2073143020778
 40
-13.2073143020778
 40
-11.45430606960549
 40
-11.00026063938757
 40
-10.38630872511861
 40
-9.82370594476127
 40
-9.112238104319296
 40
-8.30840164281085
 40
-7.746033273097304
 40
-7.081004931480751
 40
-6.559894692477542
 40
-6.045972079965189
 40
-5.368423345000551
 40
-4.775513185963493
 40
-4.176181763098614
 40
-3.476453788106062
 40
-2.739087112764722
 40
-1.961969429764278
 40
0.0
 40
0.0
 40
0.0
 40
0.0
 10
8.909307433439778
 20
14.00526885559718
 30
12.76038123434491
 10
8.909307433439785
 20
13.44555147950219
 30
12.962796125338
 10
8.909307433439778
 20
12.74086209921356
 30
13.21763835498304
 10
8.909307433439771
 20
12.04191316356322
 30
13.85341244276135
 10
8.909307433439771
 20
11.64381263160793
 30
14.22290500347653
 10
8.909307433439775
 20
11.22495773493135
 30
14.69372376280067
 10
8.909307433439782
 20
10.78262712450993
 30
15.22650790349716
 10
8.909307433439789
 20
10.32705329874121
 30
15.74823031165192
 10
8.909307433439775
 20
9.87019552018829
 30
16.24830710187813
 10
8.909307433439782
 20
9.450366578919457
 30
16.65274048433595
 10
8.909307433439782
 20
9.049988809148957
 30
17.05421085202454
 10
8.909307433439789
 20
8.613261493283545
 30
17.42239915887204
 10
8.909307433439782
 20
8.176471744221544
 30
17.82627282170881
 10
8.909307433439782
 20
7.689609792929105
 30
18.21647240375104
 10
8.909307433439778
 20
7.169550095685494
 30
18.57377570305552
 10
8.909307433439771
 20
6.579425748206191
 30
18.91305772674953
 10
8.909307433439775
 20
5.891845027615361
 30
19.18521807770146
 10
8.909307433439782
 20
4.773465870321189
 30
19.50836870102843
 10
8.909307433439782
 20
3.853183784759537
 30
19.50954131063678
 10
8.909307433439775
 20
3.193998718969802
 30
19.51038123434491
  0
SPLINE
  5
7A
330
1F
100
AcDbEntity
  8
0
100
AcDbSpline
210
0.0
220
0.0
230
1.0
 70
    24
 71
     2
 72
     6
 73
     3
 74
     0
 42
0.000000001
 43
0.0000000001
 40
-1.75
 40
-1.75
 40
-1.75
 40
0.0
 40
0.0
 40
0.0
 10
8.909307433439775
 20
3.193998718969802
 30
19.51038123434491
 10
8.034307433439775
 20
3.193998718969802
 30
19.51038123434491
 10
7.159307433439775
 20
3.193998718969802
 30
19.51038123434491
  0
SPLINE
  5
7B
330
1F
100
AcDbEntity
  8
0
100
AcDbSpline
210
0.0
220
0.0
230
1.0
 70
    24
 71
     2
 72
     6
 73
     3
 74
     0
 42
0.000000001
 43
0.0000000001
 40
-4.249999999999997
 40
-4.249999999999997
 40
-4.249999999999997
 40
0.0
 40
0.0
 40
0.0
 10
8.909307433439775
 20
3.193998718969802
 30
19.51038123434491
 10
8.909307433439778
 20
3.193998718969802
 30
21.63538123434491
 10
8.90930743343978
 20
3.193998718969802
 30
23.76038123434491
  0
SPLINE
  5
7C
330
1F
100
AcDbEntity
  8
0
100
AcDbSpline
210
0.0
220
0.0
230
1.0
 70
    24
 71
     2
 72
     6
 73
     3
 74
     0
 42
0.000000001
 43
0.0000000001
 40
0.0
 40
0.0
 40
0.0
 40
4.249999999999997
 40
4.249999999999997
 40
4.249999999999997
 10
7.159307433439777
 20
3.193998718969802
 30
23.76038123434491
 10
7.159307433439776
 20
3.193998718969802
 30
21.63538123434491
 10
7.159307433439775
 20
3.193998718969802
 30
19.51038123434491
  0
SPLINE
  5
7D
330
1F
100
AcDbEntity
  8
0
100
AcDbSpline
210
1.0
220
-1.004477575875922E-15
230
-1.336704317718213E-15
 70
     8
 71
     3
 72
    25
 73
    21
 74
     0
 42
0.000000001
 43
0.0000000001
 40
-114.6399766093876
 40
-114.6399766093876
 40
-114.6399766093876
 40
-114.6399766093876
 40
-112.58169823495
 40
-110.7616161846782
 40
-107.8748159712324
 40
-104.8237814953214
 40
-98.346996035107
 40
-92.23216769958609
 40
-85.0647859284153
 40
-77.08231983773739
 40
-67.41848434707296
 40
-60.1571533922972
 40
-52.68200809745043
 40
-43.13072396029663
 40
-33.516444725592
 40
-25.39502646395592
 40
-15.92485526112194
 40
-8.188094727346382
 40
-2.377007516715403
 40
0.0
 40
0.0
 40
0.0
 40
0.0
 10
8.034307433439775
 20
14.87213470915263
 30
14.98474882657926
 10
8.034307433439782
 20
14.80094829248092
 30
14.93611673197362
 10
8.034307433439775
 20
14.66675350732372
 30
14.845730763018
 10
8.034307433439782
 20
14.38951245106504
 30
14.92341069972302
 10
8.034307433439782
 20
14.09992463351418
 30
15.02254224553204
 10
8.034307433439782
 20
13.68915020067215
 30
15.31106372784583
 10
8.034307433439775
 20
13.18233390675753
 30
15.67887176891081
 10
8.034307433439775
 20
12.66817493664635
 30
16.28683522680194
 10
8.034307433439782
 20
12.18633553863447
 30
16.9868275646884
 10
8.034307433439782
 20
11.66204337303249
 30
17.83109732897617
 10
8.034307433439771
 20
11.22364842702183
 30
18.72685771997111
 10
8.034307433439778
 20
10.82027744052876
 30
19.61553328100692
 10
8.034307433439778
 20
10.3599771463459
 30
20.47202755116341
 10
8.034307433439771
 20
9.7414665355641
 30
21.34687463248711
 10
8.034307433439778
 20
8.941904301370158
 30
22.09888545137035
 10
8.034307433439771
 20
8.068164941846945
 30
22.74616531924674
 10
8.034307433439771
 20
7.197115845414089
 30
23.27943746263874
 10
8.034307433439775
 20
6.327620848857194
 30
23.57752045235212
 10
8.034307433439775
 20
5.710211437605949
 30
23.77208890880975
 10
8.034307433439775
 20
3.193998718969802
 30
23.76038123434491
 10
8.034307433439775
 20
3.193998718969802
 30
23.76038123434491
  0
SPLINE
  5
7E
330
1F
100
AcDbEntity
  8
0
100
AcDbSpline
210
0.0
220
0.0
230
1.0
 70
    24
 71
     2
 72
     6
 73
     3
 74
     0
 42
0.000000001
 43
0.0000000001
 40
0.0
 40
0.0
 40
0.0
 40
1.75
 40
1.75
 40
1.75
 10
7.159307433439778
 20
14.65154275298663
 30
14.87817957641129
 10
8.034307433439778
 20
14.65154275298663
 30
14.87817957641129
 10
8.909307433439778
 20
14.65154275298663
 30
14.87817957641129
  0
SPLINE
  5
7F
330
1F
100
AcDbEntity
  8
0
100
AcDbSpline
210
0.0
220
0.0
230
1.0
 70
    24
 71
     2
 72
     6
 73
     3
 74
     0
 42
0.000000001
 43
0.0000000001
 40
0.0
 40
0.0
 40
0.0
 40
1.75
 40
1.75
 40
1.75
 10
7.15930743343978
 20
14.43579805693563
 30
14.91207422730099
 10
8.03430743343978
 20
14.43579805693563
 30
14.91207422730099
 10
8.90930743343978
 20
14.43579805693563
 30
14.91207422730099
  0
SPLINE
  5
80
330
1F
100
AcDbEntity
  8
0
100
AcDbSpline
210
0.0
220
0.0
230
1.0
 70
    24
 71
     2
 72
     6
 73
     3
 74
     0
 42
0.000000001
 43
0.0000000001
 40
0.0
 40
0.0
 40
0.0
 40
1.75
 40
1.75
 40
1.75
 10
7.159307433439782
 20
14.11200603285863
 30
15.03512730489936
 10
8.034307433439782
 20
14.11200603285863
 30
15.03512730489936
 10
8.90930743343978
 20
14.11200603285863
 30
15.03512730489936
  0
SPLINE
  5
81
330
1F
100
AcDbEntity
  8
0
100
AcDbSpline
210
0.0
220
0.0
230
1.0
 70
    24
 71
     2
 72
     6
 73
     3
 74
     0
 42
0.000000001
 43
0.0000000001
 40
0.0
 40
0.0
 40
0.0
 40
1.75
 40
1.75
 40
1.75
 10
7.159307433439781
 20
13.80317379493053
 30
15.23171412786834
 10
8.03430743343978
 20
13.80317379493053
 30
15.23171412786834
 10
8.90930743343978
 20
13.80317379493053
 30
15.23171412786834
  0
SPLINE
  5
82
330
1F
100
AcDbEntity
  8
0
100
AcDbSpline
210
0.0
220
0.0
230
1.0
 70
    24
 71
     2
 72
     6
 73
     3
 74
     0
 42
0.000000001
 43
0.0000000001
 40
0.0
 40
0.0
 40
0.0
 40
1.75
 40
1.75
 40
1.75
 10
7.159307433439776
 20
13.19185527052639
 30
15.71155506186351
 10
8.034307433439777
 20
13.19185527052639
 30
15.71155506186351
 10
8.909307433439777
 20
13.19185527052639
 30
15.71155506186351
  0
SPLINE
  5
83
330
1F
100
AcDbEntity
  8
0
100
AcDbSpline
210
0.0
220
0.0
230
1.0
 70
    24
 71
     2
 72
     6
 73
     3
 74
     0
 42
0.000000001
 43
0.0000000001
 40
0.0
 40
0.0
 40
0.0
 40
1.75
 40
1.75
 40
1.75
 10
7.159307433439776
 20
12.70502946664005
 30
16.26049936022282
 10
8.034307433439775
 20
12.70502946664005
 30
16.26049936022282
 10
8.909307433439775
 20
12.70502946664005
 30
16.26049936022282
  0
SPLINE
  5
84
330
1F
100
AcDbEntity
  8
0
100
AcDbSpline
210
0.0
220
0.0
230
1.0
 70
    24
 71
     2
 72
     6
 73
     3
 74
     0
 42
0.000000001
 43
0.0000000001
 40
0.0
 40
0.0
 40
0.0
 40
1.75
 40
1.75
 40
1.75
 10
7.159307433439779
 20
12.20999267224931
 30
16.96374782424205
 10
8.03430743343978
 20
12.20999267224931
 30
16.96374782424205
 10
8.90930743343978
 20
12.20999267224931
 30
16.96374782424205
  0
SPLINE
  5
85
330
1F
100
AcDbEntity
  8
0
100
AcDbSpline
210
0.0
220
0.0
230
1.0
 70
    24
 71
     2
 72
     6
 73
     3
 74
     0
 42
0.000000001
 43
0.0000000001
 40
0.0
 40
0.0
 40
0.0
 40
1.75
 40
1.75
 40
1.75
 10
7.159307433439781
 20
11.71030987283229
 30
17.78089115648856
 10
8.034307433439782
 20
11.71030987283229
 30
17.78089115648856
 10
8.909307433439782
 20
11.71030987283229
 30
17.78089115648856
  0
SPLINE
  5
86
330
1F
100
AcDbEntity
  8
0
100
AcDbSpline
210
0.0
220
0.0
230
1.0
 70
    24
 71
     2
 72
     6
 73
     3
 74
     0
 42
0.000000001
 43
0.0000000001
 40
0.0
 40
0.0
 40
0.0
 40
1.75
 40
1.75
 40
1.75
 10
7.159307433439773
 20
11.1872633224987
 30
18.81578339038801
 10
8.034307433439773
 20
11.1872633224987
 30
18.81578339038801
 10
8.909307433439773
 20
11.1872633224987
 30
18.81578339038801
  0
SPLINE
  5
87
330
1F
100
AcDbEntity
  8
0
100
AcDbSpline
210
0.0
220
0.0
230
1.0
 70
    24
 71
     2
 72
     6
 73
     3
 74
     0
 42
0.000000001
 43
0.0000000001
 40
0.0
 40
0.0
 40
0.0
 40
1.75
 40
1.75
 40
1.75
 10
7.159307433439778
 20
10.81515136114813
 30
19.60360906510353
 10
8.034307433439778
 20
10.81515136114813
 30
19.60360906510353
 10
8.909307433439778
 20
10.81515136114813
 30
19.60360906510353
  0
SPLINE
  5
88
330
1F
100
AcDbEntity
  8
0
100
AcDbSpline
210
0.0
220
0.0
230
1.0
 70
    24
 71
     2
 72
     6
 73
     3
 74
     0
 42
0.000000001
 43
0.0000000001
 40
0.0
 40
0.0
 40
0.0
 40
1.75
 40
1.75
 40
1.75
 10
7.159307433439777
 20
10.38532766954845
 30
20.39085292170768
 10
8.034307433439777
 20
10.38532766954845
 30
20.39085292170768
 10
8.909307433439777
 20
10.38532766954845
 30
20.39085292170768
  0
SPLINE
  5
89
330
1F
100
AcDbEntity
  8
0
100
AcDbSpline
210
0.0
220
0.0
230
1.0
 70
    24
 71
     2
 72
     6
 73
     3
 74
     0
 42
0.000000001
 43
0.0000000001
 40
0.0
 40
0.0
 40
0.0
 40
1.75
 40
1.75
 40
1.75
 10
7.159307433439775
 20
9.71396376735495
 30
21.31967627221483
 10
8.034307433439775
 20
9.71396376735495
 30
21.31967627221483
 10
8.909307433439775
 20
9.71396376735495
 30
21.31967627221483
  0
SPLINE
  5
8A
330
1F
100
AcDbEntity
  8
0
100
AcDbSpline
210
0.0
220
0.0
230
1.0
 70
    24
 71
     2
 72
     6
 73
     3
 74
     0
 42
0.000000001
 43
0.0000000001
 40
0.0
 40
0.0
 40
0.0
 40
1.75
 40
1.75
 40
1.75
 10
7.159307433439777
 20
8.88349527471074
 30
22.12039284594693
 10
8.034307433439775
 20
8.88349527471074
 30
22.12039284594693
 10
8.909307433439775
 20
8.88349527471074
 30
22.12039284594693
  0
SPLINE
  5
8B
330
1F
100
AcDbEntity
  8
0
100
AcDbSpline
210
0.0
220
0.0
230
1.0
 70
    24
 71
     2
 72
     6
 73
     3
 74
     0
 42
0.000000001
 43
0.0000000001
 40
0.0
 40
0.0
 40
0.0
 40
1.75
 40
1.75
 40
1.75
 10
7.159307433439772
 20
8.10295355019085
 30
22.7038117517073
 10
8.034307433439773
 20
8.10295355019085
 30
22.7038117517073
 10
8.909307433439773
 20
8.10295355019085
 30
22.7038117517073
  0
SPLINE
  5
8C
330
1F
100
AcDbEntity
  8
0
100
AcDbSpline
210
0.0
220
0.0
230
1.0
 70
    24
 71
     2
 72
     6
 73
     3
 74
     0
 42
0.000000001
 43
0.0000000001
 40
0.0
 40
0.0
 40
0.0
 40
1.75
 40
1.75
 40
1.75
 10
7.159307433439771
 20
7.11986431142558
 30
23.27369255731485
 10
8.034307433439771
 20
7.11986431142558
 30
23.27369255731485
 10
8.909307433439771
 20
7.11986431142558
 30
23.27369255731485
  0
SPLINE
  5
8D
330
1F
100
AcDbEntity
  8
0
100
AcDbSpline
210
0.0
220
0.0
230
1.0
 70
    24
 71
     2
 72
     6
 73
     3
 74
     0
 42
0.000000001
 43
0.0000000001
 40
0.0
 40
0.0
 40
0.0
 40
1.75
 40
1.75
 40
1.75
 10
7.159307433439774
 20
6.250480478821945
 30
23.59922342301593
 10
8.034307433439775
 20
6.250480478821945
 30
23.59922342301593
 10
8.909307433439775
 20
6.250480478821945
 30
23.59922342301593
  0
SPLINE
  5
8E
330
1F
100
AcDbEntity
  8
0
100
AcDbSpline
210
0.0
220
0.0
230
1.0
 70
    24
 71
     2
 72
     6
 73
     3
 74
     0
 42
0.000000001
 43
0.0000000001
 40
0.0
 40
0.0
 40
0.0
 40
1.75
 40
1.75
 40
1.75
 10
7.159307433439775
 20
4.469615080584619
 30
23.75776113953459
 10
8.034307433439775
 20
4.469615080584619
 30
23.75776113953459
 10
8.909307433439775
 20
4.469615080584619
 30
23.75776113953459
  0
ARC
  5
8F
330
1F
100
AcDbEntity
  8
0
100
AcDbCircle
 10
15.67218489225291
 20
13.99150566120337
 30
8.034307433439775
 40
1.275387110270731
210
1.0
220
0.0
230
0.0
100
AcDbArc
 50
285.1390834735356
 51
128.8511924435763
  0
LINE
  5
90
330
1F
100
AcDbEntity
  8
0
100
AcDbLine
 10
7.159307433439777
 20
16.94757200252365
 30
13.99150566120338
 11
8.909307433439778
 21
16.94757200252365
 31
13.99150566120338
  0
LINE
  5
91
330
1F
100
AcDbEntity
  8
0
100
AcDbLine
 10
7.159307433439781
 20
15.67218489225291
 30
15.26689277147411
 11
8.909307433439778
 21
15.67218489225291
 31
15.26689277147411
  0
LINE
  5
92
330
1F
100
AcDbEntity
  8
0
100
AcDbLine
 10
8.909307433439778
 20
15.00526885559717
 30
12.7603812343449
 11
7.159307433439778
 21
15.00526885559717
 31
12.7603812343449
  0
LINE
  5
93
330
1F
100
AcDbEntity
  8
0
100
AcDbLine
 10
8.034307433439777
 20
14.00526885559718
 30
12.7603812343449
 11
8.034307433439777
 21
16.00526885559715
 31
12.7603812343449
  0
SPLINE
  5
94
330
1F
100
AcDbEntity
  8
0
100
AcDbSpline
210
1.0
220
-2.272965898665463E-15
230
-2.061556637838938E-15
 70
     8
 71
     3
 72
    24
 73
    20
 74
     0
 42
0.000000001
 43
0.0000000001
 40
0.0
 40
0.0
 40
0.0
 40
0.0
 40
1.961969429764278
 40
2.739087112764722
 40
3.476453788106062
 40
4.176181763098614
 40
4.775513185963493
 40
5.368423345000551
 40
6.045972079965189
 40
6.559894692477542
 40
7.081004931480751
 40
7.746033273097304
 40
8.30840164281085
 40
9.112238104319296
 40
9.82370594476127
 40
10.38630872511861
 40
11.00026063938757
 40
11.45430606960549
 40
13.2073143020778
 40
13.2073143020778
 40
13.2073143020778
 40
13.2073143020778
 10
8.034307433439771
 20
3.193998718969802
 30
19.51038123434491
 10
8.034307433439778
 20
3.853183784759537
 30
19.50954131063678
 10
8.034307433439778
 20
4.773465870321189
 30
19.50836870102843
 10
8.034307433439771
 20
5.891845027615361
 30
19.18521807770146
 10
8.034307433439771
 20
6.579425748206191
 30
18.91305772674953
 10
8.034307433439778
 20
7.169550095685494
 30
18.57377570305552
 10
8.034307433439782
 20
7.689609792929105
 30
18.21647240375104
 10
8.034307433439782
 20
8.176471744221544
 30
17.82627282170881
 10
8.034307433439789
 20
8.613261493283545
 30
17.42239915887204
 10
8.034307433439782
 20
9.049988809148957
 30
17.05421085202454
 10
8.034307433439782
 20
9.450366578919457
 30
16.65274048433595
 10
8.034307433439775
 20
9.87019552018829
 30
16.24830710187813
 10
8.034307433439789
 20
10.32705329874121
 30
15.74823031165192
 10
8.034307433439782
 20
10.78262712450993
 30
15.22650790349716
 10
8.034307433439775
 20
11.22495773493135
 30
14.69372376280067
 10
8.034307433439775
 20
11.64381263160793
 30
14.22290500347652
 10
8.034307433439775
 20
12.04191316356322
 30
13.85341244276135
 10
8.034307433439782
 20
12.74086209921356
 30
13.21763835498304
 10
8.034307433439789
 20
13.44555147950219
 30
12.962796125338
 10
8.034307433439782
 20
14.00526885559718
 30
12.7603812343449
  0
SPLINE
  5
95
330
1F
100
AcDbEntity
  8
0
100
AcDbSpline
210
0.0
220
0.0
230
1.0
 70
    24
 71
     2
 72
     6
 73
     3
 74
     0
 42
0.000000001
 43
0.0000000001
 40
0.0
 40
0.0
 40
0.0
 40
1.75
 40
1.75
 40
1.75
 10
7.159307433439776
 20
5.151485550209943
 30
19.37783181393515
 10
8.034307433439777
 20
5.151485550209943
 30
19.37783181393515
 10
8.909307433439777
 20
5.151485550209943
 30
19.37783181393515
  0
SPLINE
  5
96
330
1F
100
AcDbEntity
  8
0
100
AcDbSpline
210
0.0
220
0.0
230
1.0
 70
    24
 71
     2
 72
     6
 73
     3
 74
     0
 42
0.000000001
 43
0.0000000001
 40
0.0
 40
0.0
 40
0.0
 40
1.75
 40
1.75
 40
1.75
 10
7.159307433439772
 20
5.900178641686617
 30
19.16957584641662
 10
8.034307433439773
 20
5.900178641686617
 30
19.16957584641662
 10
8.909307433439773
 20
5.900178641686617
 30
19.16957584641662
  0
SPLINE
  5
97
330
1F
100
AcDbEntity
  8
0
100
AcDbSpline
210
0.0
220
0.0
230
1.0
 70
    24
 71
     2
 72
     6
 73
     3
 74
     0
 42
0.000000001
 43
0.0000000001
 40
0.0
 40
0.0
 40
0.0
 40
1.75
 40
1.75
 40
1.75
 10
7.159307433439771
 20
6.583264574956605
 30
18.89190117765367
 10
8.034307433439771
 20
6.583264574956605
 30
18.89190117765367
 10
8.909307433439771
 20
6.583264574956605
 30
18.89190117765367
  0
SPLINE
  5
98
330
1F
100
AcDbEntity
  8
0
100
AcDbSpline
210
0.0
220
0.0
230
1.0
 70
    24
 71
     2
 72
     6
 73
     3
 74
     0
 42
0.000000001
 43
0.0000000001
 40
0.0
 40
0.0
 40
0.0
 40
1.75
 40
1.75
 40
1.75
 10
7.159307433439777
 20
7.193024985609077
 30
18.54866440720491
 10
8.034307433439777
 20
7.193024985609077
 30
18.54866440720491
 10
8.909307433439777
 20
7.193024985609077
 30
18.54866440720491
  0
SPLINE
  5
99
330
1F
100
AcDbEntity
  8
0
100
AcDbSpline
210
0.0
220
0.0
230
1.0
 70
    24
 71
     2
 72
     6
 73
     3
 74
     0
 42
0.000000001
 43
0.0000000001
 40
0.0
 40
0.0
 40
0.0
 40
1.75
 40
1.75
 40
1.75
 10
7.159307433439782
 20
7.687008035965856
 30
18.20928423631472
 10
8.034307433439782
 20
7.687008035965856
 30
18.20928423631472
 10
8.909307433439782
 20
7.687008035965856
 30
18.20928423631472
  0
SPLINE
  5
9A
330
1F
100
AcDbEntity
  8
0
100
AcDbSpline
210
0.0
220
0.0
230
1.0
 70
    24
 71
     2
 72
     6
 73
     3
 74
     0
 42
0.000000001
 43
0.0000000001
 40
0.0
 40
0.0
 40
0.0
 40
1.75
 40
1.75
 40
1.75
 10
7.159307433439783
 20
8.15011717408734
 30
17.83905135976574
 10
8.034307433439784
 20
8.15011717408734
 30
17.83905135976574
 10
8.909307433439784
 20
8.15011717408734
 30
17.83905135976574
  0
SPLINE
  5
9B
330
1F
100
AcDbEntity
  8
0
100
AcDbSpline
210
0.0
220
0.0
230
1.0
 70
    24
 71
     2
 72
     6
 73
     3
 74
     0
 42
0.000000001
 43
0.0000000001
 40
0.0
 40
0.0
 40
0.0
 40
1.75
 40
1.75
 40
1.75
 10
7.159307433439787
 20
8.657254826141411
 30
17.38973667035389
 10
8.034307433439787
 20
8.657254826141411
 30
17.38973667035389
 10
8.909307433439787
 20
8.657254826141411
 30
17.38973667035389
  0
SPLINE
  5
9C
330
1F
100
AcDbEntity
  8
0
100
AcDbSpline
210
0.0
220
0.0
230
1.0
 70
    24
 71
     2
 72
     6
 73
     3
 74
     0
 42
0.000000001
 43
0.0000000001
 40
0.0
 40
0.0
 40
0.0
 40
1.75
 40
1.75
 40
1.75
 10
7.159307433439784
 20
9.043179107909301
 30
17.0503564994637
 10
8.034307433439784
 20
9.043179107909301
 30
17.0503564994637
 10
8.909307433439784
 20
9.043179107909301
 30
17.0503564994637
  0
SPLINE
  5
9D
330
1F
100
AcDbEntity
  8
0
100
AcDbSpline
210
0.0
220
0.0
230
1.0
 70
    24
 71
     2
 72
     6
 73
     3
 74
     0
 42
0.000000001
 43
0.0000000001
 40
0.0
 40
0.0
 40
0.0
 40
1.75
 40
1.75
 40
1.75
 10
7.15930743343978
 20
9.417525691530292
 30
16.68783682203187
 10
8.034307433439782
 20
9.417525691530292
 30
16.68783682203187
 10
8.909307433439782
 20
9.417525691530292
 30
16.68783682203187
  0
SPLINE
  5
9E
330
1F
100
AcDbEntity
  8
0
100
AcDbSpline
210
0.0
220
0.0
230
1.0
 70
    24
 71
     2
 72
     6
 73
     3
 74
     0
 42
0.000000001
 43
0.0000000001
 40
0.0
 40
0.0
 40
0.0
 40
1.75
 40
1.75
 40
1.75
 10
7.159307433439778
 20
9.889371328397406
 30
16.21919581857322
 10
8.034307433439778
 20
9.889371328397406
 30
16.21919581857322
 10
8.909307433439778
 20
9.889371328397406
 30
16.21919581857322
  0
SPLINE
  5
9F
330
1F
100
AcDbEntity
  8
0
100
AcDbSpline
210
0.0
220
0.0
230
1.0
 70
    24
 71
     2
 72
     6
 73
     3
 74
     0
 42
0.000000001
 43
0.0000000001
 40
0.0
 40
0.0
 40
0.0
 40
1.75
 40
1.75
 40
1.75
 10
7.159307433439785
 20
10.27143635219456
 30
15.80654039228495
 10
8.034307433439785
 20
10.27143635219456
 30
15.80654039228495
 10
8.909307433439785
 20
10.27143635219456
 30
15.80654039228495
  0
SPLINE
  5
A0
330
1F
100
AcDbEntity
  8
0
100
AcDbSpline
210
0.0
220
0.0
230
1.0
 70
    24
 71
     2
 72
     6
 73
     3
 74
     0
 42
0.000000001
 43
0.0000000001
 40
0.0
 40
0.0
 40
0.0
 40
1.75
 40
1.75
 40
1.75
 10
7.15930743343978
 20
10.80015264852273
 30
15.20105535130752
 10
8.03430743343978
 20
10.80015264852273
 30
15.20105535130752
 10
8.90930743343978
 20
10.80015264852273
 30
15.20105535130752
  0
SPLINE
  5
A1
330
1F
100
AcDbEntity
  8
0
100
AcDbSpline
210
0.0
220
0.0
230
1.0
 70
    24
 71
     2
 72
     6
 73
     3
 74
     0
 42
0.000000001
 43
0.0000000001
 40
0.0
 40
0.0
 40
0.0
 40
1.75
 40
1.75
 40
1.75
 10
7.159307433439777
 20
11.26021299027333
 30
14.65834827568431
 10
8.034307433439777
 20
11.26021299027333
 30
14.65834827568431
 10
8.909307433439777
 20
11.26021299027333
 30
14.65834827568431
  0
SPLINE
  5
A2
330
1F
100
AcDbEntity
  8
0
100
AcDbSpline
210
0.0
220
0.0
230
1.0
 70
    24
 71
     2
 72
     6
 73
     3
 74
     0
 42
0.000000001
 43
0.0000000001
 40
0.0
 40
0.0
 40
0.0
 40
1.75
 40
1.75
 40
1.75
 10
7.159307433439776
 20
11.63841883186506
 30
14.24183629524233
 10
8.034307433439775
 20
11.63841883186506
 30
14.24183629524233
 10
8.909307433439775
 20
11.63841883186506
 30
14.24183629524233
  0
SPLINE
  5
A3
330
1F
100
AcDbEntity
  8
0
100
AcDbSpline
210
0.0
220
0.0
230
1.0
 70
    24
 71
     2
 72
     6
 73
     3
 74
     0
 42
0.000000001
 43
0.0000000001
 40
0.0
 40
0.0
 40
0.0
 40
1.75
 40
1.75
 40
1.75
 10
7.159307433439776
 20
12.08223175589816
 30
13.81761107027839
 10
8.034307433439775
 20
12.08223175589816
 30
13.81761107027839
 10
8.909307433439775
 20
12.08223175589816
 30
13.81761107027839
  0
SPLINE
  5
A4
330
1F
100
AcDbEntity
  8
0
100
AcDbSpline
210
0.0
220
0.0
230
1.0
 70
    24
 71
     2
 72
     6
 73
     3
 74
     0
 42
0.000000001
 43
0.0000000001
 40
0.0
 40
0.0
 40
0.0
 40
1.75
 40
1.75
 40
1.75
 10
7.159307433439779
 20
12.42570435151852
 30
13.5206534491275
 10
8.03430743343978
 20
12.42570435151852
 30
13.5206534491275
 10
8.90930743343978
 20
12.42570435151852
 30
13.5206534491275
  0
LINE
  5
A5
330
1F
100
AcDbEntity
  8
0
100
AcDbLine
 10
7.159307433439772
 20
3.193998718969802
 30
21.63538123434491
 11
8.909307433439782
 21
3.193998718969802
 31
21.63538123434491
  0
LINE
  5
A6
330
1F
100
AcDbEntity
  8
0
100
AcDbLine
 10
8.034307433439778
 20
3.193998718969802
 30
19.51038123434491
 11
8.034307433439778
 21
3.193998718969802
 31
23.7603812343449
  0
LINE
  5
A7
330
1F
100
AcDbEntity
  8
0
100
AcDbLine
 10
8.909307433439778
 20
7.609398945152249
 30
18.26623506811524
 11
8.909307433439778
 21
11.45329576233299
 31
18.26623506811524
  0
LINE
  5
A8
330
1F
100
AcDbEntity
  8
0
100
AcDbLine
 10
8.909307433439778
 20
10.13914706034022
 30
15.95285925297652
 11
8.90930743343978
 21
10.13914706034022
 31
20.77025263994869
  0
LINE
  5
A9
330
1F
100
AcDbEntity
  8
0
100
AcDbLine
 10
7.159307433439782
 20
7.609398940375009
 30
18.26623507157732
 11
7.159307433439782
 21
11.45329576058884
 31
18.26623507157732
  0
LINE
  5
AA
330
1F
100
AcDbEntity
  8
0
100
AcDbLine
 10
7.159307433439781
 20
10.13914706034023
 30
15.95285925297651
 11
7.159307433439783
 21
10.13914706034023
 31
20.77025263994868
  0
SPLINE
  5
AB
330
1F
100
AcDbEntity
  8
0
100
AcDbSpline
210
-2.012304267119313E-15
220
-1.0
230
2.551353431873921E-15
 70
     8
 71
     3
 72
    25
 73
    21
 74
     0
 42
0.000000001
 43
0.0000000001
 40
-114.6399766093876
 40
-114.6399766093876
 40
-114.6399766093876
 40
-114.6399766093876
 40
-112.58169823495
 40
-110.7616161846782
 40
-107.8748159712324
 40
-104.8237814953214
 40
-98.346996035107
 40
-92.23216769958609
 40
-85.0647859284153
 40
-77.08231983773739
 40
-67.41848434707296
 40
-60.1571533922972
 40
-52.68200809745043
 40
-43.13072396029663
 40
-33.516444725592
 40
-25.39502646395592
 40
-15.92485526112194
 40
-8.188094727346382
 40
-2.377007516715403
 40
0.0
 40
0.0
 40
0.0
 40
0.0
 10
-7.588327275712254
 20
-1.625499999999997
 30
14.98474882657877
 10
-7.517140859040547
 20
-1.62549999999999
 30
14.93611673197313
 10
-7.382946073883343
 20
-1.625499999999997
 30
14.84573076301751
 10
-7.105705017624681
 20
-1.62549999999999
 30
14.92341069972254
 10
-6.816117200073826
 20
-1.62549999999999
 30
15.02254224553156
 10
-6.405342767231815
 20
-1.62549999999999
 30
15.31106372784538
 10
-5.898526473317231
 20
-1.625499999999997
 30
15.67887176891038
 10
-5.384367503206081
 20
-1.625499999999997
 30
16.28683522680153
 10
-4.90252810519423
 20
-1.62549999999999
 30
16.98682756468801
 10
-4.378235939592293
 20
-1.62549999999999
 30
17.83109732897582
 10
-3.939840993581663
 20
-1.625499999999998
 30
18.72685771997079
 10
-3.536470007088627
 20
-1.62549999999999
 30
19.61553328100663
 10
-3.076169712905807
 20
-1.62549999999999
 30
20.47202755116314
 10
-2.45765910212405
 20
-1.625499999999998
 30
21.34687463248688
 10
-1.658096867930157
 20
-1.625499999999991
 30
22.09888545137017
 10
-0.7843575084069904
 20
-1.625499999999998
 30
22.7461653192466
 10
0.0866915880258218
 20
-1.625499999999998
 30
23.27943746263863
 10
0.9561865845826797
 20
-1.625499999999998
 30
23.57752045235204
 10
1.573595995833899
 20
-1.625499999999998
 30
23.77208890880969
 10
4.08980871446996
 20
-1.625499999999998
 30
23.76038123434491
 10
4.08980871446996
 20
-1.625499999999998
 30
23.76038123434491
  0
SPLINE
  5
AC
330
1F
100
AcDbEntity
  8
0
100
AcDbSpline
210
0.0
220
0.0
230
1.0
 70
    24
 71
     2
 72
     6
 73
     3
 74
     0
 42
0.000000001
 43
0.0000000001
 40
0.0
 40
0.0
 40
0.0
 40
1.75
 40
1.75
 40
1.75
 10
4.08980871446996
 20
-1.625499999999998
 30
23.76038123434491
 10
4.08980871446996
 20
-0.7504999999999975
 30
23.76038123434491
 10
4.08980871446996
 20
0.1245000000000031
 30
23.76038123434491
  0
SPLINE
  5
AD
330
1F
100
AcDbEntity
  8
0
100
AcDbSpline
210
-1.985203388856929E-15
220
-1.0
230
2.649708078212447E-15
 70
     8
 71
     3
 72
    25
 73
    21
 74
     0
 42
0.000000001
 43
0.0000000001
 40
0.0
 40
0.0
 40
0.0
 40
0.0
 40
2.377007516715403
 40
8.188094727346382
 40
15.92485526112194
 40
25.39502646395592
 40
33.516444725592
 40
43.13072396029663
 40
52.68200809745043
 40
60.1571533922972
 40
67.41848434707296
 40
77.08231983773739
 40
85.0647859284153
 40
92.23216769958609
 40
98.346996035107
 40
104.8237814953214
 40
107.8748159712324
 40
110.7616161846782
 40
112.58169823495
 40
114.6399766093876
 40
114.6399766093876
 40
114.6399766093876
 40
114.6399766093876
 10
4.08980871446996
 20
0.1245000000000031
 30
23.76038123434491
 10
4.08980871446996
 20
0.1245000000000031
 30
23.76038123434491
 10
1.573595995833899
 20
0.1245000000000029
 30
23.77208890880969
 10
0.9561865845826797
 20
0.1245000000000032
 30
23.57752045235204
 10
0.0866915880258218
 20
0.1245000000000033
 30
23.27943746263863
 10
-0.7843575084069904
 20
0.1245000000000031
 30
22.7461653192466
 10
-1.658096867930157
 20
0.1245000000000101
 30
22.09888545137017
 10
-2.45765910212405
 20
0.1245000000000029
 30
21.34687463248688
 10
-3.076169712905807
 20
0.1245000000000101
 30
20.47202755116314
 10
-3.536470007088627
 20
0.1245000000000102
 30
19.61553328100663
 10
-3.939840993581663
 20
0.124500000000003
 30
18.72685771997079
 10
-4.378235939592293
 20
0.1245000000000102
 30
17.83109732897582
 10
-4.90252810519423
 20
0.1245000000000103
 30
16.98682756468801
 10
-5.384367503206081
 20
0.1245000000000032
 30
16.28683522680153
 10
-5.898526473317231
 20
0.1245000000000031
 30
15.67887176891038
 10
-6.405342767231815
 20
0.1245000000000103
 30
15.31106372784538
 10
-6.816117200073826
 20
0.1245000000000103
 30
15.02254224553156
 10
-7.105705017624681
 20
0.1245000000000104
 30
14.92341069972254
 10
-7.382946073883343
 20
0.1245000000000031
 30
14.84573076301751
 10
-7.517140859040547
 20
0.1245000000000102
 30
14.93611673197313
 10
-7.588327275712254
 20
0.1245000000000031
 30
14.98474882657877
  0
SPLINE
  5
AE
330
1F
100
AcDbEntity
  8
0
100
AcDbSpline
210
0.0
220
0.0
230
1.0
 70
    24
 71
     2
 72
     6
 73
     3
 74
     0
 42
0.000000001
 43
0.0000000001
 40
-1.75
 40
-1.75
 40
-1.75
 40
0.0
 40
0.0
 40
0.0
 10
-7.588327275712254
 20
0.1245000000000031
 30
14.98474882657877
 10
-7.588327275712254
 20
-0.7504999999999971
 30
14.98474882657877
 10
-7.588327275712254
 20
-1.625499999999997
 30
14.98474882657877
  0
ARC
  5
AF
330
1F
100
AcDbEntity
  8
0
100
AcDbCircle
 10
8.388377458813164
 20
13.99150566120339
 30
0.124500000000017
 40
1.275387110270725
210
3.032070392109788E-16
220
1.0
230
1.087097983546037E-15
100
AcDbArc
 50
285.1390834735355
 51
128.8511924435588
  0
LINE
  5
B0
330
1F
100
AcDbEntity
  8
0
100
AcDbLine
 10
-8.721461422157397
 20
0.1245000000000058
 30
12.76038123434491
 11
-8.721461422157397
 21
-1.625499999999995
 31
12.76038123434491
  0
ARC
  5
B1
330
1F
100
AcDbEntity
  8
0
100
AcDbCircle
 10
8.38837745881316
 20
13.99150566120338
 30
-1.625499999999986
 40
1.275387110270726
210
2.373614283139723E-16
220
1.0
230
8.773206895263863E-16
100
AcDbArc
 50
285.1390834735357
 51
128.8511924435586
  0
SPLINE
  5
B2
330
1F
100
AcDbEntity
  8
0
100
AcDbSpline
210
0.0
220
0.0
230
1.0
 70
    24
 71
     2
 72
     6
 73
     3
 74
     0
 42
0.000000001
 43
0.0000000001
 40
-1.999999999999971
 40
-1.999999999999971
 40
-1.999999999999971
 40
0.0
 40
0.0
 40
0.0
 10
-8.721461422157397
 20
0.1245000000000058
 30
12.76038123434491
 10
-7.721461422157411
 20
0.1245000000000056
 30
12.76038123434491
 10
-6.721461422157425
 20
0.1245000000000054
 30
12.76038123434491
  0
SPLINE
  5
B3
330
1F
100
AcDbEntity
  8
0
100
AcDbSpline
210
0.0
220
0.0
230
1.0
 70
    24
 71
     2
 72
     6
 73
     3
 74
     0
 42
0.000000001
 43
0.0000000001
 40
-1.75
 40
-1.75
 40
-1.75
 40
0.0
 40
0.0
 40
0.0
 10
-6.721461422157425
 20
0.1245000000000054
 30
12.76038123434491
 10
-6.721461422157425
 20
-0.7504999999999945
 30
12.76038123434491
 10
-6.721461422157425
 20
-1.625499999999994
 30
12.76038123434491
  0
SPLINE
  5
B4
330
1F
100
AcDbEntity
  8
0
100
AcDbSpline
210
0.0
220
0.0
230
1.0
 70
    24
 71
     2
 72
     6
 73
     3
 74
     0
 42
0.000000001
 43
0.0000000001
 40
0.0
 40
0.0
 40
0.0
 40
1.999999999999975
 40
1.999999999999975
 40
1.999999999999975
 10
-6.721461422157425
 20
-1.625499999999994
 30
12.76038123434491
 10
-7.721461422157411
 20
-1.625499999999994
 30
12.76038123434491
 10
-8.721461422157397
 20
-1.625499999999995
 30
12.76038123434491
  0
SPLINE
  5
B5
330
1F
100
AcDbEntity
  8
0
100
AcDbSpline
210
-2.300005695289584E-15
220
-1.0
230
3.124625867234320E-15
 70
     8
 71
     3
 72
    24
 73
    20
 74
     0
 42
0.000000001
 43
0.0000000001
 40
0.0
 40
0.0
 40
0.0
 40
0.0
 40
1.961969429764278
 40
2.739087112764722
 40
3.476453788106062
 40
4.176181763098614
 40
4.775513185963493
 40
5.368423345000551
 40
6.045972079965189
 40
6.559894692477542
 40
7.081004931480751
 40
7.746033273097304
 40
8.30840164281085
 40
9.112238104319296
 40
9.82370594476127
 40
10.38630872511861
 40
11.00026063938757
 40
11.45430606960549
 40
13.2073143020778
 40
13.2073143020778
 40
13.2073143020778
 40
13.2073143020778
 10
4.08980871446996
 20
-1.625499999999998
 30
19.51038123434491
 10
3.430623648680225
 20
-1.625499999999991
 30
19.50954131063678
 10
2.510341563118573
 20
-1.625499999999992
 30
19.50836870102843
 10
1.391962405824401
 20
-1.625499999999999
 30
19.18521807770146
 10
0.7043816852335709
 20
-1.625499999999999
 30
18.91305772674953
 10
0.1142573377542675
 20
-1.625499999999992
 30
18.57377570305552
 10
-0.4058023594893498
 20
-1.625499999999992
 30
18.21647240375104
 10
-0.8926643107817895
 20
-1.625499999999993
 30
17.82627282170881
 10
-1.329454059843791
 20
-1.625499999999986
 30
17.42239915887204
 10
-1.766181375709202
 20
-1.625499999999993
 30
17.05421085202454
 10
-2.166559145479702
 20
-1.625499999999993
 30
16.65274048433595
 10
-2.586388086748535
 20
-1.6255
 30
16.24830710187813
 10
-3.043245865301451
 20
-1.625499999999986
 30
15.74823031165192
 10
-3.498819691070175
 20
-1.625499999999993
 30
15.22650790349716
 10
-3.941150301491597
 20
-1.625500000000001
 30
14.69372376280067
 10
-4.360005198168174
 20
-1.625500000000001
 30
14.22290500347653
 10
-4.758105730123468
 20
-1.625500000000001
 30
13.85341244276136
 10
-5.457054665773803
 20
-1.625499999999994
 30
13.21763835498304
 10
-6.161744046062431
 20
-1.625499999999987
 30
12.962796125338
 10
-6.721461422157425
 20
-1.625499999999994
 30
12.76038123434491
  0
SPLINE
  5
B6
330
1F
100
AcDbEntity
  8
0
100
AcDbSpline
210
-2.225488558139485E-15
220
-1.0
230
3.223206698062542E-15
 70
     8
 71
     3
 72
    24
 73
    20
 74
     0
 42
0.000000001
 43
0.0000000001
 40
-13.2073143020778
 40
-13.2073143020778
 40
-13.2073143020778
 40
-13.2073143020778
 40
-11.45430606960549
 40
-11.00026063938757
 40
-10.38630872511861
 40
-9.82370594476127
 40
-9.112238104319296
 40
-8.30840164281085
 40
-7.746033273097304
 40
-7.081004931480751
 40
-6.559894692477542
 40
-6.045972079965189
 40
-5.368423345000551
 40
-4.775513185963493
 40
-4.176181763098614
 40
-3.476453788106062
 40
-2.739087112764722
 40
-1.961969429764278
 40
0.0
 40
0.0
 40
0.0
 40
0.0
 10
-6.721461422157425
 20
0.1245000000000054
 30
12.76038123434491
 10
-6.161744046062431
 20
0.1245000000000127
 30
12.962796125338
 10
-5.457054665773803
 20
0.124500000000006
 30
13.21763835498304
 10
-4.758105730123468
 20
0.1244999999999992
 30
13.85341244276136
 10
-4.360005198168174
 20
0.1244999999999993
 30
14.22290500347653
 10
-3.941150301491597
 20
0.1244999999999995
 30
14.69372376280067
 10
-3.498819691070175
 20
0.124500000000007
 30
15.22650790349716
 10
-3.043245865301451
 20
0.1245000000000143
 30
15.74823031165192
 10
-2.586388086748535
 20
0.1245000000000002
 30
16.24830710187813
 10
-2.166559145479702
 20
0.1245000000000075
 30
16.65274048433595
 10
-1.766181375709202
 20
0.1245000000000079
 30
17.05421085202454
 10
-1.329454059843791
 20
0.1245000000000151
 30
17.42239915887204
 10
-0.8926643107817895
 20
0.1245000000000082
 30
17.82627282170881
 10
-0.4058023594893498
 20
0.1245000000000086
 30
18.21647240375104
 10
0.1142573377542675
 20
0.124500000000009
 30
18.57377570305552
 10
0.7043816852335709
 20
0.124500000000002
 30
18.91305772674953
 10
1.391962405824401
 20
0.124500000000002
 30
19.18521807770146
 10
2.510341563118573
 20
0.1245000000000097
 30
19.50836870102843
 10
3.430623648680225
 20
0.1245000000000099
 30
19.50954131063678
 10
4.08980871446996
 20
0.1245000000000031
 30
19.51038123434491
  0
SPLINE
  5
B7
330
1F
100
AcDbEntity
  8
0
100
AcDbSpline
210
0.0
220
0.0
230
1.0
 70
    24
 71
     2
 72
     6
 73
     3
 74
     0
 42
0.000000001
 43
0.0000000001
 40
-1.75
 40
-1.75
 40
-1.75
 40
0.0
 40
0.0
 40
0.0
 10
4.08980871446996
 20
0.1245000000000031
 30
19.51038123434491
 10
4.08980871446996
 20
-0.7504999999999975
 30
19.51038123434491
 10
4.08980871446996
 20
-1.625499999999998
 30
19.51038123434491
  0
SPLINE
  5
B8
330
1F
100
AcDbEntity
  8
0
100
AcDbSpline
210
0.0
220
0.0
230
1.0
 70
    24
 71
     2
 72
     6
 73
     3
 74
     0
 42
0.000000001
 43
0.0000000001
 40
-4.249999999999997
 40
-4.249999999999997
 40
-4.249999999999997
 40
0.0
 40
0.0
 40
0.0
 10
4.08980871446996
 20
0.1245000000000031
 30
19.51038123434491
 10
4.08980871446996
 20
0.1245000000000031
 30
21.63538123434491
 10
4.08980871446996
 20
0.1245000000000031
 30
23.76038123434491
  0
SPLINE
  5
B9
330
1F
100
AcDbEntity
  8
0
100
AcDbSpline
210
0.0
220
0.0
230
1.0
 70
    24
 71
     2
 72
     6
 73
     3
 74
     0
 42
0.000000001
 43
0.0000000001
 40
0.0
 40
0.0
 40
0.0
 40
4.250000000000004
 40
4.250000000000004
 40
4.250000000000004
 10
4.08980871446996
 20
-1.625499999999998
 30
23.76038123434491
 10
4.08980871446996
 20
-1.625499999999998
 30
21.63538123434491
 10
4.08980871446996
 20
-1.625499999999998
 30
19.51038123434491
  0
SPLINE
  5
BA
330
1F
100
AcDbEntity
  8
0
100
AcDbSpline
210
-1.903818632649980E-15
220
-1.0
230
2.710615488651958E-15
 70
     8
 71
     3
 72
    25
 73
    21
 74
     0
 42
0.000000001
 43
0.0000000001
 40
-114.6399766093876
 40
-114.6399766093876
 40
-114.6399766093876
 40
-114.6399766093876
 40
-112.58169823495
 40
-110.7616161846782
 40
-107.8748159712324
 40
-104.8237814953214
 40
-98.346996035107
 40
-92.23216769958609
 40
-85.0647859284153
 40
-77.08231983773739
 40
-67.41848434707296
 40
-60.1571533922972
 40
-52.68200809745043
 40
-43.13072396029663
 40
-33.516444725592
 40
-25.39502646395592
 40
-15.92485526112194
 40
-8.188094727346382
 40
-2.377007516715403
 40
0.0
 40
0.0
 40
0.0
 40
0.0
 10
-7.588327275712878
 20
-0.7505000000000022
 30
14.98474882657927
 10
-7.51714085904117
 20
-0.7504999999999951
 30
14.93611673197363
 10
-7.382946073883964
 20
-0.7505000000000022
 30
14.845730763018
 10
-7.10570501762529
 20
-0.7504999999999948
 30
14.92341069972302
 10
-6.816117200074423
 20
-0.7504999999999948
 30
15.02254224553204
 10
-6.405342767232391
 20
-0.7504999999999948
 30
15.31106372784584
 10
-5.89852647331778
 20
-0.7505000000000019
 30
15.67887176891081
 10
-5.384367503206597
 20
-0.7505000000000017
 30
16.28683522680194
 10
-4.902528105194712
 20
-0.7504999999999946
 30
16.9868275646884
 10
-4.378235939592734
 20
-0.7504999999999946
 30
17.83109732897617
 10
-3.939840993582067
 20
-0.7505000000000017
 30
18.72685771997111
 10
-3.536470007088994
 20
-0.7504999999999944
 30
19.61553328100692
 10
-3.076169712906136
 20
-0.7504999999999944
 30
20.47202755116341
 10
-2.457659102124335
 20
-0.7505000000000015
 30
21.34687463248711
 10
-1.658096867930396
 20
-0.7504999999999942
 30
22.09888545137036
 10
-0.784357508407183
 20
-0.750500000000001
 30
22.74616531924675
 10
0.0866915880256727
 20
-0.7505000000000008
 30
23.27943746263875
 10
0.9561865845825679
 20
-0.7505000000000008
 30
23.57752045235213
 10
1.573595995833813
 20
-0.750500000000001
 30
23.77208890880976
 10
4.08980871446996
 20
-0.7505000000000006
 30
23.76038123434491
 10
4.08980871446996
 20
-0.7505000000000006
 30
23.76038123434491
  0
SPLINE
  5
BB
330
1F
100
AcDbEntity
  8
0
100
AcDbSpline
210
0.0
220
0.0
230
1.0
 70
    24
 71
     2
 72
     6
 73
     3
 74
     0
 42
0.000000001
 43
0.0000000001
 40
0.0
 40
0.0
 40
0.0
 40
1.75
 40
1.75
 40
1.75
 10
-7.367735319546872
 20
-1.625499999999999
 30
14.8781795764113
 10
-7.367735319546872
 20
-0.7504999999999995
 30
14.8781795764113
 10
-7.367735319546872
 20
0.1245000000000004
 30
14.8781795764113
  0
SPLINE
  5
BC
330
1F
100
AcDbEntity
  8
0
100
AcDbSpline
210
0.0
220
0.0
230
1.0
 70
    24
 71
     2
 72
     6
 73
     3
 74
     0
 42
0.000000001
 43
0.0000000001
 40
0.0
 40
0.0
 40
0.0
 40
1.75
 40
1.75
 40
1.75
 10
-7.151990623495873
 20
-1.625499999999997
 30
14.91207422730099
 10
-7.151990623495873
 20
-0.7504999999999968
 30
14.91207422730099
 10
-7.151990623495873
 20
0.124500000000003
 30
14.91207422730099
  0
SPLINE
  5
BD
330
1F
100
AcDbEntity
  8
0
100
AcDbSpline
210
0.0
220
0.0
230
1.0
 70
    24
 71
     2
 72
     6
 73
     3
 74
     0
 42
0.000000001
 43
0.0000000001
 40
0.0
 40
0.0
 40
0.0
 40
1.75
 40
1.75
 40
1.75
 10
-6.828198599418871
 20
-1.625499999999995
 30
15.03512730489936
 10
-6.828198599418871
 20
-0.7504999999999948
 30
15.03512730489936
 10
-6.828198599418871
 20
0.1245000000000049
 30
15.03512730489936
  0
SPLINE
  5
BE
330
1F
100
AcDbEntity
  8
0
100
AcDbSpline
210
0.0
220
0.0
230
1.0
 70
    24
 71
     2
 72
     6
 73
     3
 74
     0
 42
0.000000001
 43
0.0000000001
 40
0.0
 40
0.0
 40
0.0
 40
1.75
 40
1.75
 40
1.75
 10
-6.51936636149078
 20
-1.625499999999995
 30
15.23171412786834
 10
-6.51936636149078
 20
-0.7504999999999952
 30
15.23171412786834
 10
-6.51936636149078
 20
0.1245000000000045
 30
15.23171412786834
  0
SPLINE
  5
BF
330
1F
100
AcDbEntity
  8
0
100
AcDbSpline
210
0.0
220
0.0
230
1.0
 70
    24
 71
     2
 72
     6
 73
     3
 74
     0
 42
0.000000001
 43
0.0000000001
 40
0.0
 40
0.0
 40
0.0
 40
1.75
 40
1.75
 40
1.75
 10
-5.90804783708664
 20
-1.6255
 30
15.71155506186352
 10
-5.90804783708664
 20
-0.7505000000000006
 30
15.71155506186352
 10
-5.90804783708664
 20
0.1244999999999992
 30
15.71155506186352
  0
SPLINE
  5
C0
330
1F
100
AcDbEntity
  8
0
100
AcDbSpline
210
0.0
220
0.0
230
1.0
 70
    24
 71
     2
 72
     6
 73
     3
 74
     0
 42
0.000000001
 43
0.0000000001
 40
0.0
 40
0.0
 40
0.0
 40
1.75
 40
1.75
 40
1.75
 10
-5.421222033200293
 20
-1.625500000000001
 30
16.26049936022282
 10
-5.421222033200293
 20
-0.7505000000000008
 30
16.26049936022282
 10
-5.421222033200293
 20
0.1244999999999989
 30
16.26049936022282
  0
SPLINE
  5
C1
330
1F
100
AcDbEntity
  8
0
100
AcDbSpline
210
0.0
220
0.0
230
1.0
 70
    24
 71
     2
 72
     6
 73
     3
 74
     0
 42
0.000000001
 43
0.0000000001
 40
0.0
 40
0.0
 40
0.0
 40
1.75
 40
1.75
 40
1.75
 10
-4.926185238809561
 20
-1.625499999999996
 30
16.96374782424205
 10
-4.926185238809561
 20
-0.7504999999999961
 30
16.96374782424205
 10
-4.926185238809561
 20
0.1245000000000037
 30
16.96374782424205
  0
SPLINE
  5
C2
330
1F
100
AcDbEntity
  8
0
100
AcDbSpline
210
0.0
220
0.0
230
1.0
 70
    24
 71
     2
 72
     6
 73
     3
 74
     0
 42
0.000000001
 43
0.0000000001
 40
0.0
 40
0.0
 40
0.0
 40
1.75
 40
1.75
 40
1.75
 10
-4.426502439392531
 20
-1.625499999999996
 30
17.78089115648856
 10
-4.426502439392531
 20
-0.7504999999999957
 30
17.78089115648856
 10
-4.426502439392531
 20
0.1245000000000041
 30
17.78089115648856
  0
SPLINE
  5
C3
330
1F
100
AcDbEntity
  8
0
100
AcDbSpline
210
0.0
220
0.0
230
1.0
 70
    24
 71
     2
 72
     6
 73
     3
 74
     0
 42
0.000000001
 43
0.0000000001
 40
0.0
 40
0.0
 40
0.0
 40
1.75
 40
1.75
 40
1.75
 10
-3.903455889058938
 20
-1.625499999999999
 30
18.81578339038801
 10
-3.903455889058938
 20
-0.7504999999999992
 30
18.81578339038801
 10
-3.903455889058938
 20
0.1245000000000006
 30
18.81578339038801
  0
SPLINE
  5
C4
330
1F
100
AcDbEntity
  8
0
100
AcDbSpline
210
0.0
220
0.0
230
1.0
 70
    24
 71
     2
 72
     6
 73
     3
 74
     0
 42
0.000000001
 43
0.0000000001
 40
0.0
 40
0.0
 40
0.0
 40
1.75
 40
1.75
 40
1.75
 10
-3.531343927708366
 20
-1.625499999999995
 30
19.60360906510353
 10
-3.531343927708366
 20
-0.7504999999999955
 30
19.60360906510353
 10
-3.531343927708366
 20
0.1245000000000042
 30
19.60360906510353
  0
SPLINE
  5
C5
330
1F
100
AcDbEntity
  8
0
100
AcDbSpline
210
0.0
220
0.0
230
1.0
 70
    24
 71
     2
 72
     6
 73
     3
 74
     0
 42
0.000000001
 43
0.0000000001
 40
0.0
 40
0.0
 40
0.0
 40
1.75
 40
1.75
 40
1.75
 10
-3.101520236108689
 20
-1.625499999999995
 30
20.39085292170768
 10
-3.101520236108689
 20
-0.7504999999999953
 30
20.39085292170768
 10
-3.101520236108689
 20
0.1245000000000045
 30
20.39085292170768
  0
SPLINE
  5
C6
330
1F
100
AcDbEntity
  8
0
100
AcDbSpline
210
0.0
220
0.0
230
1.0
 70
    24
 71
     2
 72
     6
 73
     3
 74
     0
 42
0.000000001
 43
0.0000000001
 40
0.0
 40
0.0
 40
0.0
 40
1.75
 40
1.75
 40
1.75
 10
-2.430156333915186
 20
-1.625499999999999
 30
21.31967627221483
 10
-2.430156333915186
 20
-0.750499999999999
 30
21.31967627221483
 10
-2.430156333915186
 20
0.1245000000000009
 30
21.31967627221483
  0
SPLINE
  5
C7
330
1F
100
AcDbEntity
  8
0
100
AcDbSpline
210
0.0
220
0.0
230
1.0
 70
    24
 71
     2
 72
     6
 73
     3
 74
     0
 42
0.000000001
 43
0.0000000001
 40
0.0
 40
0.0
 40
0.0
 40
1.75
 40
1.75
 40
1.75
 10
-1.599687841270977
 20
-1.625499999999996
 30
22.12039284594694
 10
-1.599687841270977
 20
-0.7504999999999964
 30
22.12039284594694
 10
-1.599687841270977
 20
0.1245000000000033
 30
22.12039284594694
  0
SPLINE
  5
C8
330
1F
100
AcDbEntity
  8
0
100
AcDbSpline
210
0.0
220
0.0
230
1.0
 70
    24
 71
     2
 72
     6
 73
     3
 74
     0
 42
0.000000001
 43
0.0000000001
 40
0.0
 40
0.0
 40
0.0
 40
1.75
 40
1.75
 40
1.75
 10
-0.8191461167510878
 20
-1.6255
 30
22.7038117517073
 10
-0.8191461167510878
 20
-0.7504999999999997
 30
22.7038117517073
 10
-0.8191461167510878
 20
0.1245000000000001
 30
22.7038117517073
  0
SPLINE
  5
C9
330
1F
100
AcDbEntity
  8
0
100
AcDbSpline
210
0.0
220
0.0
230
1.0
 70
    24
 71
     2
 72
     6
 73
     3
 74
     0
 42
0.000000001
 43
0.0000000001
 40
0.0
 40
0.0
 40
0.0
 40
1.75
 40
1.75
 40
1.75
 10
0.1639431220141814
 20
-1.625500000000001
 30
23.27369255731486
 10
0.1639431220141814
 20
-0.7505000000000008
 30
23.27369255731486
 10
0.1639431220141814
 20
0.1244999999999989
 30
23.27369255731486
  0
SPLINE
  5
CA
330
1F
100
AcDbEntity
  8
0
100
AcDbSpline
210
0.0
220
0.0
230
1.0
 70
    24
 71
     2
 72
     6
 73
     3
 74
     0
 42
0.000000001
 43
0.0000000001
 40
0.0
 40
0.0
 40
0.0
 40
1.75
 40
1.75
 40
1.75
 10
1.033326954617816
 20
-1.625500000000001
 30
23.59922342301594
 10
1.033326954617816
 20
-0.7505000000000009
 30
23.59922342301594
 10
1.033326954617816
 20
0.1244999999999989
 30
23.59922342301594
  0
SPLINE
  5
CB
330
1F
100
AcDbEntity
  8
0
100
AcDbSpline
210
0.0
220
0.0
230
1.0
 70
    24
 71
     2
 72
     6
 73
     3
 74
     0
 42
0.000000001
 43
0.0000000001
 40
0.0
 40
0.0
 40
0.0
 40
1.75
 40
1.75
 40
1.75
 10
2.814192352855143
 20
-1.625500000000001
 30
23.75776113953459
 10
2.814192352855143
 20
-0.7505000000000008
 30
23.75776113953459
 10
2.814192352855143
 20
0.1244999999999989
 30
23.75776113953459
  0
ARC
  5
CC
330
1F
100
AcDbEntity
  8
0
100
AcDbCircle
 10
8.38837745881316
 20
13.99150566120338
 30
-0.7504999999999943
 40
1.27538711027073
210
0.0
220
1.0
230
0.0
100
AcDbArc
 50
285.1390834735357
 51
128.8511924435763
  0
LINE
  5
CD
330
1F
100
AcDbEntity
  8
0
100
AcDbLine
 10
-9.66376456908389
 20
-1.625499999999995
 30
13.99150566120338
 11
-9.66376456908389
 21
0.124500000000006
 31
13.99150566120338
  0
LINE
  5
CE
330
1F
100
AcDbEntity
  8
0
100
AcDbLine
 10
-8.38837745881316
 20
-1.625499999999995
 30
15.26689277147411
 11
-8.38837745881316
 21
0.124500000000006
 31
15.26689277147411
  0
LINE
  5
CF
330
1F
100
AcDbEntity
  8
0
100
AcDbLine
 10
-7.721461422157411
 20
0.1245000000000059
 30
12.76038123434491
 11
-7.721461422157411
 21
-1.625499999999995
 31
12.76038123434491
  0
LINE
  5
D0
330
1F
100
AcDbEntity
  8
0
100
AcDbLine
 10
-6.721461422157425
 20
-0.7504999999999945
 30
12.76038123434491
 11
-8.721461422157397
 21
-0.7504999999999945
 31
12.76038123434491
  0
SPLINE
  5
D1
330
1F
100
AcDbEntity
  8
0
100
AcDbSpline
210
-2.457087352177157E-15
220
-1.0
230
3.080159316389177E-15
 70
     8
 71
     3
 72
    24
 73
    20
 74
     0
 42
0.000000001
 43
0.0000000001
 40
0.0
 40
0.0
 40
0.0
 40
0.0
 40
1.961969429764278
 40
2.739087112764722
 40
3.476453788106062
 40
4.176181763098614
 40
4.775513185963493
 40
5.368423345000551
 40
6.045972079965189
 40
6.559894692477542
 40
7.081004931480751
 40
7.746033273097304
 40
8.30840164281085
 40
9.112238104319296
 40
9.82370594476127
 40
10.38630872511861
 40
11.00026063938757
 40
11.45430606960549
 40
13.2073143020778
 40
13.2073143020778
 40
13.2073143020778
 40
13.2073143020778
 10
4.08980871446996
 20
-0.7505000000000006
 30
19.51038123434491
 10
3.430623648680225
 20
-0.7504999999999937
 30
19.50954131063678
 10
2.510341563118573
 20
-0.7504999999999937
 30
19.50836870102843
 10
1.391962405824401
 20
-0.750500000000001
 30
19.18521807770146
 10
0.7043816852335709
 20
-0.7505000000000008
 30
18.91305772674953
 10
0.1142573377542675
 20
-0.7504999999999937
 30
18.57377570305552
 10
-0.4058023594893498
 20
-0.750499999999994
 30
18.21647240375104
 10
-0.8926643107817895
 20
-0.7504999999999942
 30
17.82627282170881
 10
-1.329454059843791
 20
-0.7504999999999871
 30
17.42239915887204
 10
-1.766181375709202
 20
-0.7504999999999942
 30
17.05421085202454
 10
-2.166559145479702
 20
-0.7504999999999944
 30
16.65274048433595
 10
-2.586388086748535
 20
-0.7505000000000015
 30
16.24830710187813
 10
-3.043245865301451
 20
-0.7504999999999873
 30
15.74823031165192
 10
-3.498819691070175
 20
-0.7504999999999944
 30
15.22650790349716
 10
-3.941150301491597
 20
-0.7505000000000017
 30
14.69372376280067
 10
-4.360005198168174
 20
-0.7505000000000017
 30
14.22290500347653
 10
-4.758105730123468
 20
-0.7505000000000017
 30
13.85341244276136
 10
-5.457054665773803
 20
-0.7504999999999946
 30
13.21763835498304
 10
-6.161744046062431
 20
-0.7504999999999877
 30
12.962796125338
 10
-6.721461422157425
 20
-0.7504999999999948
 30
12.76038123434491
  0
SPLINE
  5
D2
330
1F
100
AcDbEntity
  8
0
100
AcDbSpline
210
0.0
220
0.0
230
1.0
 70
    24
 71
     2
 72
     6
 73
     3
 74
     0
 42
0.000000001
 43
0.0000000001
 40
0.0
 40
0.0
 40
0.0
 40
1.75
 40
1.75
 40
1.75
 10
2.13232188322982
 20
-1.625499999999997
 30
19.37783181393515
 10
2.13232188322982
 20
-0.7504999999999967
 30
19.37783181393515
 10
2.13232188322982
 20
0.1245000000000031
 30
19.37783181393515
  0
SPLINE
  5
D3
330
1F
100
AcDbEntity
  8
0
100
AcDbSpline
210
0.0
220
0.0
230
1.0
 70
    24
 71
     2
 72
     6
 73
     3
 74
     0
 42
0.000000001
 43
0.0000000001
 40
0.0
 40
0.0
 40
0.0
 40
1.75
 40
1.75
 40
1.75
 10
1.383628791753146
 20
-1.6255
 30
19.16957584641662
 10
1.383628791753146
 20
-0.7505000000000004
 30
19.16957584641662
 10
1.383628791753146
 20
0.1244999999999996
 30
19.16957584641662
  0
SPLINE
  5
D4
330
1F
100
AcDbEntity
  8
0
100
AcDbSpline
210
0.0
220
0.0
230
1.0
 70
    24
 71
     2
 72
     6
 73
     3
 74
     0
 42
0.000000001
 43
0.0000000001
 40
0.0
 40
0.0
 40
0.0
 40
1.75
 40
1.75
 40
1.75
 10
0.7005428584831572
 20
-1.625499999999999
 30
18.89190117765367
 10
0.7005428584831572
 20
-0.7504999999999995
 30
18.89190117765367
 10
0.7005428584831572
 20
0.1245000000000002
 30
18.89190117765367
  0
SPLINE
  5
D5
330
1F
100
AcDbEntity
  8
0
100
AcDbSpline
210
0.0
220
0.0
230
1.0
 70
    24
 71
     2
 72
     6
 73
     3
 74
     0
 42
0.000000001
 43
0.0000000001
 40
0.0
 40
0.0
 40
0.0
 40
1.75
 40
1.75
 40
1.75
 10
0.0907824478306818
 20
-1.625499999999994
 30
18.54866440720491
 10
0.0907824478306818
 20
-0.7504999999999947
 30
18.54866440720491
 10
0.0907824478306818
 20
0.124500000000005
 30
18.54866440720491
  0
SPLINE
  5
D6
330
1F
100
AcDbEntity
  8
0
100
AcDbSpline
210
0.0
220
0.0
230
1.0
 70
    24
 71
     2
 72
     6
 73
     3
 74
     0
 42
0.000000001
 43
0.0000000001
 40
0.0
 40
0.0
 40
0.0
 40
1.75
 40
1.75
 40
1.75
 10
-0.4032006025260999
 20
-1.625499999999994
 30
18.20928423631472
 10
-0.4032006025260999
 20
-0.7504999999999941
 30
18.20928423631472
 10
-0.4032006025260999
 20
0.1245000000000058
 30
18.20928423631472
  0
SPLINE
  5
D7
330
1F
100
AcDbEntity
  8
0
100
AcDbSpline
210
0.0
220
0.0
230
1.0
 70
    24
 71
     2
 72
     6
 73
     3
 74
     0
 42
0.000000001
 43
0.0000000001
 40
0.0
 40
0.0
 40
0.0
 40
1.75
 40
1.75
 40
1.75
 10
-0.866309740647585
 20
-1.625499999999993
 30
17.83905135976574
 10
-0.866309740647585
 20
-0.7504999999999931
 30
17.83905135976574
 10
-0.866309740647585
 20
0.1245000000000067
 30
17.83905135976574
  0
SPLINE
  5
D8
330
1F
100
AcDbEntity
  8
0
100
AcDbSpline
210
0.0
220
0.0
230
1.0
 70
    24
 71
     2
 72
     6
 73
     3
 74
     0
 42
0.000000001
 43
0.0000000001
 40
0.0
 40
0.0
 40
0.0
 40
1.75
 40
1.75
 40
1.75
 10
-1.373447392701656
 20
-1.625499999999989
 30
17.38973667035389
 10
-1.373447392701656
 20
-0.7504999999999895
 30
17.38973667035389
 10
-1.373447392701656
 20
0.1245000000000102
 30
17.38973667035389
  0
SPLINE
  5
D9
330
1F
100
AcDbEntity
  8
0
100
AcDbSpline
210
0.0
220
0.0
230
1.0
 70
    24
 71
     2
 72
     6
 73
     3
 74
     0
 42
0.000000001
 43
0.0000000001
 40
0.0
 40
0.0
 40
0.0
 40
1.75
 40
1.75
 40
1.75
 10
-1.759371674469547
 20
-1.625499999999993
 30
17.0503564994637
 10
-1.759371674469547
 20
-0.7504999999999932
 30
17.0503564994637
 10
-1.759371674469547
 20
0.1245000000000067
 30
17.0503564994637
  0
SPLINE
  5
DA
330
1F
100
AcDbEntity
  8
0
100
AcDbSpline
210
0.0
220
0.0
230
1.0
 70
    24
 71
     2
 72
     6
 73
     3
 74
     0
 42
0.000000001
 43
0.0000000001
 40
0.0
 40
0.0
 40
0.0
 40
1.75
 40
1.75
 40
1.75
 10
-2.133718258090537
 20
-1.625499999999995
 30
16.68783682203187
 10
-2.133718258090537
 20
-0.7504999999999953
 30
16.68783682203187
 10
-2.133718258090537
 20
0.1245000000000045
 30
16.68783682203187
  0
SPLINE
  5
DB
330
1F
100
AcDbEntity
  8
0
100
AcDbSpline
210
0.0
220
0.0
230
1.0
 70
    24
 71
     2
 72
     6
 73
     3
 74
     0
 42
0.000000001
 43
0.0000000001
 40
0.0
 40
0.0
 40
0.0
 40
1.75
 40
1.75
 40
1.75
 10
-2.605563894957653
 20
-1.625499999999998
 30
16.21919581857322
 10
-2.605563894957653
 20
-0.7504999999999978
 30
16.21919581857322
 10
-2.605563894957653
 20
0.1245000000000018
 30
16.21919581857322
  0
SPLINE
  5
DC
330
1F
100
AcDbEntity
  8
0
100
AcDbSpline
210
0.0
220
0.0
230
1.0
 70
    24
 71
     2
 72
     6
 73
     3
 74
     0
 42
0.000000001
 43
0.0000000001
 40
0.0
 40
0.0
 40
0.0
 40
1.75
 40
1.75
 40
1.75
 10
-2.987628918754807
 20
-1.625499999999991
 30
15.80654039228495
 10
-2.987628918754807
 20
-0.7504999999999914
 30
15.80654039228495
 10
-2.987628918754807
 20
0.1245000000000084
 30
15.80654039228495
  0
SPLINE
  5
DD
330
1F
100
AcDbEntity
  8
0
100
AcDbSpline
210
0.0
220
0.0
230
1.0
 70
    24
 71
     2
 72
     6
 73
     3
 74
     0
 42
0.000000001
 43
0.0000000001
 40
0.0
 40
0.0
 40
0.0
 40
1.75
 40
1.75
 40
1.75
 10
-3.516345215082978
 20
-1.625499999999994
 30
15.20105535130752
 10
-3.516345215082978
 20
-0.7504999999999947
 30
15.20105535130752
 10
-3.516345215082978
 20
0.124500000000005
 30
15.20105535130752
  0
SPLINE
  5
DE
330
1F
100
AcDbEntity
  8
0
100
AcDbSpline
210
0.0
220
0.0
230
1.0
 70
    24
 71
     2
 72
     6
 73
     3
 74
     0
 42
0.000000001
 43
0.0000000001
 40
0.0
 40
0.0
 40
0.0
 40
1.75
 40
1.75
 40
1.75
 10
-3.976405556833574
 20
-1.625500000000001
 30
14.65834827568431
 10
-3.976405556833574
 20
-0.7505000000000008
 30
14.65834827568431
 10
-3.976405556833574
 20
0.1244999999999989
 30
14.65834827568431
  0
SPLINE
  5
DF
330
1F
100
AcDbEntity
  8
0
100
AcDbSpline
210
0.0
220
0.0
230
1.0
 70
    24
 71
     2
 72
     6
 73
     3
 74
     0
 42
0.000000001
 43
0.0000000001
 40
0.0
 40
0.0
 40
0.0
 40
1.75
 40
1.75
 40
1.75
 10
-4.354611398425311
 20
-1.625500000000001
 30
14.24183629524234
 10
-4.354611398425311
 20
-0.7505000000000017
 30
14.24183629524234
 10
-4.354611398425311
 20
0.1244999999999981
 30
14.24183629524234
  0
SPLINE
  5
E0
330
1F
100
AcDbEntity
  8
0
100
AcDbSpline
210
0.0
220
0.0
230
1.0
 70
    24
 71
     2
 72
     6
 73
     3
 74
     0
 42
0.000000001
 43
0.0000000001
 40
0.0
 40
0.0
 40
0.0
 40
1.75
 40
1.75
 40
1.75
 10
-4.798424322458407
 20
-1.625500000000001
 30
13.81761107027839
 10
-4.798424322458407
 20
-0.7505000000000008
 30
13.81761107027839
 10
-4.798424322458407
 20
0.1244999999999989
 30
13.81761107027839
  0
SPLINE
  5
E1
330
1F
100
AcDbEntity
  8
0
100
AcDbSpline
210
0.0
220
0.0
230
1.0
 70
    24
 71
     2
 72
     6
 73
     3
 74
     0
 42
0.000000001
 43
0.0000000001
 40
0.0
 40
0.0
 40
0.0
 40
1.75
 40
1.75
 40
1.75
 10
-5.14189691807876
 20
-1.625499999999998
 30
13.52065344912751
 10
-5.14189691807876
 20
-0.7504999999999978
 30
13.52065344912751
 10
-5.14189691807876
 20
0.124500000000002
 30
13.52065344912751
  0
LINE
  5
E2
330
1F
100
AcDbEntity
  8
0
100
AcDbLine
 10
4.08980871446996
 20
-1.6255
 30
21.63538123434491
 11
4.08980871446996
 21
0.1245000000000052
 31
21.63538123434491
  0
LINE
  5
E3
330
1F
100
AcDbEntity
  8
0
100
AcDbLine
 10
4.08980871446996
 20
-0.7504999999999976
 30
19.51038123434491
 11
4.089808714469961
 21
-0.7504999999999976
 31
23.7603812343449
  0
LINE
  5
E4
330
1F
100
AcDbEntity
  8
0
100
AcDbLine
 10
-0.3255915117124855
 20
0.1245000000000054
 30
18.26623506811525
 11
-4.169488328893232
 21
0.1245000000000054
 31
18.26623506811525
  0
LINE
  5
E5
330
1F
100
AcDbEntity
  8
0
100
AcDbLine
 10
-2.855339626900466
 20
0.1245000000000054
 30
15.95285925297652
 11
-2.855339626900465
 21
0.1245000000000054
 31
20.77025263994869
  0
LINE
  5
E6
330
1F
100
AcDbEntity
  8
0
100
AcDbLine
 10
-0.3255915069352424
 20
-1.625499999999994
 30
18.26623507157733
 11
-4.169488327149077
 21
-1.625499999999994
 31
18.26623507157733
  0
LINE
  5
E7
330
1F
100
AcDbEntity
  8
0
100
AcDbLine
 10
-2.85533962690047
 20
-1.625499999999994
 30
15.95285925297652
 11
-2.855339626900468
 21
-1.625499999999994
 31
20.77025263994868
  0
SPLINE
  5
E8
330
1F
100
AcDbEntity
  8
0
100
AcDbSpline
210
1.0
220
-1.913865978752116E-15
230
2.344449877964671E-15
 70
     8
 71
     3
 72
    25
 73
    21
 74
     0
 42
0.000000001
 43
0.0000000001
 40
-114.6399766093876
 40
-114.6399766093876
 40
-114.6399766093876
 40
-114.6399766093876
 40
-112.58169823495
 40
-110.7616161846782
 40
-107.8748159712324
 40
-104.8237814953214
 40
-98.346996035107
 40
-92.23216769958609
 40
-85.0647859284153
 40
-77.08231983773739
 40
-67.41848434707296
 40
-60.1571533922972
 40
-52.68200809745043
 40
-43.13072396029663
 40
-33.516444725592
 40
-25.39502646395592
 40
-15.92485526112194
 40
-8.188094727346382
 40
-2.377007516715403
 40
0.0
 40
0.0
 40
0.0
 40
0.0
 10
8.909307433439759
 20
-16.37313470915202
 30
14.98474882657877
 10
8.909307433439752
 20
-16.30194829248031
 30
14.93611673197313
 10
8.909307433439759
 20
-16.16775350732311
 30
14.8457307630175
 10
8.909307433439752
 20
-15.89051245106445
 30
14.92341069972254
 10
8.909307433439752
 20
-15.60092463351359
 30
15.02254224553156
 10
8.909307433439752
 20
-15.19015020067158
 30
15.31106372784538
 10
8.909307433439759
 20
-14.683333906757
 30
15.67887176891037
 10
8.90930743343976
 20
-14.16917493664585
 30
16.28683522680153
 10
8.909307433439754
 20
-13.687335538634
 30
16.98682756468802
 10
8.909307433439752
 20
-13.16304337303206
 30
17.83109732897582
 10
8.909307433439759
 20
-12.72464842702144
 30
18.72685771997079
 10
8.909307433439752
 20
-12.3212774405284
 30
19.61553328100663
 10
8.909307433439752
 20
-11.86097714634558
 30
20.47202755116315
 10
8.90930743343976
 20
-11.24246653556383
 30
21.34687463248689
 10
8.909307433439754
 20
-10.44290430136993
 30
22.09888545137016
 10
8.90930743343976
 20
-9.569164941846763
 30
22.74616531924659
 10
8.909307433439759
 20
-8.698115845413952
 30
23.27943746263862
 10
8.909307433439759
 20
-7.828620848857094
 30
23.57752045235203
 10
8.90930743343976
 20
-7.211211437605875
 30
23.77208890880968
 10
8.90930743343976
 20
-4.694998718969813
 30
23.76038123434491
 10
8.90930743343976
 20
-4.694998718969813
 30
23.76038123434491
  0
SPLINE
  5
E9
330
1F
100
AcDbEntity
  8
0
100
AcDbSpline
210
0.0
220
0.0
230
1.0
 70
    24
 71
     2
 72
     6
 73
     3
 74
     0
 42
0.000000001
 43
0.0000000001
 40
0.0
 40
0.0
 40
0.0
 40
1.75
 40
1.75
 40
1.75
 10
8.90930743343976
 20
-4.694998718969813
 30
23.76038123434491
 10
8.03430743343976
 20
-4.694998718969813
 30
23.76038123434491
 10
7.159307433439759
 20
-4.694998718969813
 30
23.76038123434491
  0
SPLINE
  5
EA
330
1F
100
AcDbEntity
  8
0
100
AcDbSpline
210
1.0
220
-2.164985372721114E-15
230
2.678625957394211E-15
 70
     8
 71
     3
 72
    25
 73
    21
 74
     0
 42
0.000000001
 43
0.0000000001
 40
0.0
 40
0.0
 40
0.0
 40
0.0
 40
2.377007516715403
 40
8.188094727346382
 40
15.92485526112194
 40
25.39502646395592
 40
33.516444725592
 40
43.13072396029663
 40
52.68200809745043
 40
60.1571533922972
 40
67.41848434707296
 40
77.08231983773739
 40
85.0647859284153
 40
92.23216769958609
 40
98.346996035107
 40
104.8237814953214
 40
107.8748159712324
 40
110.7616161846782
 40
112.58169823495
 40
114.6399766093876
 40
114.6399766093876
 40
114.6399766093876
 40
114.6399766093876
 10
7.159307433439759
 20
-4.694998718969813
 30
23.76038123434491
 10
7.159307433439759
 20
-4.694998718969813
 30
23.76038123434491
 10
7.159307433439759
 20
-7.211211437605875
 30
23.77208890880968
 10
7.159307433439759
 20
-7.828620848857094
 30
23.57752045235203
 10
7.159307433439758
 20
-8.698115845413952
 30
23.27943746263862
 10
7.159307433439759
 20
-9.569164941846763
 30
22.74616531924659
 10
7.159307433439751
 20
-10.44290430136993
 30
22.09888545137016
 10
7.159307433439758
 20
-11.24246653556383
 30
21.34687463248689
 10
7.159307433439751
 20
-11.86097714634558
 30
20.47202755116315
 10
7.159307433439751
 20
-12.3212774405284
 30
19.61553328100663
 10
7.159307433439758
 20
-12.72464842702144
 30
18.72685771997079
 10
7.15930743343975
 20
-13.16304337303206
 30
17.83109732897582
 10
7.159307433439751
 20
-13.687335538634
 30
16.98682756468802
 10
7.159307433439757
 20
-14.16917493664585
 30
16.28683522680153
 10
7.159307433439757
 20
-14.683333906757
 30
15.67887176891037
 10
7.159307433439751
 20
-15.19015020067158
 30
15.31106372784538
 10
7.15930743343975
 20
-15.60092463351359
 30
15.02254224553156
 10
7.15930743343975
 20
-15.89051245106445
 30
14.92341069972254
 10
7.159307433439757
 20
-16.16775350732311
 30
14.8457307630175
 10
7.15930743343975
 20
-16.30194829248031
 30
14.93611673197313
 10
7.159307433439757
 20
-16.37313470915202
 30
14.98474882657877
  0
SPLINE
  5
EB
330
1F
100
AcDbEntity
  8
0
100
AcDbSpline
210
0.0
220
0.0
230
1.0
 70
    24
 71
     2
 72
     6
 73
     3
 74
     0
 42
0.000000001
 43
0.0000000001
 40
-1.75
 40
-1.75
 40
-1.75
 40
0.0
 40
0.0
 40
0.0
 10
7.159307433439757
 20
-16.37313470915202
 30
14.98474882657877
 10
8.034307433439757
 20
-16.37313470915202
 30
14.98474882657877
 10
8.909307433439759
 20
-16.37313470915202
 30
14.98474882657877
  0
ARC
  5
EC
330
1F
100
AcDbEntity
  8
0
100
AcDbCircle
 10
-17.17318489225293
 20
13.9915056612034
 30
7.159307433439735
 40
1.275387110270731
210
1.0
220
-1.059482877463923E-15
230
-2.654638177695515E-15
100
AcDbArc
 50
51.14880755644111
 51
254.8609165264647
  0
LINE
  5
ED
330
1F
100
AcDbEntity
  8
0
100
AcDbLine
 10
7.159307433439752
 20
-17.50626885559716
 30
12.7603812343449
 11
8.909307433439754
 21
-17.50626885559716
 31
12.7603812343449
  0
ARC
  5
EE
330
1F
100
AcDbEntity
  8
0
100
AcDbCircle
 10
-17.17318489225292
 20
13.9915056612034
 30
8.909307433439741
 40
1.275387110270726
210
1.0
220
-1.230094235054173E-15
230
-2.567725584771646E-15
100
AcDbArc
 50
51.14880755644135
 51
254.8609165264643
  0
SPLINE
  5
EF
330
1F
100
AcDbEntity
  8
0
100
AcDbSpline
210
0.0
220
0.0
230
1.0
 70
    24
 71
     2
 72
     6
 73
     3
 74
     0
 42
0.000000001
 43
0.0000000001
 40
-1.999999999999971
 40
-1.999999999999971
 40
-1.999999999999971
 40
0.0
 40
0.0
 40
0.0
 10
7.159307433439752
 20
-17.50626885559716
 30
12.7603812343449
 10
7.159307433439752
 20
-16.50626885559718
 30
12.7603812343449
 10
7.159307433439751
 20
-15.50626885559719
 30
12.76038123434491
  0
SPLINE
  5
F0
330
1F
100
AcDbEntity
  8
0
100
AcDbSpline
210
0.0
220
0.0
230
1.0
 70
    24
 71
     2
 72
     6
 73
     3
 74
     0
 42
0.000000001
 43
0.0000000001
 40
-1.75
 40
-1.75
 40
-1.75
 40
0.0
 40
0.0
 40
0.0
 10
7.159307433439751
 20
-15.50626885559719
 30
12.76038123434491
 10
8.034307433439752
 20
-15.50626885559719
 30
12.76038123434491
 10
8.909307433439752
 20
-15.50626885559719
 30
12.76038123434491
  0
SPLINE
  5
F1
330
1F
100
AcDbEntity
  8
0
100
AcDbSpline
210
0.0
220
0.0
230
1.0
 70
    24
 71
     2
 72
     6
 73
     3
 74
     0
 42
0.000000001
 43
0.0000000001
 40
0.0
 40
0.0
 40
0.0
 40
1.999999999999971
 40
1.999999999999971
 40
1.999999999999971
 10
8.909307433439752
 20
-15.50626885559719
 30
12.76038123434491
 10
8.909307433439754
 20
-16.50626885559718
 30
12.7603812343449
 10
8.909307433439754
 20
-17.50626885559716
 30
12.7603812343449
  0
SPLINE
  5
F2
330
1F
100
AcDbEntity
  8
0
100
AcDbSpline
210
1.0
220
-1.654938738565929E-15
230
1.334845268919164E-15
 70
     8
 71
     3
 72
    24
 73
    20
 74
     0
 42
0.000000001
 43
0.0000000001
 40
0.0
 40
0.0
 40
0.0
 40
0.0
 40
1.961969429764278
 40
2.739087112764722
 40
3.476453788106062
 40
4.176181763098614
 40
4.775513185963493
 40
5.368423345000551
 40
6.045972079965189
 40
6.559894692477542
 40
7.081004931480751
 40
7.746033273097304
 40
8.30840164281085
 40
9.112238104319296
 40
9.82370594476127
 40
10.38630872511861
 40
11.00026063938757
 40
11.45430606960549
 40
13.2073143020778
 40
13.2073143020778
 40
13.2073143020778
 40
13.2073143020778
 10
8.90930743343976
 20
-4.694998718969813
 30
19.51038123434491
 10
8.909307433439754
 20
-5.354183784759549
 30
19.50954131063678
 10
8.909307433439754
 20
-6.274465870321201
 30
19.50836870102843
 10
8.90930743343976
 20
-7.392845027615373
 30
19.18521807770146
 10
8.909307433439762
 20
-8.080425748206203
 30
18.91305772674953
 10
8.909307433439755
 20
-8.670550095685506
 30
18.57377570305552
 10
8.909307433439755
 20
-9.190609792929116
 30
18.21647240375104
 10
8.909307433439755
 20
-9.677471744221556
 30
17.82627282170881
 10
8.909307433439748
 20
-10.11426149328356
 30
17.42239915887204
 10
8.909307433439755
 20
-10.55098880914897
 30
17.05421085202454
 10
8.909307433439757
 20
-10.95136657891947
 30
16.65274048433595
 10
8.909307433439764
 20
-11.3711955201883
 30
16.24830710187813
 10
8.90930743343975
 20
-11.82805329874122
 30
15.74823031165192
 10
8.909307433439757
 20
-12.28362712450994
 30
15.22650790349716
 10
8.909307433439764
 20
-12.72595773493136
 30
14.69372376280067
 10
8.909307433439766
 20
-13.14481263160794
 30
14.22290500347653
 10
8.909307433439766
 20
-13.54291316356323
 30
13.85341244276135
 10
8.909307433439752
 20
-14.24186209921357
 30
13.21763835498304
 10
8.909307433439745
 20
-14.9465514795022
 30
12.962796125338
 10
8.909307433439752
 20
-15.50626885559719
 30
12.76038123434491
  0
SPLINE
  5
F3
330
1F
100
AcDbEntity
  8
0
100
AcDbSpline
210
1.0
220
-1.754510109432266E-15
230
1.757489687839243E-15
 70
     8
 71
     3
 72
    24
 73
    20
 74
     0
 42
0.000000001
 43
0.0000000001
 40
-13.2073143020778
 40
-13.2073143020778
 40
-13.2073143020778
 40
-13.2073143020778
 40
-11.45430606960549
 40
-11.00026063938757
 40
-10.38630872511861
 40
-9.82370594476127
 40
-9.112238104319296
 40
-8.30840164281085
 40
-7.746033273097304
 40
-7.081004931480751
 40
-6.559894692477542
 40
-6.045972079965189
 40
-5.368423345000551
 40
-4.775513185963493
 40
-4.176181763098614
 40
-3.476453788106062
 40
-2.739087112764722
 40
-1.961969429764278
 40
0.0
 40
0.0
 40
0.0
 40
0.0
 10
7.159307433439751
 20
-15.50626885559719
 30
12.76038123434491
 10
7.159307433439744
 20
-14.9465514795022
 30
12.962796125338
 10
7.15930743343975
 20
-14.24186209921357
 30
13.21763835498304
 10
7.159307433439764
 20
-13.54291316356323
 30
13.85341244276135
 10
7.159307433439763
 20
-13.14481263160794
 30
14.22290500347653
 10
7.159307433439763
 20
-12.72595773493136
 30
14.69372376280067
 10
7.159307433439756
 20
-12.28362712450994
 30
15.22650790349716
 10
7.159307433439748
 20
-11.82805329874122
 30
15.74823031165192
 10
7.159307433439762
 20
-11.3711955201883
 30
16.24830710187813
 10
7.159307433439755
 20
-10.95136657891947
 30
16.65274048433595
 10
7.159307433439754
 20
-10.55098880914897
 30
17.05421085202454
 10
7.159307433439746
 20
-10.11426149328356
 30
17.42239915887204
 10
7.159307433439754
 20
-9.677471744221556
 30
17.82627282170881
 10
7.159307433439753
 20
-9.190609792929116
 30
18.21647240375104
 10
7.159307433439753
 20
-8.670550095685506
 30
18.57377570305552
 10
7.15930743343976
 20
-8.080425748206203
 30
18.91305772674953
 10
7.159307433439759
 20
-7.392845027615373
 30
19.18521807770146
 10
7.159307433439752
 20
-6.274465870321201
 30
19.50836870102843
 10
7.159307433439751
 20
-5.354183784759549
 30
19.50954131063678
 10
7.159307433439758
 20
-4.694998718969813
 30
19.51038123434491
  0
SPLINE
  5
F4
330
1F
100
AcDbEntity
  8
0
100
AcDbSpline
210
0.0
220
0.0
230
1.0
 70
    24
 71
     2
 72
     6
 73
     3
 74
     0
 42
0.000000001
 43
0.0000000001
 40
-1.75
 40
-1.75
 40
-1.75
 40
0.0
 40
0.0
 40
0.0
 10
7.159307433439758
 20
-4.694998718969813
 30
19.51038123434491
 10
8.034307433439759
 20
-4.694998718969813
 30
19.51038123434491
 10
8.90930743343976
 20
-4.694998718969813
 30
19.51038123434491
  0
SPLINE
  5
F5
330
1F
100
AcDbEntity
  8
0
100
AcDbSpline
210
0.0
220
0.0
230
1.0
 70
    24
 71
     2
 72
     6
 73
     3
 74
     0
 42
0.000000001
 43
0.0000000001
 40
-4.249999999999997
 40
-4.249999999999997
 40
-4.249999999999997
 40
0.0
 40
0.0
 40
0.0
 10
7.159307433439758
 20
-4.694998718969813
 30
19.51038123434491
 10
7.159307433439759
 20
-4.694998718969813
 30
21.63538123434491
 10
7.159307433439759
 20
-4.694998718969813
 30
23.76038123434491
  0
SPLINE
  5
F6
330
1F
100
AcDbEntity
  8
0
100
AcDbSpline
210
0.0
220
0.0
230
1.0
 70
    24
 71
     2
 72
     6
 73
     3
 74
     0
 42
0.000000001
 43
0.0000000001
 40
0.0
 40
0.0
 40
0.0
 40
4.249999999999997
 40
4.249999999999997
 40
4.249999999999997
 10
8.90930743343976
 20
-4.694998718969813
 30
23.76038123434491
 10
8.90930743343976
 20
-4.694998718969813
 30
21.63538123434491
 10
8.90930743343976
 20
-4.694998718969813
 30
19.51038123434491
  0
SPLINE
  5
F7
330
1F
100
AcDbEntity
  8
0
100
AcDbSpline
210
1.0
220
-2.008955151751845E-15
230
2.673408635436427E-15
 70
     8
 71
     3
 72
    25
 73
    21
 74
     0
 42
0.000000001
 43
0.0000000001
 40
-114.6399766093876
 40
-114.6399766093876
 40
-114.6399766093876
 40
-114.6399766093876
 40
-112.58169823495
 40
-110.7616161846782
 40
-107.8748159712324
 40
-104.8237814953214
 40
-98.346996035107
 40
-92.23216769958609
 40
-85.0647859284153
 40
-77.08231983773739
 40
-67.41848434707296
 40
-60.1571533922972
 40
-52.68200809745043
 40
-43.13072396029663
 40
-33.516444725592
 40
-25.39502646395592
 40
-15.92485526112194
 40
-8.188094727346382
 40
-2.377007516715403
 40
0.0
 40
0.0
 40
0.0
 40
0.0
 10
8.034307433439764
 20
-16.37313470915264
 30
14.98474882657926
 10
8.034307433439757
 20
-16.30194829248094
 30
14.93611673197362
 10
8.034307433439764
 20
-16.16775350732373
 30
14.845730763018
 10
8.034307433439757
 20
-15.89051245106506
 30
14.92341069972302
 10
8.034307433439757
 20
-15.60092463351419
 30
15.02254224553204
 10
8.034307433439757
 20
-15.19015020067216
 30
15.31106372784583
 10
8.034307433439764
 20
-14.68333390675755
 30
15.67887176891081
 10
8.034307433439764
 20
-14.16917493664636
 30
16.28683522680194
 10
8.034307433439757
 20
-13.68733553863448
 30
16.9868275646884
 10
8.034307433439757
 20
-13.1630433730325
 30
17.83109732897617
 10
8.034307433439764
 20
-12.72464842702184
 30
18.72685771997111
 10
8.034307433439757
 20
-12.32127744052877
 30
19.61553328100692
 10
8.034307433439757
 20
-11.86097714634591
 30
20.47202755116341
 10
8.034307433439764
 20
-11.24246653556411
 30
21.34687463248711
 10
8.034307433439757
 20
-10.44290430137017
 30
22.09888545137035
 10
8.034307433439764
 20
-9.569164941846957
 30
22.74616531924674
 10
8.034307433439764
 20
-8.698115845414101
 30
23.27943746263874
 10
8.034307433439764
 20
-7.828620848857206
 30
23.57752045235212
 10
8.034307433439764
 20
-7.211211437605961
 30
23.77208890880975
 10
8.034307433439764
 20
-4.694998718969813
 30
23.76038123434491
 10
8.034307433439764
 20
-4.694998718969813
 30
23.76038123434491
  0
SPLINE
  5
F8
330
1F
100
AcDbEntity
  8
0
100
AcDbSpline
210
0.0
220
0.0
230
1.0
 70
    24
 71
     2
 72
     6
 73
     3
 74
     0
 42
0.000000001
 43
0.0000000001
 40
0.0
 40
0.0
 40
0.0
 40
1.75
 40
1.75
 40
1.75
 10
8.909307433439762
 20
-16.15254275298664
 30
14.87817957641129
 10
8.034307433439762
 20
-16.15254275298664
 30
14.87817957641129
 10
7.159307433439762
 20
-16.15254275298664
 30
14.87817957641129
  0
SPLINE
  5
F9
330
1F
100
AcDbEntity
  8
0
100
AcDbSpline
210
0.0
220
0.0
230
1.0
 70
    24
 71
     2
 72
     6
 73
     3
 74
     0
 42
0.000000001
 43
0.0000000001
 40
0.0
 40
0.0
 40
0.0
 40
1.75
 40
1.75
 40
1.75
 10
8.909307433439759
 20
-15.93679805693564
 30
14.91207422730099
 10
8.034307433439759
 20
-15.93679805693564
 30
14.91207422730099
 10
7.159307433439759
 20
-15.93679805693564
 30
14.91207422730099
  0
SPLINE
  5
FA
330
1F
100
AcDbEntity
  8
0
100
AcDbSpline
210
0.0
220
0.0
230
1.0
 70
    24
 71
     2
 72
     6
 73
     3
 74
     0
 42
0.000000001
 43
0.0000000001
 40
0.0
 40
0.0
 40
0.0
 40
1.75
 40
1.75
 40
1.75
 10
8.909307433439757
 20
-15.61300603285864
 30
15.03512730489936
 10
8.034307433439757
 20
-15.61300603285864
 30
15.03512730489936
 10
7.159307433439756
 20
-15.61300603285864
 30
15.03512730489936
  0
SPLINE
  5
FB
330
1F
100
AcDbEntity
  8
0
100
AcDbSpline
210
0.0
220
0.0
230
1.0
 70
    24
 71
     2
 72
     6
 73
     3
 74
     0
 42
0.000000001
 43
0.0000000001
 40
0.0
 40
0.0
 40
0.0
 40
1.75
 40
1.75
 40
1.75
 10
8.909307433439757
 20
-15.30417379493055
 30
15.23171412786834
 10
8.034307433439757
 20
-15.30417379493055
 30
15.23171412786834
 10
7.159307433439756
 20
-15.30417379493055
 30
15.23171412786834
  0
SPLINE
  5
FC
330
1F
100
AcDbEntity
  8
0
100
AcDbSpline
210
0.0
220
0.0
230
1.0
 70
    24
 71
     2
 72
     6
 73
     3
 74
     0
 42
0.000000001
 43
0.0000000001
 40
0.0
 40
0.0
 40
0.0
 40
1.75
 40
1.75
 40
1.75
 10
8.909307433439764
 20
-14.69285527052641
 30
15.71155506186351
 10
8.034307433439764
 20
-14.69285527052641
 30
15.71155506186351
 10
7.159307433439762
 20
-14.69285527052641
 30
15.71155506186351
  0
SPLINE
  5
FD
330
1F
100
AcDbEntity
  8
0
100
AcDbSpline
210
0.0
220
0.0
230
1.0
 70
    24
 71
     2
 72
     6
 73
     3
 74
     0
 42
0.000000001
 43
0.0000000001
 40
0.0
 40
0.0
 40
0.0
 40
1.75
 40
1.75
 40
1.75
 10
8.909307433439762
 20
-14.20602946664006
 30
16.26049936022282
 10
8.034307433439762
 20
-14.20602946664006
 30
16.26049936022282
 10
7.159307433439762
 20
-14.20602946664006
 30
16.26049936022282
  0
SPLINE
  5
FE
330
1F
100
AcDbEntity
  8
0
100
AcDbSpline
210
0.0
220
0.0
230
1.0
 70
    24
 71
     2
 72
     6
 73
     3
 74
     0
 42
0.000000001
 43
0.0000000001
 40
0.0
 40
0.0
 40
0.0
 40
1.75
 40
1.75
 40
1.75
 10
8.909307433439759
 20
-13.71099267224933
 30
16.96374782424205
 10
8.034307433439759
 20
-13.71099267224933
 30
16.96374782424205
 10
7.159307433439758
 20
-13.71099267224933
 30
16.96374782424205
  0
SPLINE
  5
FF
330
1F
100
AcDbEntity
  8
0
100
AcDbSpline
210
0.0
220
0.0
230
1.0
 70
    24
 71
     2
 72
     6
 73
     3
 74
     0
 42
0.000000001
 43
0.0000000001
 40
0.0
 40
0.0
 40
0.0
 40
1.75
 40
1.75
 40
1.75
 10
8.909307433439759
 20
-13.2113098728323
 30
17.78089115648856
 10
8.034307433439759
 20
-13.2113098728323
 30
17.78089115648856
 10
7.159307433439759
 20
-13.2113098728323
 30
17.78089115648856
  0
SPLINE
  5
100
330
1F
100
AcDbEntity
  8
0
100
AcDbSpline
210
0.0
220
0.0
230
1.0
 70
    24
 71
     2
 72
     6
 73
     3
 74
     0
 42
0.000000001
 43
0.0000000001
 40
0.0
 40
0.0
 40
0.0
 40
1.75
 40
1.75
 40
1.75
 10
8.90930743343976
 20
-12.68826332249871
 30
18.81578339038801
 10
8.03430743343976
 20
-12.68826332249871
 30
18.81578339038801
 10
7.159307433439761
 20
-12.68826332249871
 30
18.81578339038801
  0
SPLINE
  5
101
330
1F
100
AcDbEntity
  8
0
100
AcDbSpline
210
0.0
220
0.0
230
1.0
 70
    24
 71
     2
 72
     6
 73
     3
 74
     0
 42
0.000000001
 43
0.0000000001
 40
0.0
 40
0.0
 40
0.0
 40
1.75
 40
1.75
 40
1.75
 10
8.909307433439759
 20
-12.31615136114814
 30
19.60360906510353
 10
8.034307433439759
 20
-12.31615136114814
 30
19.60360906510353
 10
7.159307433439759
 20
-12.31615136114814
 30
19.60360906510353
  0
SPLINE
  5
102
330
1F
100
AcDbEntity
  8
0
100
AcDbSpline
210
0.0
220
0.0
230
1.0
 70
    24
 71
     2
 72
     6
 73
     3
 74
     0
 42
0.000000001
 43
0.0000000001
 40
0.0
 40
0.0
 40
0.0
 40
1.75
 40
1.75
 40
1.75
 10
8.909307433439757
 20
-11.88632766954846
 30
20.39085292170768
 10
8.034307433439757
 20
-11.88632766954846
 30
20.39085292170768
 10
7.159307433439757
 20
-11.88632766954846
 30
20.39085292170768
  0
SPLINE
  5
103
330
1F
100
AcDbEntity
  8
0
100
AcDbSpline
210
0.0
220
0.0
230
1.0
 70
    24
 71
     2
 72
     6
 73
     3
 74
     0
 42
0.000000001
 43
0.0000000001
 40
0.0
 40
0.0
 40
0.0
 40
1.75
 40
1.75
 40
1.75
 10
8.909307433439762
 20
-11.21496376735496
 30
21.31967627221483
 10
8.034307433439762
 20
-11.21496376735496
 30
21.31967627221483
 10
7.159307433439762
 20
-11.21496376735496
 30
21.31967627221483
  0
SPLINE
  5
104
330
1F
100
AcDbEntity
  8
0
100
AcDbSpline
210
0.0
220
0.0
230
1.0
 70
    24
 71
     2
 72
     6
 73
     3
 74
     0
 42
0.000000001
 43
0.0000000001
 40
0.0
 40
0.0
 40
0.0
 40
1.75
 40
1.75
 40
1.75
 10
8.909307433439759
 20
-10.38449527471075
 30
22.12039284594693
 10
8.034307433439759
 20
-10.38449527471075
 30
22.12039284594693
 10
7.159307433439759
 20
-10.38449527471075
 30
22.12039284594693
  0
SPLINE
  5
105
330
1F
100
AcDbEntity
  8
0
100
AcDbSpline
210
0.0
220
0.0
230
1.0
 70
    24
 71
     2
 72
     6
 73
     3
 74
     0
 42
0.000000001
 43
0.0000000001
 40
0.0
 40
0.0
 40
0.0
 40
1.75
 40
1.75
 40
1.75
 10
8.909307433439762
 20
-9.603953550190862
 30
22.7038117517073
 10
8.034307433439762
 20
-9.603953550190862
 30
22.7038117517073
 10
7.159307433439762
 20
-9.603953550190862
 30
22.7038117517073
  0
SPLINE
  5
106
330
1F
100
AcDbEntity
  8
0
100
AcDbSpline
210
0.0
220
0.0
230
1.0
 70
    24
 71
     2
 72
     6
 73
     3
 74
     0
 42
0.000000001
 43
0.0000000001
 40
0.0
 40
0.0
 40
0.0
 40
1.75
 40
1.75
 40
1.75
 10
8.909307433439764
 20
-8.620864311425592
 30
23.27369255731485
 10
8.034307433439764
 20
-8.620864311425592
 30
23.27369255731485
 10
7.159307433439764
 20
-8.620864311425592
 30
23.27369255731485
  0
SPLINE
  5
107
330
1F
100
AcDbEntity
  8
0
100
AcDbSpline
210
0.0
220
0.0
230
1.0
 70
    24
 71
     2
 72
     6
 73
     3
 74
     0
 42
0.000000001
 43
0.0000000001
 40
0.0
 40
0.0
 40
0.0
 40
1.75
 40
1.75
 40
1.75
 10
8.909307433439764
 20
-7.751480478821957
 30
23.59922342301593
 10
8.034307433439764
 20
-7.751480478821957
 30
23.59922342301593
 10
7.159307433439765
 20
-7.751480478821957
 30
23.59922342301593
  0
SPLINE
  5
108
330
1F
100
AcDbEntity
  8
0
100
AcDbSpline
210
0.0
220
0.0
230
1.0
 70
    24
 71
     2
 72
     6
 73
     3
 74
     0
 42
0.000000001
 43
0.0000000001
 40
0.0
 40
0.0
 40
0.0
 40
1.75
 40
1.75
 40
1.75
 10
8.909307433439764
 20
-5.970615080584631
 30
23.75776113953459
 10
8.034307433439764
 20
-5.970615080584631
 30
23.75776113953459
 10
7.159307433439764
 20
-5.970615080584631
 30
23.75776113953459
  0
ARC
  5
109
330
1F
100
AcDbEntity
  8
0
100
AcDbCircle
 10
-17.17318489225293
 20
13.99150566120337
 30
8.034307433439755
 40
1.275387110270728
210
1.0
220
0.0
230
0.0
100
AcDbArc
 50
51.14880755642371
 51
254.8609165264643
  0
LINE
  5
10A
330
1F
100
AcDbEntity
  8
0
100
AcDbLine
 10
8.909307433439754
 20
-18.44857200252365
 30
13.99150566120337
 11
7.159307433439754
 21
-18.44857200252365
 31
13.99150566120337
  0
LINE
  5
10B
330
1F
100
AcDbEntity
  8
0
100
AcDbLine
 10
8.909307433439757
 20
-17.17318489225293
 30
15.2668927714741
 11
7.159307433439754
 21
-17.17318489225293
 31
15.2668927714741
  0
LINE
  5
10C
330
1F
100
AcDbEntity
  8
0
100
AcDbLine
 10
7.159307433439753
 20
-16.50626885559718
 30
12.7603812343449
 11
8.90930743343975
 21
-16.50626885559718
 31
12.7603812343449
  0
LINE
  5
10D
330
1F
100
AcDbEntity
  8
0
100
AcDbLine
 10
8.034307433439752
 20
-15.50626885559719
 30
12.7603812343449
 11
8.034307433439752
 21
-17.50626885559716
 31
12.7603812343449
  0
SPLINE
  5
10E
330
1F
100
AcDbEntity
  8
0
100
AcDbSpline
210
1.0
220
-2.073823156932789E-15
230
1.216267799998781E-15
 70
     8
 71
     3
 72
    24
 73
    20
 74
     0
 42
0.000000001
 43
0.0000000001
 40
0.0
 40
0.0
 40
0.0
 40
0.0
 40
1.961969429764278
 40
2.739087112764722
 40
3.476453788106062
 40
4.176181763098614
 40
4.775513185963493
 40
5.368423345000551
 40
6.045972079965189
 40
6.559894692477542
 40
7.081004931480751
 40
7.746033273097304
 40
8.30840164281085
 40
9.112238104319296
 40
9.82370594476127
 40
10.38630872511861
 40
11.00026063938757
 40
11.45430606960549
 40
13.2073143020778
 40
13.2073143020778
 40
13.2073143020778
 40
13.2073143020778
 10
8.034307433439764
 20
-4.694998718969813
 30
19.51038123434491
 10
8.034307433439757
 20
-5.354183784759549
 30
19.50954131063678
 10
8.034307433439757
 20
-6.274465870321201
 30
19.50836870102843
 10
8.034307433439764
 20
-7.392845027615373
 30
19.18521807770146
 10
8.034307433439764
 20
-8.080425748206203
 30
18.91305772674953
 10
8.034307433439757
 20
-8.670550095685506
 30
18.57377570305552
 10
8.034307433439757
 20
-9.190609792929116
 30
18.21647240375104
 10
8.034307433439757
 20
-9.677471744221556
 30
17.82627282170881
 10
8.03430743343975
 20
-10.11426149328356
 30
17.42239915887204
 10
8.034307433439757
 20
-10.55098880914897
 30
17.05421085202454
 10
8.034307433439757
 20
-10.95136657891947
 30
16.65274048433595
 10
8.034307433439764
 20
-11.3711955201883
 30
16.24830710187813
 10
8.03430743343975
 20
-11.82805329874122
 30
15.74823031165192
 10
8.034307433439757
 20
-12.28362712450994
 30
15.22650790349716
 10
8.034307433439764
 20
-12.72595773493136
 30
14.69372376280067
 10
8.034307433439764
 20
-13.14481263160794
 30
14.22290500347652
 10
8.034307433439764
 20
-13.54291316356323
 30
13.85341244276135
 10
8.03430743343975
 20
-14.24186209921357
 30
13.21763835498304
 10
8.034307433439743
 20
-14.9465514795022
 30
12.962796125338
 10
8.03430743343975
 20
-15.50626885559719
 30
12.7603812343449
  0
SPLINE
  5
10F
330
1F
100
AcDbEntity
  8
0
100
AcDbSpline
210
0.0
220
0.0
230
1.0
 70
    24
 71
     2
 72
     6
 73
     3
 74
     0
 42
0.000000001
 43
0.0000000001
 40
0.0
 40
0.0
 40
0.0
 40
1.75
 40
1.75
 40
1.75
 10
8.90930743343976
 20
-6.652485550209954
 30
19.37783181393515
 10
8.03430743343976
 20
-6.652485550209954
 30
19.37783181393515
 10
7.159307433439761
 20
-6.652485550209954
 30
19.37783181393515
  0
SPLINE
  5
110
330
1F
100
AcDbEntity
  8
0
100
AcDbSpline
210
0.0
220
0.0
230
1.0
 70
    24
 71
     2
 72
     6
 73
     3
 74
     0
 42
0.000000001
 43
0.0000000001
 40
0.0
 40
0.0
 40
0.0
 40
1.75
 40
1.75
 40
1.75
 10
8.909307433439764
 20
-7.40117864168663
 30
19.16957584641662
 10
8.034307433439764
 20
-7.40117864168663
 30
19.16957584641662
 10
7.159307433439765
 20
-7.40117864168663
 30
19.16957584641662
  0
SPLINE
  5
111
330
1F
100
AcDbEntity
  8
0
100
AcDbSpline
210
0.0
220
0.0
230
1.0
 70
    24
 71
     2
 72
     6
 73
     3
 74
     0
 42
0.000000001
 43
0.0000000001
 40
0.0
 40
0.0
 40
0.0
 40
1.75
 40
1.75
 40
1.75
 10
8.909307433439762
 20
-8.084264574956617
 30
18.89190117765367
 10
8.034307433439762
 20
-8.084264574956617
 30
18.89190117765367
 10
7.159307433439762
 20
-8.084264574956617
 30
18.89190117765367
  0
SPLINE
  5
112
330
1F
100
AcDbEntity
  8
0
100
AcDbSpline
210
0.0
220
0.0
230
1.0
 70
    24
 71
     2
 72
     6
 73
     3
 74
     0
 42
0.000000001
 43
0.0000000001
 40
0.0
 40
0.0
 40
0.0
 40
1.75
 40
1.75
 40
1.75
 10
8.909307433439757
 20
-8.694024985609088
 30
18.54866440720491
 10
8.034307433439757
 20
-8.694024985609088
 30
18.54866440720491
 10
7.159307433439757
 20
-8.694024985609088
 30
18.54866440720491
  0
SPLINE
  5
113
330
1F
100
AcDbEntity
  8
0
100
AcDbSpline
210
0.0
220
0.0
230
1.0
 70
    24
 71
     2
 72
     6
 73
     3
 74
     0
 42
0.000000001
 43
0.0000000001
 40
0.0
 40
0.0
 40
0.0
 40
1.75
 40
1.75
 40
1.75
 10
8.909307433439757
 20
-9.188008035965868
 30
18.20928423631472
 10
8.034307433439757
 20
-9.188008035965868
 30
18.20928423631472
 10
7.159307433439757
 20
-9.188008035965868
 30
18.20928423631472
  0
SPLINE
  5
114
330
1F
100
AcDbEntity
  8
0
100
AcDbSpline
210
0.0
220
0.0
230
1.0
 70
    24
 71
     2
 72
     6
 73
     3
 74
     0
 42
0.000000001
 43
0.0000000001
 40
0.0
 40
0.0
 40
0.0
 40
1.75
 40
1.75
 40
1.75
 10
8.909307433439755
 20
-9.65111717408735
 30
17.83905135976574
 10
8.034307433439755
 20
-9.65111717408735
 30
17.83905135976574
 10
7.159307433439756
 20
-9.65111717408735
 30
17.83905135976574
  0
SPLINE
  5
115
330
1F
100
AcDbEntity
  8
0
100
AcDbSpline
210
0.0
220
0.0
230
1.0
 70
    24
 71
     2
 72
     6
 73
     3
 74
     0
 42
0.000000001
 43
0.0000000001
 40
0.0
 40
0.0
 40
0.0
 40
1.75
 40
1.75
 40
1.75
 10
8.909307433439752
 20
-10.15825482614142
 30
17.38973667035389
 10
8.034307433439752
 20
-10.15825482614142
 30
17.38973667035389
 10
7.159307433439752
 20
-10.15825482614142
 30
17.38973667035389
  0
SPLINE
  5
116
330
1F
100
AcDbEntity
  8
0
100
AcDbSpline
210
0.0
220
0.0
230
1.0
 70
    24
 71
     2
 72
     6
 73
     3
 74
     0
 42
0.000000001
 43
0.0000000001
 40
0.0
 40
0.0
 40
0.0
 40
1.75
 40
1.75
 40
1.75
 10
8.909307433439755
 20
-10.54417910790931
 30
17.0503564994637
 10
8.034307433439755
 20
-10.54417910790931
 30
17.0503564994637
 10
7.159307433439755
 20
-10.54417910790931
 30
17.0503564994637
  0
SPLINE
  5
117
330
1F
100
AcDbEntity
  8
0
100
AcDbSpline
210
0.0
220
0.0
230
1.0
 70
    24
 71
     2
 72
     6
 73
     3
 74
     0
 42
0.000000001
 43
0.0000000001
 40
0.0
 40
0.0
 40
0.0
 40
1.75
 40
1.75
 40
1.75
 10
8.909307433439757
 20
-10.9185256915303
 30
16.68783682203187
 10
8.034307433439757
 20
-10.9185256915303
 30
16.68783682203187
 10
7.159307433439758
 20
-10.9185256915303
 30
16.68783682203187
  0
SPLINE
  5
118
330
1F
100
AcDbEntity
  8
0
100
AcDbSpline
210
0.0
220
0.0
230
1.0
 70
    24
 71
     2
 72
     6
 73
     3
 74
     0
 42
0.000000001
 43
0.0000000001
 40
0.0
 40
0.0
 40
0.0
 40
1.75
 40
1.75
 40
1.75
 10
8.90930743343976
 20
-11.39037132839742
 30
16.21919581857322
 10
8.03430743343976
 20
-11.39037132839742
 30
16.21919581857322
 10
7.159307433439761
 20
-11.39037132839742
 30
16.21919581857322
  0
SPLINE
  5
119
330
1F
100
AcDbEntity
  8
0
100
AcDbSpline
210
0.0
220
0.0
230
1.0
 70
    24
 71
     2
 72
     6
 73
     3
 74
     0
 42
0.000000001
 43
0.0000000001
 40
0.0
 40
0.0
 40
0.0
 40
1.75
 40
1.75
 40
1.75
 10
8.909307433439755
 20
-11.77243635219457
 30
15.80654039228495
 10
8.034307433439755
 20
-11.77243635219457
 30
15.80654039228495
 10
7.159307433439755
 20
-11.77243635219457
 30
15.80654039228495
  0
SPLINE
  5
11A
330
1F
100
AcDbEntity
  8
0
100
AcDbSpline
210
0.0
220
0.0
230
1.0
 70
    24
 71
     2
 72
     6
 73
     3
 74
     0
 42
0.000000001
 43
0.0000000001
 40
0.0
 40
0.0
 40
0.0
 40
1.75
 40
1.75
 40
1.75
 10
8.909307433439755
 20
-12.30115264852274
 30
15.20105535130752
 10
8.034307433439757
 20
-12.30115264852274
 30
15.20105535130752
 10
7.159307433439757
 20
-12.30115264852274
 30
15.20105535130752
  0
SPLINE
  5
11B
330
1F
100
AcDbEntity
  8
0
100
AcDbSpline
210
0.0
220
0.0
230
1.0
 70
    24
 71
     2
 72
     6
 73
     3
 74
     0
 42
0.000000001
 43
0.0000000001
 40
0.0
 40
0.0
 40
0.0
 40
1.75
 40
1.75
 40
1.75
 10
8.909307433439762
 20
-12.76121299027334
 30
14.65834827568431
 10
8.034307433439762
 20
-12.76121299027334
 30
14.65834827568431
 10
7.159307433439763
 20
-12.76121299027334
 30
14.65834827568431
  0
SPLINE
  5
11C
330
1F
100
AcDbEntity
  8
0
100
AcDbSpline
210
0.0
220
0.0
230
1.0
 70
    24
 71
     2
 72
     6
 73
     3
 74
     0
 42
0.000000001
 43
0.0000000001
 40
0.0
 40
0.0
 40
0.0
 40
1.75
 40
1.75
 40
1.75
 10
8.909307433439764
 20
-13.13941883186508
 30
14.24183629524233
 10
8.034307433439764
 20
-13.13941883186508
 30
14.24183629524233
 10
7.159307433439765
 20
-13.13941883186508
 30
14.24183629524233
  0
SPLINE
  5
11D
330
1F
100
AcDbEntity
  8
0
100
AcDbSpline
210
0.0
220
0.0
230
1.0
 70
    24
 71
     2
 72
     6
 73
     3
 74
     0
 42
0.000000001
 43
0.0000000001
 40
0.0
 40
0.0
 40
0.0
 40
1.75
 40
1.75
 40
1.75
 10
8.909307433439762
 20
-13.58323175589817
 30
13.81761107027839
 10
8.034307433439762
 20
-13.58323175589817
 30
13.81761107027839
 10
7.159307433439762
 20
-13.58323175589817
 30
13.81761107027839
  0
SPLINE
  5
11E
330
1F
100
AcDbEntity
  8
0
100
AcDbSpline
210
0.0
220
0.0
230
1.0
 70
    24
 71
     2
 72
     6
 73
     3
 74
     0
 42
0.000000001
 43
0.0000000001
 40
0.0
 40
0.0
 40
0.0
 40
1.75
 40
1.75
 40
1.75
 10
8.909307433439759
 20
-13.92670435151853
 30
13.5206534491275
 10
8.034307433439759
 20
-13.92670435151853
 30
13.5206534491275
 10
7.159307433439758
 20
-13.92670435151853
 30
13.5206534491275
  0
LINE
  5
11F
330
1F
100
AcDbEntity
  8
0
100
AcDbLine
 10
8.909307433439764
 20
-4.694998718969813
 30
21.63538123434491
 11
7.159307433439756
 21
-4.694998718969813
 31
21.63538123434491
  0
LINE
  5
120
330
1F
100
AcDbEntity
  8
0
100
AcDbLine
 10
8.03430743343976
 20
-4.694998718969813
 30
19.51038123434491
 11
8.03430743343976
 21
-4.694998718969813
 31
23.7603812343449
  0
LINE
  5
121
330
1F
100
AcDbEntity
  8
0
100
AcDbLine
 10
7.159307433439754
 20
-9.110398940375017
 30
18.26623507157733
 11
7.159307433439754
 21
-12.95429576058885
 31
18.26623507157733
  0
LINE
  5
122
330
1F
100
AcDbEntity
  8
0
100
AcDbLine
 10
7.159307433439754
 20
-11.64014706034024
 30
15.95285925297652
 11
7.159307433439754
 21
-11.64014706034024
 31
20.77025263994869
  0
LINE
  5
123
330
1F
100
AcDbEntity
  8
0
100
AcDbLine
 10
8.909307433439757
 20
-9.110398940375017
 30
18.26623507157733
 11
8.909307433439757
 21
-12.95429576058885
 31
18.26623507157733
  0
LINE
  5
124
330
1F
100
AcDbEntity
  8
0
100
AcDbLine
 10
8.909307433439757
 20
-11.64014706034024
 30
15.95285925297652
 11
8.909307433439757
 21
-11.64014706034024
 31
20.77025263994869
  0
SPLINE
  5
125
330
1F
100
AcDbEntity
  8
0
100
AcDbSpline
210
0.0
220
0.0
230
1.0
 70
    24
 71
     2
 72
     6
 73
     3
 74
     0
 42
0.000000001
 43
0.0000000001
 40
-0.5740251485476477
 40
-0.5740251485476477
 40
-0.5740251485476477
 40
1.722075445642904
 40
1.722075445642904
 40
1.722075445642904
 10
5.65424741256604
 20
-2.576784287026175
 30
19.23788740156142
 10
6.648488134672821
 20
-3.150809435573811
 30
19.23788740156142
 10
7.642728856779602
 20
-3.724834584121448
 30
19.23788740156142
  0
SPLINE
  5
126
330
1F
100
AcDbEntity
  8
0
100
AcDbSpline
210
0.0
220
0.0
230
1.0
 70
    24
 71
     2
 72
     6
 73
     3
 74
     0
 42
0.000000001
 43
0.0000000001
 40
0.0
 40
0.0
 40
0.0
 40
18.49885618266377
 40
18.49885618266377
 40
18.49885618266377
 10
5.654247412566041
 20
-2.576784287026175
 30
37.73674358422519
 10
5.65424741256604
 20
-2.576784287026175
 30
28.48731549289331
 10
5.65424741256604
 20
-2.576784287026175
 30
19.23788740156142
  0
SPLINE
  5
127
330
1F
100
AcDbEntity
  8
0
100
AcDbSpline
210
0.0
220
0.0
230
1.0
 70
    24
 71
     2
 72
     6
 73
     3
 74
     0
 42
0.000000001
 43
0.0000000001
 40
-1.722075445642908
 40
-1.722075445642908
 40
-1.722075445642908
 40
0.5740251485476442
 40
0.5740251485476442
 40
0.5740251485476442
 10
7.642728856779602
 20
-3.724834584121449
 30
37.73674358422519
 10
6.648488134672821
 20
-3.150809435573812
 30
37.73674358422519
 10
5.654247412566041
 20
-2.576784287026175
 30
37.73674358422519
  0
SPLINE
  5
128
330
1F
100
AcDbEntity
  8
0
100
AcDbSpline
210
0.0
220
0.0
230
1.0
 70
    24
 71
     2
 72
     6
 73
     3
 74
     0
 42
0.000000001
 43
0.0000000001
 40
-18.49885618266377
 40
-18.49885618266377
 40
-18.49885618266377
 40
0.0
 40
0.0
 40
0.0
 10
7.642728856779602
 20
-3.724834584121448
 30
19.23788740156142
 10
7.642728856779602
 20
-3.724834584121449
 30
28.4873154928933
 10
7.642728856779602
 20
-3.724834584121449
 30
37.73674358422519
  0
SPLINE
  5
129
330
1F
100
AcDbEntity
  8
0
100
AcDbSpline
210
0.0
220
0.0
230
1.0
 70
    24
 71
     2
 72
     6
 73
     3
 74
     0
 42
0.000000001
 43
0.0000000001
 40
-1.337407664100764
 40
-1.337407664100764
 40
-1.337407664100764
 40
0.9586929300897721
 40
0.9586929300897721
 40
0.9586929300897721
 10
7.642728856779602
 20
-3.724834584121448
 30
19.23788740156142
 10
8.75166028862276
 20
-3.427697302497583
 30
19.23788740156142
 10
9.86059172046592
 20
-3.130560020873718
 30
19.23788740156142
  0
SPLINE
  5
12A
330
1F
100
AcDbEntity
  8
0
100
AcDbSpline
210
0.0
220
0.0
230
1.0
 70
    24
 71
     2
 72
     6
 73
     3
 74
     0
 42
0.000000001
 43
0.0000000001
 40
-1.014968664456342
 40
-1.014968664456342
 40
-1.014968664456342
 40
1.281131929734195
 40
1.281131929734195
 40
1.281131929734195
 10
9.86059172046592
 20
-3.13056002087372
 30
37.73674358422519
 10
8.75166028862276
 20
-3.427697302497584
 30
37.73674358422519
 10
7.642728856779602
 20
-3.724834584121449
 30
37.73674358422519
  0
SPLINE
  5
12B
330
1F
100
AcDbEntity
  8
0
100
AcDbSpline
210
0.0
220
0.0
230
1.0
 70
    24
 71
     2
 72
     6
 73
     3
 74
     0
 42
0.000000001
 43
0.0000000001
 40
-18.49885618266377
 40
-18.49885618266377
 40
-18.49885618266377
 40
0.0
 40
0.0
 40
0.0
 10
9.86059172046592
 20
-3.130560020873718
 30
19.23788740156142
 10
9.86059172046592
 20
-3.130560020873719
 30
28.48731549289331
 10
9.86059172046592
 20
-3.13056002087372
 30
37.73674358422519
  0
SPLINE
  5
12C
330
1F
100
AcDbEntity
  8
0
100
AcDbSpline
210
0.0
220
0.0
230
1.0
 70
    24
 71
     2
 72
     6
 73
     3
 74
     0
 42
0.000000001
 43
0.0000000001
 40
-1.653611055321349
 40
-1.653611055321349
 40
-1.653611055321349
 40
0.6424895388692065
 40
0.6424895388692065
 40
0.6424895388692065
 10
9.86059172046592
 20
-3.130560020873718
 30
19.23788740156142
 10
10.43461686901355
 20
-2.136319298766936
 30
19.23788740156142
 10
11.00864201756119
 20
-1.142078576660154
 30
19.23788740156142
  0
SPLINE
  5
12D
330
1F
100
AcDbEntity
  8
0
100
AcDbSpline
210
0.0
220
0.0
230
1.0
 70
    24
 71
     2
 72
     6
 73
     3
 74
     0
 42
0.000000001
 43
0.0000000001
 40
-0.7220754456429148
 40
-0.7220754456429148
 40
-0.7220754456429148
 40
1.574025148547641
 40
1.574025148547641
 40
1.574025148547641
 10
11.00864201756119
 20
-1.142078576660154
 30
37.73674358422519
 10
10.43461686901355
 20
-2.136319298766937
 30
37.73674358422519
 10
9.86059172046592
 20
-3.13056002087372
 30
37.73674358422519
  0
SPLINE
  5
12E
330
1F
100
AcDbEntity
  8
0
100
AcDbSpline
210
0.0
220
0.0
230
1.0
 70
    24
 71
     2
 72
     6
 73
     3
 74
     0
 42
0.000000001
 43
0.0000000001
 40
-18.49885618266377
 40
-18.49885618266377
 40
-18.49885618266377
 40
0.0
 40
0.0
 40
0.0
 10
11.00864201756119
 20
-1.142078576660154
 30
19.23788740156142
 10
11.00864201756119
 20
-1.142078576660154
 30
28.4873154928933
 10
11.00864201756119
 20
-1.142078576660154
 30
37.73674358422519
  0
SPLINE
  5
12F
330
1F
100
AcDbEntity
  8
0
100
AcDbSpline
210
0.0
220
0.0
230
1.0
 70
    24
 71
     2
 72
     6
 73
     3
 74
     0
 42
0.000000001
 43
0.0000000001
 40
-1.337407664100744
 40
-1.337407664100744
 40
-1.337407664100744
 40
0.9586929300897872
 40
0.9586929300897872
 40
0.9586929300897872
 10
11.00864201756119
 20
-1.142078576660154
 30
19.23788740156142
 10
10.71150473593732
 20
-0.033147144817
 30
19.23788740156142
 10
10.41436745431346
 20
1.075784287026154
 30
19.23788740156142
  0
SPLINE
  5
130
330
1F
100
AcDbEntity
  8
0
100
AcDbSpline
210
0.0
220
0.0
230
1.0
 70
    24
 71
     2
 72
     6
 73
     3
 74
     0
 42
0.000000001
 43
0.0000000001
 40
-1.014968664456354
 40
-1.014968664456354
 40
-1.014968664456354
 40
1.281131929734177
 40
1.281131929734177
 40
1.281131929734177
 10
10.41436745431346
 20
1.075784287026154
 30
37.73674358422519
 10
10.71150473593732
 20
-0.033147144817
 30
37.73674358422519
 10
11.00864201756119
 20
-1.142078576660154
 30
37.73674358422519
  0
SPLINE
  5
131
330
1F
100
AcDbEntity
  8
0
100
AcDbSpline
210
0.0
220
0.0
230
1.0
 70
    24
 71
     2
 72
     6
 73
     3
 74
     0
 42
0.000000001
 43
0.0000000001
 40
-18.49885618266377
 40
-18.49885618266377
 40
-18.49885618266377
 40
0.0
 40
0.0
 40
0.0
 10
10.41436745431346
 20
1.075784287026154
 30
19.23788740156142
 10
10.41436745431346
 20
1.075784287026154
 30
28.4873154928933
 10
10.41436745431346
 20
1.075784287026154
 30
37.73674358422519
  0
SPLINE
  5
132
330
1F
100
AcDbEntity
  8
0
100
AcDbSpline
210
0.0
220
0.0
230
1.0
 70
    24
 71
     2
 72
     6
 73
     3
 74
     0
 42
0.000000001
 43
0.0000000001
 40
-0.57402514854763
 40
-0.57402514854763
 40
-0.57402514854763
 40
1.722075445642922
 40
1.722075445642922
 40
1.722075445642922
 10
10.41436745431346
 20
1.075784287026154
 30
19.23788740156142
 10
9.42012673220668
 20
1.649809435573791
 30
19.23788740156142
 10
8.425886010099902
 20
2.223834584121429
 30
19.23788740156142
  0
SPLINE
  5
133
330
1F
100
AcDbEntity
  8
0
100
AcDbSpline
210
0.0
220
0.0
230
1.0
 70
    24
 71
     2
 72
     6
 73
     3
 74
     0
 42
0.000000001
 43
0.0000000001
 40
-1.722075445642922
 40
-1.722075445642922
 40
-1.722075445642922
 40
0.57402514854763
 40
0.57402514854763
 40
0.57402514854763
 10
8.425886010099902
 20
2.223834584121429
 30
37.73674358422519
 10
9.420126732206683
 20
1.649809435573791
 30
37.73674358422519
 10
10.41436745431346
 20
1.075784287026154
 30
37.73674358422519
  0
SPLINE
  5
134
330
1F
100
AcDbEntity
  8
0
100
AcDbSpline
210
0.0
220
0.0
230
1.0
 70
    24
 71
     2
 72
     6
 73
     3
 74
     0
 42
0.000000001
 43
0.0000000001
 40
-18.49885618266377
 40
-18.49885618266377
 40
-18.49885618266377
 40
0.0
 40
0.0
 40
0.0
 10
8.425886010099902
 20
2.223834584121429
 30
19.23788740156142
 10
8.425886010099902
 20
2.223834584121429
 30
28.4873154928933
 10
8.425886010099902
 20
2.223834584121429
 30
37.73674358422519
  0
SPLINE
  5
135
330
1F
100
AcDbEntity
  8
0
100
AcDbSpline
210
0.0
220
0.0
230
1.0
 70
    24
 71
     2
 72
     6
 73
     3
 74
     0
 42
0.000000001
 43
0.0000000001
 40
0.1893573670054949
 40
0.1893573670054949
 40
0.1893573670054949
 40
2.485457961196022
 40
2.485457961196022
 40
2.485457961196022
 10
8.425886010099902
 20
2.223834584121429
 30
19.23788740156142
 10
7.316954578256749
 20
1.926697302497567
 30
19.23788740156142
 10
6.208023146413597
 20
1.629560020873704
 30
19.23788740156142
  0
SPLINE
  5
136
330
1F
100
AcDbEntity
  8
0
100
AcDbSpline
210
0.0
220
0.0
230
1.0
 70
    24
 71
     2
 72
     6
 73
     3
 74
     0
 42
0.000000001
 43
0.0000000001
 40
-2.429182226829447
 40
-2.429182226829447
 40
-2.429182226829447
 40
-0.1330816326389203
 40
-0.1330816326389203
 40
-0.1330816326389203
 10
6.208023146413598
 20
1.629560020873703
 30
37.73674358422519
 10
7.31695457825675
 20
1.926697302497566
 30
37.73674358422519
 10
8.425886010099902
 20
2.223834584121429
 30
37.73674358422519
  0
SPLINE
  5
137
330
1F
100
AcDbEntity
  8
0
100
AcDbSpline
210
0.0
220
0.0
230
1.0
 70
    24
 71
     2
 72
     6
 73
     3
 74
     0
 42
0.000000001
 43
0.0000000001
 40
-18.49885618266377
 40
-18.49885618266377
 40
-18.49885618266377
 40
0.0
 40
0.0
 40
0.0
 10
6.208023146413597
 20
1.629560020873704
 30
19.23788740156142
 10
6.208023146413598
 20
1.629560020873703
 30
28.48731549289331
 10
6.208023146413598
 20
1.629560020873703
 30
37.73674358422519
  0
SPLINE
  5
138
330
1F
100
AcDbEntity
  8
0
100
AcDbSpline
210
0.0
220
0.0
230
1.0
 70
    24
 71
     2
 72
     6
 73
     3
 74
     0
 42
0.000000001
 43
0.0000000001
 40
0.5055607582260677
 40
0.5055607582260677
 40
0.5055607582260677
 40
2.801661352416623
 40
2.801661352416623
 40
2.801661352416623
 10
6.208023146413597
 20
1.629560020873704
 30
19.23788740156142
 10
5.63399799786596
 20
0.6353192987669197
 30
19.23788740156142
 10
5.059972849318322
 20
-0.3589214233398648
 30
19.23788740156142
  0
SPLINE
  5
139
330
1F
100
AcDbEntity
  8
0
100
AcDbSpline
210
0.0
220
0.0
230
1.0
 70
    24
 71
     2
 72
     6
 73
     3
 74
     0
 42
0.000000001
 43
0.0000000001
 40
-2.722075445642922
 40
-2.722075445642922
 40
-2.722075445642922
 40
-0.4259748514523665
 40
-0.4259748514523665
 40
-0.4259748514523665
 10
5.059972849318323
 20
-0.3589214233398652
 30
37.73674358422519
 10
5.633997997865961
 20
0.6353192987669187
 30
37.73674358422519
 10
6.208023146413598
 20
1.629560020873703
 30
37.73674358422519
  0
SPLINE
  5
13A
330
1F
100
AcDbEntity
  8
0
100
AcDbSpline
210
0.0
220
0.0
230
1.0
 70
    24
 71
     2
 72
     6
 73
     3
 74
     0
 42
0.000000001
 43
0.0000000001
 40
-18.49885618266377
 40
-18.49885618266377
 40
-18.49885618266377
 40
0.0
 40
0.0
 40
0.0
 10
5.059972849318322
 20
-0.3589214233398648
 30
19.23788740156142
 10
5.059972849318322
 20
-0.358921423339865
 30
28.48731549289331
 10
5.059972849318323
 20
-0.3589214233398652
 30
37.73674358422519
  0
SPLINE
  5
13B
330
1F
100
AcDbEntity
  8
0
100
AcDbSpline
210
0.0
220
0.0
230
1.0
 70
    24
 71
     2
 72
     6
 73
     3
 74
     0
 42
0.000000001
 43
0.0000000001
 40
0.1893573670054874
 40
0.1893573670054874
 40
0.1893573670054874
 40
2.485457961196019
 40
2.485457961196019
 40
2.485457961196019
 10
5.059972849318322
 20
-0.3589214233398648
 30
19.23788740156142
 10
5.35711013094218
 20
-1.46785285518302
 30
19.23788740156142
 10
5.65424741256604
 20
-2.576784287026175
 30
19.23788740156142
  0
SPLINE
  5
13C
330
1F
100
AcDbEntity
  8
0
100
AcDbSpline
210
0.0
220
0.0
230
1.0
 70
    24
 71
     2
 72
     6
 73
     3
 74
     0
 42
0.000000001
 43
0.0000000001
 40
-2.429182226829452
 40
-2.429182226829452
 40
-2.429182226829452
 40
-0.1330816326389203
 40
-0.1330816326389203
 40
-0.1330816326389203
 10
5.654247412566041
 20
-2.576784287026175
 30
37.73674358422519
 10
5.357110130942182
 20
-1.46785285518302
 30
37.73674358422519
 10
5.059972849318323
 20
-0.3589214233398652
 30
37.73674358422519
  0
ARC
  5
13D
330
1F
100
AcDbEntity
  8
0
100
AcDbCircle
 10
8.034307433439768
 20
-0.7505000000000039
 30
35.42566291060567
 40
4.0
100
AcDbArc
 50
60.00000000000011
 51
240.0
  0
ARC
  5
13E
330
1F
100
AcDbEntity
  8
0
100
AcDbCircle
 10
8.034307433439764
 20
-0.7505000000000024
 30
37.73674358422518
 40
4.0
100
AcDbArc
 50
240.0
 51
60.0
  0
ARC
  5
13F
330
1F
100
AcDbEntity
  8
0
100
AcDbCircle
 10
8.034307433439768
 20
-0.7505000000000049
 30
37.73674358422518
 40
4.0
100
AcDbArc
 50
60.00000000000009
 51
240.0
  0
LINE
  5
140
330
1F
100
AcDbEntity
  8
0
100
AcDbLine
 10
10.03430743343976
 20
2.713601615137752
 30
37.73674358422518
 11
10.03430743343976
 21
2.713601615137753
 31
35.42566291060567
  0
ARC
  5
141
330
1F
100
AcDbEntity
  8
0
100
AcDbCircle
 10
8.034307433439768
 20
-0.7505000000000028
 30
34.80129591928996
 40
3.555237845817611
100
AcDbArc
 50
60.00000000000004
 51
330.0
  0
ARC
  5
142
330
1F
100
AcDbEntity
  8
0
100
AcDbCircle
 10
8.034307433439764
 20
-0.7505000000000039
 30
34.80129591928996
 40
3.555237845817614
100
AcDbArc
 50
330.0000000000001
 51
60.0
  0
ARC
  5
143
330
1F
100
AcDbEntity
  8
0
100
AcDbCircle
 10
8.03430743343977
 20
-0.7505000000000037
 30
35.42566291060567
 40
3.999999999999999
100
AcDbArc
 50
330.0
 51
60.00000000000009
  0
ARC
  5
144
330
1F
100
AcDbEntity
  8
0
100
AcDbCircle
 10
8.034307433439766
 20
-0.7505000000000055
 30
35.42566291060567
 40
3.999999999999998
100
AcDbArc
 50
240.0000000000001
 51
330.0000000000001
  0
ARC
  5
145
330
1F
100
AcDbEntity
  8
0
100
AcDbCircle
 10
-10.4638911512211
 20
35.57428713340794
 30
3.367201651179593
 40
0.8818872007777631
210
0.4999999999999999
220
0.8660254037844387
230
-1.957691399907212E-15
100
AcDbArc
 50
189.7023461722178
 51
241.2253058073059
  0
CIRCLE
  5
146
330
1F
100
AcDbEntity
  8
0
100
AcDbCircle
 10
8.034307433439768
 20
-0.750500000000004
 30
34.56872033810779
 40
3.44440969757653
  0
ARC
  5
147
330
1F
100
AcDbEntity
  8
0
100
AcDbCircle
 10
-11.0770208851277
 20
34.56872033810781
 30
3.367201651179744
 40
0.2994468483781947
210
0.500000000000005
220
0.8660254037844357
230
5.417608677010929E-16
100
AcDbArc
 50
359.9999999999986
 51
50.95796185013651
  0
ARC
  5
148
330
1F
100
AcDbEntity
  8
0
100
AcDbCircle
 10
8.034307433439768
 20
-0.7505000000000073
 30
34.46874204489716
 40
3.461592917602927
100
AcDbArc
 50
330.0000000000001
 51
60.00000000000009
  0
ARC
  5
149
330
1F
100
AcDbEntity
  8
0
100
AcDbCircle
 10
-11.07702088512773
 20
34.56872033810779
 30
3.367201651179647
 40
0.2994468483782055
210
0.4999999999999993
220
0.866025403784439
230
-1.920504513208732E-16
100
AcDbArc
 50
340.495761439035
 51
0.0
  0
ARC
  5
14A
330
1F
100
AcDbEntity
  8
0
100
AcDbCircle
 10
8.034307433439771
 20
-0.7505000000000064
 30
34.46874204489715
 40
3.461592917602925
100
AcDbArc
 50
60.00000000000014
 51
240.0
  0
SPLINE
  5
14B
330
1F
100
AcDbEntity
  8
0
100
AcDbSpline
210
-0.8660254037844352
220
0.5000000000000058
230
-5.844956641617763E-15
 70
    12
 71
     3
 72
     9
 73
     5
 74
     0
 42
0.000000001
 43
0.0000000001
 40
-1.306980887064918
 40
-1.306980887064918
 40
-1.306980887064918
 40
-1.306980887064918
 40
-0.6534904435323615
 40
0.0000000000000098
 40
0.0000000000000098
 40
0.0000000000000098
 40
0.0000000000000098
 10
9.776566255375629
 20
2.267180799527999
 30
33.34679424044912
 41
1.0
 10
9.858389001339303
 20
2.408901952751902
 30
33.53720737472389
 41
1.0
 10
10.02203449326666
 20
2.69234425919967
 30
33.91803364327337
 41
1.0
 10
9.85074742591636
 20
2.395666355869489
 30
34.28517257768925
 41
1.0
 10
9.765103892241227
 20
2.247327404204423
 30
34.46874204489716
 41
1.0
  0
SPLINE
  5
14C
330
1F
100
AcDbEntity
  8
0
100
AcDbSpline
210
0.0
220
0.0
230
1.0
 70
    12
 71
     2
 72
     6
 73
     3
 74
     0
 42
0.000000001
 43
0.0000000001
 40
5.437457439829908
 40
5.437457439829908
 40
5.437457439829908
 40
10.87491487965982
 40
10.87491487965982
 40
10.87491487965982
 10
11.0321348376442
 20
-2.481296458801465
 30
34.46874204489716
 41
1.0
 10
9.301338378842733
 20
-5.479123863005896
 30
34.46874204489716
 41
0.7071067811865474
 10
6.303510974638307
 20
-3.748327404204433
 30
34.46874204489714
 41
1.0
  0
CIRCLE
  5
14D
330
1F
100
AcDbEntity
  8
0
100
AcDbCircle
 10
8.034307433439771
 20
-0.7505000000000058
 30
33.18718479873181
 40
3.412959018150526
  0
ARC
  5
14E
330
1F
100
AcDbEntity
  8
0
100
AcDbCircle
 10
-10.95990478822764
 20
33.18718479873181
 30
3.367201651179647
 40
0.2137814309041175
210
0.4999999999999993
220
0.866025403784439
230
-1.920504513208732E-16
100
AcDbArc
 50
0.0
 51
48.29680230113949
  0
ARC
  5
14F
330
1F
100
AcDbEntity
  8
0
100
AcDbCircle
 10
8.034307433439784
 20
-0.7505000000000008
 30
33.03886631278687
 40
3.472779002820793
100
AcDbArc
 50
60.00000000000018
 51
329.9999999999999
  0
ARC
  5
150
330
1F
100
AcDbEntity
  8
0
100
AcDbCircle
 10
8.034307433439782
 20
-0.7505000000000014
 30
33.03886631278686
 40
3.472779002820795
100
AcDbArc
 50
329.9999999999999
 51
60.00000000000016
  0
ARC
  5
151
330
1F
100
AcDbEntity
  8
0
100
AcDbCircle
 10
8.034307433439768
 20
-0.7505000000000063
 30
33.34679424044911
 40
3.484517643871719
100
AcDbArc
 50
330.0000000000001
 51
60.0
  0
ARC
  5
152
330
1F
100
AcDbEntity
  8
0
100
AcDbCircle
 10
8.034307433439771
 20
-0.7505000000000062
 30
33.34679424044911
 40
3.484517643871718
100
AcDbArc
 50
60.00000000000001
 51
240.0
  0
ARC
  5
153
330
1F
100
AcDbEntity
  8
0
100
AcDbCircle
 10
-10.95990478822771
 20
33.18718479873182
 30
3.36720165117939
 40
0.2137814309041462
210
0.4999999999999902
220
0.8660254037844444
230
-4.523853754627271E-15
100
AcDbArc
 50
316.0694731070196
 51
0.0
  0
ARC
  5
154
330
1F
100
AcDbEntity
  8
0
100
AcDbCircle
 10
8.03430743343977
 20
-0.7505000000000077
 30
33.34679424044911
 40
3.484517643871716
100
AcDbArc
 50
240.0000000000001
 51
330.0000000000001
  0
ARC
  5
155
330
1F
100
AcDbEntity
  8
0
100
AcDbCircle
 10
8.034307433439766
 20
-0.7505000000000096
 30
26.56934494853568
 40
3.95799962454371
100
AcDbArc
 50
60.00000000000006
 51
240.0000000000001
  0
ARC
  5
156
330
1F
100
AcDbEntity
  8
0
100
AcDbCircle
 10
8.034307433439778
 20
-0.7505000000000082
 30
26.56934494853569
 40
3.957999624543703
100
AcDbArc
 50
330.0
 51
60.00000000000018
  0
ARC
  5
157
330
1F
100
AcDbEntity
  8
0
100
AcDbCircle
 10
-8.713287982995961
 20
29.62895835215029
 30
3.367201651179655
 40
4.000834756842017
210
0.4999999999999989
220
0.8660254037844392
230
1.635390572448208E-16
100
AcDbArc
 50
121.5373776123396
 51
229.8842009008376
  0
ARC
  5
158
330
1F
100
AcDbEntity
  8
0
100
AcDbCircle
 10
8.034307433439768
 20
-0.7505000000000053
 30
26.56934494853568
 40
3.957999624543713
100
AcDbArc
 50
240.0000000000001
 51
330.0000000000001
  0
SPLINE
  5
159
330
1F
100
AcDbEntity
  8
0
100
AcDbSpline
210
0.866025403784444
220
-0.4999999999999906
230
5.124335207275203E-15
 70
    12
 71
     3
 72
    13
 73
     9
 74
     0
 42
0.000000001
 43
0.0000000001
 40
-1.226478903942297
 40
-1.226478903942297
 40
-1.226478903942297
 40
-1.226478903942297
 40
-1.196271203644868
 40
-1.148858772308957
 40
-0.818871854873292
 40
-0.5591024663397579
 40
-0.2875472732239742
 40
0.0000000000000011
 40
0.0000000000000011
 40
0.0000000000000011
 40
0.0000000000000011
 10
10.0723254974794
 20
2.779450833659793
 30
25.50352681469369
 41
1.0
 10
10.07124201836258
 20
2.77757419278054
 30
25.51341927897709
 41
1.0
 10
10.06845796691742
 20
2.772752074226636
 30
25.53883843939962
 41
1.0
 10
10.03099859171062
 20
2.707870533148659
 30
25.65502099726775
 41
1.0
 10
9.929208359340397
 20
2.531564678969182
 30
25.76051535961192
 41
1.0
 10
9.893791581321041
 20
2.470221019999273
 30
26.06620647779583
 41
1.0
 10
9.937506843308707
 20
2.545938074828099
 30
26.33101885871485
 41
1.0
 10
9.987563188870045
 20
2.632638208581553
 30
26.48840236500472
 41
1.0
 10
10.01330724571162
 20
2.677228223024115
 30
26.56934494853569
 41
1.0
  0
ARC
  5
15A
330
1F
100
AcDbEntity
  8
0
100
AcDbCircle
 10
8.034307433439762
 20
-0.7505000000000119
 30
25.25141862948344
 40
4.318343627094841
100
AcDbArc
 50
330.0000000000002
 51
59.99999999999999
  0
ARC
  5
15B
330
1F
100
AcDbEntity
  8
0
100
AcDbCircle
 10
8.034307433439762
 20
-0.7505000000000123
 30
25.50352681469369
 40
4.076036128079267
100
AcDbArc
 50
330.0000000000001
 51
59.99999999999996
  0
ARC
  5
15C
330
1F
100
AcDbEntity
  8
0
100
AcDbCircle
 10
8.034307433439771
 20
-0.7505000000000086
 30
25.50352681469369
 40
4.076036128079259
100
AcDbArc
 50
60.00000000000005
 51
240.0
  0
ARC
  5
15D
330
1F
100
AcDbEntity
  8
0
100
AcDbCircle
 10
-11.90840458698835
 20
25.74082641342363
 30
3.367201651179635
 40
0.5527348846588831
210
0.4999999999999985
220
0.8660254037844395
230
-1.254706105976468E-16
100
AcDbArc
 50
297.695575326679
 51
334.5756488270613
  0
ARC
  5
15E
330
1F
100
AcDbEntity
  8
0
100
AcDbCircle
 10
8.034307433439775
 20
-0.7505000000000104
 30
25.50352681469369
 40
4.076036128079259
100
AcDbArc
 50
240.0
 51
330.0
  0
ARC
  5
15F
330
1F
100
AcDbEntity
  8
0
100
AcDbCircle
 10
8.034307433439768
 20
-0.7505000000000095
 30
19.23788740156142
 40
4.318343627094837
100
AcDbArc
 50
60.00000000000004
 51
240.0
  0
ARC
  5
160
330
1F
100
AcDbEntity
  8
0
100
AcDbCircle
 10
8.034307433439762
 20
-0.7505000000000089
 30
19.23788740156142
 40
4.318343627094838
100
AcDbArc
 50
240.0000000000001
 51
59.99999999999996
  0
ARC
  5
161
330
1F
100
AcDbEntity
  8
0
100
AcDbCircle
 10
8.034307433439764
 20
-0.7505000000000102
 30
25.25141862948345
 40
4.318343627094839
100
AcDbArc
 50
60.00000000000001
 51
240.0000000000001
  0
LINE
  5
162
330
1F
100
AcDbEntity
  8
0
100
AcDbLine
 10
10.19347924698718
 20
2.989295283334755
 30
25.25141862948344
 11
10.19347924698718
 21
2.989295283334755
 31
19.23788740156142
  0
ARC
  5
163
330
1F
100
AcDbEntity
  8
0
100
AcDbCircle
 10
8.034307433439764
 20
-0.7505000000000113
 30
25.25141862948344
 40
4.318343627094839
100
AcDbArc
 50
240.0000000000001
 51
330.0000000000001
  0
LINE
  5
164
330
1F
100
AcDbEntity
  8
0
100
AcDbLine
 10
6.648488134672819
 20
-3.150809435573811
 30
19.23788740156142
 11
6.648488134672823
 21
-3.150809435573813
 31
37.7367435842252
  0
LINE
  5
165
330
1F
100
AcDbEntity
  8
0
100
AcDbLine
 10
7.642728856779602
 20
-3.724834584121449
 30
28.48731549289331
 11
5.654247412566039
 21
-2.576784287026175
 31
28.48731549289331
  0
LINE
  5
166
330
1F
100
AcDbEntity
  8
0
100
AcDbLine
 10
8.751660288622759
 20
-3.427697302497582
 30
19.23788740156142
 11
8.75166028862276
 21
-3.427697302497584
 31
37.7367435842252
  0
LINE
  5
167
330
1F
100
AcDbEntity
  8
0
100
AcDbLine
 10
9.860591720465917
 20
-3.130560020873718
 30
28.48731549289331
 11
7.642728856779602
 21
-3.724834584121448
 31
28.48731549289331
  0
LINE
  5
168
330
1F
100
AcDbEntity
  8
0
100
AcDbLine
 10
10.43461686901356
 20
-2.136319298766939
 30
37.73674358422519
 11
10.43461686901355
 21
-2.136319298766937
 31
19.23788740156142
  0
LINE
  5
169
330
1F
100
AcDbEntity
  8
0
100
AcDbLine
 10
9.860591720465917
 20
-3.130560020873719
 30
28.48731549289331
 11
11.00864201756119
 21
-1.142078576660156
 31
28.48731549289331
  0
LINE
  5
16A
330
1F
100
AcDbEntity
  8
0
100
AcDbLine
 10
10.71150473593732
 20
-0.0331471448170013
 30
37.73674358422519
 11
10.71150473593732
 21
-0.0331471448169995
 31
19.23788740156142
  0
LINE
  5
16B
330
1F
100
AcDbEntity
  8
0
100
AcDbLine
 10
11.00864201756118
 20
-1.142078576660152
 30
28.48731549289331
 11
10.41436745431346
 21
1.075784287026152
 31
28.48731549289331
  0
LINE
  5
16C
330
1F
100
AcDbEntity
  8
0
100
AcDbLine
 10
9.420126732206684
 20
1.64980943557379
 30
37.73674358422519
 11
9.42012673220668
 21
1.649809435573792
 31
19.23788740156142
  0
LINE
  5
16D
330
1F
100
AcDbEntity
  8
0
100
AcDbLine
 10
10.41436745431346
 20
1.075784287026154
 30
28.48731549289331
 11
8.425886010099902
 21
2.223834584121428
 31
28.48731549289331
  0
LINE
  5
16E
330
1F
100
AcDbEntity
  8
0
100
AcDbLine
 10
7.316954578256752
 20
1.926697302497567
 30
37.73674358422519
 11
7.316954578256748
 21
1.926697302497568
 31
19.23788740156142
  0
LINE
  5
16F
330
1F
100
AcDbEntity
  8
0
100
AcDbLine
 10
8.425886010099902
 20
2.223834584121431
 30
28.48731549289331
 11
6.208023146413598
 21
1.629560020873704
 31
28.48731549289331
  0
LINE
  5
170
330
1F
100
AcDbEntity
  8
0
100
AcDbLine
 10
5.633997997865958
 20
0.6353192987669211
 30
19.23788740156142
 11
5.63399799786596
 21
0.6353192987669193
 31
37.7367435842252
  0
LINE
  5
171
330
1F
100
AcDbEntity
  8
0
100
AcDbLine
 10
5.059972849318321
 20
-0.358921423339863
 30
28.48731549289331
 11
6.208023146413597
 21
1.629560020873704
 31
28.48731549289331
  0
LINE
  5
172
330
1F
100
AcDbEntity
  8
0
100
AcDbLine
 10
5.35711013094218
 20
-1.46785285518302
 30
19.23788740156142
 11
5.357110130942184
 21
-1.467852855183022
 31
37.7367435842252
  0
LINE
  5
173
330
1F
100
AcDbEntity
  8
0
100
AcDbLine
 10
5.654247412566041
 20
-2.576784287026176
 30
28.48731549289331
 11
5.059972849318323
 21
-0.3589214233398662
 31
28.48731549289331
  0
LINE
  5
174
330
1F
100
AcDbEntity
  8
0
100
AcDbLine
 10
4.570205818302012
 20
1.249499999999993
 30
37.73674358422518
 11
5.633997997865967
 21
0.6353192987669256
 31
37.73674358422518
  0
LINE
  5
175
330
1F
100
AcDbEntity
  8
0
100
AcDbLine
 10
10.43461686901356
 20
-2.136319298766928
 30
37.73674358422518
 11
11.49840904857753
 21
-2.750500000000002
 31
37.73674358422518
  0
LINE
  5
176
330
1F
100
AcDbEntity
  8
0
100
AcDbLine
 10
6.034307433439771
 20
-4.214601615137759
 30
37.73674358422518
 11
6.648488134672832
 21
-3.150809435573818
 31
37.73674358422518
  0
LINE
  5
177
330
1F
100
AcDbEntity
  8
0
100
AcDbLine
 10
9.420126732206693
 20
1.649809435573787
 30
37.73674358422518
 11
10.03430743343976
 21
2.713601615137752
 31
37.73674358422518
  0
CIRCLE
  5
178
330
1F
100
AcDbEntity
  8
0
100
AcDbCircle
 10
8.034307433439768
 20
-0.7505000000000043
 30
36.58120324741543
 40
4.0
  0
LINE
  5
179
330
1F
100
AcDbEntity
  8
0
100
AcDbLine
 10
11.49840904857752
 20
-2.7505
 30
37.73674358422518
 11
11.49840904857752
 21
-2.7505
 31
35.42566291060567
  0
LINE
  5
17A
330
1F
100
AcDbEntity
  8
0
100
AcDbLine
 10
6.034307433439771
 20
-4.21460161513776
 30
37.73674358422518
 11
6.034307433439771
 21
-4.21460161513776
 31
35.42566291060567
  0
LINE
  5
17B
330
1F
100
AcDbEntity
  8
0
100
AcDbLine
 10
4.570205818302012
 20
1.249499999999992
 30
37.73674358422518
 11
4.570205818302012
 21
1.249499999999992
 31
35.42566291060567
  0
ARC
  5
17C
330
1F
100
AcDbEntity
  8
0
100
AcDbCircle
 10
0.2364748391315099
 20
35.57428713340791
 30
7.333164339172995
 40
0.8818872007777157
210
0.866025403784439
220
-0.4999999999999993
230
-4.039116577043721E-17
100
AcDbArc
 50
189.7023461722169
 51
241.225305807307
  0
ARC
  5
17D
330
1F
100
AcDbEntity
  8
0
100
AcDbCircle
 10
-4.202437527124854
 20
35.57428713340791
 30
3.367201651179652
 40
0.8818872007777157
210
0.4999999999999993
220
0.866025403784439
230
-2.458173174832790E-19
100
AcDbArc
 50
298.774694192693
 51
350.2976538277831
  0
ARC
  5
17E
330
1F
100
AcDbEntity
  8
0
100
AcDbCircle
 10
6.497928463227796
 20
35.57428713340791
 30
7.333164339173002
 40
0.8818872007777157
210
0.866025403784439
220
-0.4999999999999993
230
1.514134682329527E-16
100
AcDbArc
 50
298.774694192693
 51
350.2976538277831
  0
ARC
  5
17F
330
1F
100
AcDbEntity
  8
0
100
AcDbCircle
 10
-0.3766548947750827
 20
34.56872033810779
 30
7.333164339172995
 40
0.2994468483782055
210
0.866025403784439
220
-0.4999999999999993
230
-4.039116577043721E-17
100
AcDbArc
 50
0.0
 51
50.95796185013796
  0
ARC
  5
180
330
1F
100
AcDbEntity
  8
0
100
AcDbCircle
 10
-3.589307793218261
 20
34.56872033810779
 30
3.367201651179652
 40
0.2994468483782055
210
0.4999999999999993
220
0.866025403784439
230
-2.458173174832790E-19
100
AcDbArc
 50
129.042038149862
 51
180.0
  0
ARC
  5
181
330
1F
100
AcDbEntity
  8
0
100
AcDbCircle
 10
7.111058197134389
 20
34.56872033810779
 30
7.333164339173003
 40
0.2994468483782055
210
0.866025403784439
220
-0.4999999999999993
230
1.514134682329527E-16
100
AcDbArc
 50
129.042038149862
 51
180.0
  0
ARC
  5
182
330
1F
100
AcDbEntity
  8
0
100
AcDbCircle
 10
-0.3766548947750827
 20
34.56872033810779
 30
7.333164339172995
 40
0.2994468483782055
210
0.866025403784439
220
-0.4999999999999993
230
-4.039116577043721E-17
100
AcDbArc
 50
340.4957614390351
 51
0.0
  0
ARC
  5
183
330
1F
100
AcDbEntity
  8
0
100
AcDbCircle
 10
-3.589307793218261
 20
34.56872033810779
 30
3.367201651179652
 40
0.2994468483782055
210
0.4999999999999993
220
0.866025403784439
230
-2.458173174832790E-19
100
AcDbArc
 50
180.0
 51
199.5042385609648
  0
ARC
  5
184
330
1F
100
AcDbEntity
  8
0
100
AcDbCircle
 10
7.111058197134389
 20
34.56872033810779
 30
7.333164339173003
 40
0.2994468483782055
210
0.866025403784439
220
-0.4999999999999993
230
1.514134682329527E-16
100
AcDbArc
 50
180.0
 51
199.5042385609649
  0
SPLINE
  5
185
330
1F
100
AcDbEntity
  8
0
100
AcDbSpline
210
0.4999999999999948
220
0.8660254037844417
230
-3.103979605995877E-15
 70
    12
 71
     3
 72
     9
 73
     5
 74
     0
 42
0.000000001
 43
0.0000000001
 40
-1.306980887064927
 40
-1.306980887064927
 40
-1.306980887064927
 40
-1.306980887064927
 40
-0.6534904435323615
 40
0.0000000000000115
 40
0.0000000000000115
 40
0.0000000000000115
 40
0.0000000000000115
 10
11.05198823296777
 20
-2.492758821935858
 30
33.34679424044911
 41
1.0
 10
11.19370938619167
 20
-2.574581567899543
 30
33.53720737472388
 41
1.0
 10
11.47715169263946
 20
-2.738227059826894
 30
33.91803364327337
 41
1.0
 10
11.18047378930926
 20
-2.566939992476599
 30
34.28517257768925
 41
1.0
 10
11.0321348376442
 20
-2.481296458801464
 30
34.46874204489715
 41
1.0
  0
SPLINE
  5
186
330
1F
100
AcDbEntity
  8
0
100
AcDbSpline
210
0.8660254037844413
220
-0.4999999999999953
230
2.530250967226602E-15
 70
    12
 71
     3
 72
     9
 73
     5
 74
     0
 42
0.000000001
 43
0.0000000001
 40
-1.306980887064927
 40
-1.306980887064927
 40
-1.306980887064927
 40
-1.306980887064927
 40
-0.6534904435323615
 40
0.0000000000000115
 40
0.0000000000000115
 40
0.0000000000000115
 40
0.0000000000000115
 10
6.292048611503917
 20
-3.76818079952801
 30
33.34679424044911
 41
1.0
 10
6.210225865540228
 20
-3.909901952751918
 30
33.53720737472388
 41
1.0
 10
6.046580373612882
 20
-4.19334425919969
 30
33.91803364327337
 41
1.0
 10
6.217867440963175
 20
-3.896666355869499
 30
34.28517257768925
 41
1.0
 10
6.303510974638309
 20
-3.748327404204433
 30
34.46874204489715
 41
1.0
  0
SPLINE
  5
187
330
1F
100
AcDbEntity
  8
0
100
AcDbSpline
210
-0.4999999999999994
220
-0.866025403784439
230
-7.890691466183875E-16
 70
    12
 71
     3
 72
     9
 73
     5
 74
     0
 42
0.000000001
 43
0.0000000001
 40
-1.306980887064927
 40
-1.306980887064927
 40
-1.306980887064927
 40
-1.306980887064927
 40
-0.6534904435323615
 40
0.0000000000000115
 40
0.0000000000000115
 40
0.0000000000000115
 40
0.0000000000000115
 10
5.016626633911772
 20
0.9917588219358464
 30
33.34679424044911
 41
1.0
 10
4.874905480687863
 20
1.073581567899535
 30
33.53720737472388
 41
1.0
 10
4.591463174240093
 20
1.237227059826882
 30
33.91803364327337
 41
1.0
 10
4.888141077570281
 20
1.065939992476585
 30
34.28517257768925
 41
1.0
 10
5.036480029235347
 20
0.9802964588014518
 30
34.46874204489715
 41
1.0
  0
SPLINE
  5
188
330
1F
100
AcDbEntity
  8
0
100
AcDbSpline
210
0.0
220
0.0
230
1.0
 70
    15
 71
     2
 72
    12
 73
     9
 74
     0
 42
0.000000001
 43
0.0000000001
 40
0.0
 40
0.0
 40
0.0
 40
1.570796326794897
 40
1.570796326794897
 40
3.141592653589793
 40
3.141592653589793
 40
4.71238898038469
 40
4.71238898038469
 40
6.283185307179586
 40
6.283185307179586
 40
6.283185307179586
 10
9.938301353447246
 20
2.54731420675518
 30
33.91461180974002
 41
1.0
 10
13.23611556020244
 20
0.6433202867477045
 30
33.91461180974001
 41
0.7071067811865477
 10
11.33212164019496
 20
-2.654493920007482
 30
33.91461180974002
 41
1.0
 10
9.428127720187478
 20
-5.952308126762675
 30
33.91461180974001
 41
0.7071067811865477
 10
6.130313513432293
 20
-4.048314206755199
 30
33.91461180974002
 41
1.0
 10
2.832499306677105
 20
-2.144320286747722
 30
33.91461180974001
 41
0.7071067811865477
 10
4.736493226684584
 20
1.153493920007471
 30
33.91461180974002
 41
1.0
 10
6.640487146692057
 20
4.451308126762655
 30
33.91461180974001
 41
0.7071067811865477
 10
9.938301353447246
 20
2.54731420675518
 30
33.91461180974002
 41
1.0
  0
ARC
  5
189
330
1F
100
AcDbEntity
  8
0
100
AcDbCircle
 10
-0.259538797874991
 20
33.18718479873181
 30
7.333164339172999
 40
0.2137814309041175
210
0.866025403784439
220
-0.4999999999999993
230
-4.039116577043721E-17
100
AcDbArc
 50
0.0
 51
48.29680230113949
  0
ARC
  5
18A
330
1F
100
AcDbEntity
  8
0
100
AcDbCircle
 10
-3.706423890118356
 20
33.18718479873181
 30
3.367201651179653
 40
0.2137814309041175
210
0.4999999999999993
220
0.866025403784439
230
-2.458173174832790E-19
100
AcDbArc
 50
131.7031976988605
 51
180.0
  0
ARC
  5
18B
330
1F
100
AcDbEntity
  8
0
100
AcDbCircle
 10
6.993942100234297
 20
33.18718479873181
 30
7.333164339173004
 40
0.2137814309041175
210
0.866025403784439
220
-0.4999999999999993
230
1.514134682329527E-16
100
AcDbArc
 50
131.7031976988605
 51
180.0
  0
ARC
  5
18C
330
1F
100
AcDbEntity
  8
0
100
AcDbCircle
 10
-0.259538797874991
 20
33.18718479873181
 30
7.333164339172999
 40
0.2137814309041175
210
0.866025403784439
220
-0.4999999999999993
230
-4.039116577043721E-17
100
AcDbArc
 50
316.0694731070145
 51
0.0
  0
ARC
  5
18D
330
1F
100
AcDbEntity
  8
0
100
AcDbCircle
 10
-3.706423890118356
 20
33.18718479873181
 30
3.367201651179653
 40
0.2137814309041175
210
0.4999999999999993
220
0.866025403784439
230
-2.458173174832790E-19
100
AcDbArc
 50
180.0
 51
223.9305268929853
  0
ARC
  5
18E
330
1F
100
AcDbEntity
  8
0
100
AcDbCircle
 10
6.993942100234297
 20
33.18718479873181
 30
7.333164339173004
 40
0.2137814309041175
210
0.866025403784439
220
-0.4999999999999993
230
1.514134682329527E-16
100
AcDbArc
 50
180.0
 51
223.9305268929854
  0
CIRCLE
  5
18F
330
1F
100
AcDbEntity
  8
0
100
AcDbCircle
 10
8.034307433439771
 20
-0.7505000000000055
 30
32.90983669449257
 40
3.669777778032833
  0
CIRCLE
  5
190
330
1F
100
AcDbEntity
  8
0
100
AcDbCircle
 10
8.034307433439771
 20
-0.7505000000000059
 30
29.62895835215027
 40
5.38095840066497
  0
ARC
  5
191
330
1F
100
AcDbEntity
  8
0
100
AcDbCircle
 10
1.987078007356688
 20
29.62895835215028
 30
7.333164339173003
 40
4.000834756842004
210
0.866025403784439
220
-0.4999999999999992
230
2.775557561562891E-17
100
AcDbArc
 50
121.5373776123395
 51
229.8842009008376
  0
ARC
  5
192
330
1F
100
AcDbEntity
  8
0
100
AcDbCircle
 10
-5.953040695350036
 20
29.62895835215028
 30
3.36720165117965
 40
4.000834756842004
210
0.4999999999999992
220
0.866025403784439
230
-5.551115123125782E-17
100
AcDbArc
 50
310.1157990991624
 51
58.46262238766051
  0
ARC
  5
193
330
1F
100
AcDbEntity
  8
0
100
AcDbCircle
 10
4.747325295002619
 20
29.62895835215028
 30
7.333164339173002
 40
4.000834756842004
210
0.866025403784439
220
-0.4999999999999992
230
5.551115123125784E-17
100
AcDbArc
 50
310.1157990991624
 51
58.46262238766051
  0
SPLINE
  5
194
330
1F
100
AcDbEntity
  8
0
100
AcDbSpline
210
-0.5000000000000012
220
-0.8660254037844379
230
-2.871394728214507E-15
 70
    12
 71
     3
 72
    13
 73
     9
 74
     0
 42
0.000000001
 43
0.0000000001
 40
-1.226478903942303
 40
-1.226478903942303
 40
-1.226478903942303
 40
-1.226478903942303
 40
-1.196271203644868
 40
-1.148858772308957
 40
-0.818871854873292
 40
-0.5591024663397579
 40
-0.2875472732239742
 40
0.0000000000000015
 40
0.0000000000000015
 40
0.0000000000000015
 40
0.0000000000000015
 10
11.56425826709957
 20
-2.788518064039637
 30
25.50352681469369
 41
1.0
 10
11.56238162622032
 20
-2.787434584922834
 30
25.51341927897708
 41
1.0
 10
11.55755950766642
 20
-2.784650533477671
 30
25.53883843939961
 41
1.0
 10
11.49267796658844
 20
-2.747191158270862
 30
25.65502099726774
 41
1.0
 10
11.31637211240896
 20
-2.645400925900633
 30
25.76051535961192
 41
1.0
 10
11.25502845343905
 20
-2.60998414788128
 30
26.06620647779583
 41
1.0
 10
11.33074550826788
 20
-2.653699409868949
 30
26.33101885871484
 41
1.0
 10
11.41744564202133
 20
-2.703755755430281
 30
26.48840236500472
 41
1.0
 10
11.4620356564639
 20
-2.729499812271867
 30
26.56934494853569
 41
1.0
  0
SPLINE
  5
195
330
1F
100
AcDbEntity
  8
0
100
AcDbSpline
210
-0.866025403784438
220
0.5000000000000011
230
6.184542491538999E-16
 70
    12
 71
     3
 72
    13
 73
     9
 74
     0
 42
0.000000001
 43
0.0000000001
 40
-1.226478903942303
 40
-1.226478903942303
 40
-1.226478903942303
 40
-1.226478903942303
 40
-1.196271203644868
 40
-1.148858772308957
 40
-0.818871854873292
 40
-0.5591024663397579
 40
-0.2875472732239742
 40
0.0000000000000015
 40
0.0000000000000015
 40
0.0000000000000015
 40
0.0000000000000015
 10
5.996289369400143
 20
-4.28045083365981
 30
25.50352681469369
 41
1.0
 10
5.99737284851695
 20
-4.278574192780566
 30
25.51341927897708
 41
1.0
 10
6.00015689996211
 20
-4.27375207422666
 30
25.53883843939961
 41
1.0
 10
6.037616275168919
 20
-4.208870533148682
 30
25.65502099726774
 41
1.0
 10
6.139406507539146
 20
-4.032564678969205
 30
25.76051535961192
 41
1.0
 10
6.174823285558499
 20
-3.971221019999296
 30
26.06620647779583
 41
1.0
 10
6.131108023570833
 20
-4.046938074828121
 30
26.33101885871485
 41
1.0
 10
6.081051678009497
 20
-4.133638208581579
 30
26.48840236500472
 41
1.0
 10
6.055307621167915
 20
-4.178228223024139
 30
26.56934494853569
 41
1.0
  0
SPLINE
  5
196
330
1F
100
AcDbEntity
  8
0
100
AcDbSpline
210
0.5000000000000009
220
0.8660254037844383
230
-6.626295526648816E-16
 70
    12
 71
     3
 72
    13
 73
     9
 74
     0
 42
0.000000001
 43
0.0000000001
 40
-1.226478903942303
 40
-1.226478903942303
 40
-1.226478903942303
 40
-1.226478903942303
 40
-1.196271203644868
 40
-1.148858772308957
 40
-0.818871854873292
 40
-0.5591024663397579
 40
-0.2875472732239742
 40
0.0000000000000015
 40
0.0000000000000015
 40
0.0000000000000015
 40
0.0000000000000015
 10
4.50435659977997
 20
1.287518064039613
 30
25.50352681469369
 41
1.0
 10
4.506233240659215
 20
1.286434584922808
 30
25.51341927897708
 41
1.0
 10
4.51105535921312
 20
1.283650533477647
 30
25.53883843939961
 41
1.0
 10
4.575936900291101
 20
1.246191158270837
 30
25.65502099726774
 41
1.0
 10
4.752242754470579
 20
1.144400925900609
 30
25.76051535961192
 41
1.0
 10
4.81358641344049
 20
1.108984147881254
 30
26.06620647779583
 41
1.0
 10
4.737869358611661
 20
1.152699409868924
 30
26.33101885871485
 41
1.0
 10
4.651169224858203
 20
1.202755755430258
 30
26.48840236500472
 41
1.0
 10
4.606579210415645
 20
1.228499812271841
 30
26.56934494853569
 41
1.0
  0
SPLINE
  5
197
330
1F
100
AcDbEntity
  8
0
100
AcDbSpline
210
0.0
220
0.0
230
1.0
 70
    15
 71
     2
 72
    12
 73
     9
 74
     0
 42
0.000000001
 43
0.0000000001
 40
0.0
 40
0.0
 40
0.0
 40
1.570796326794897
 40
1.570796326794897
 40
3.141592653589793
 40
3.141592653589793
 40
4.71238898038469
 40
4.71238898038469
 40
6.283185307179586
 40
6.283185307179586
 40
6.283185307179586
 10
10.06841633340654
 20
2.772679962870487
 30
25.53270521256378
 41
0.9999999999999999
 10
13.59159629627704
 20
0.7385710629037117
 30
25.53270521256377
 41
0.7071067811865476
 10
11.55748739631027
 20
-2.784608899966788
 30
25.53270521256378
 41
0.9999999999999999
 10
9.523378496343495
 20
-6.307788862837286
 30
25.53270521256377
 41
0.7071067811865476
 10
6.000198533472995
 20
-4.273679962870512
 30
25.53270521256378
 41
0.9999999999999999
 10
2.477018570602493
 20
-2.239571062903736
 30
25.53270521256377
 41
0.7071067811865476
 10
4.511127470569268
 20
1.283608899966763
 30
25.53270521256378
 41
0.9999999999999999
 10
6.545236370536039
 20
4.806788862837262
 30
25.53270521256377
 41
0.7071067811865476
 10
10.06841633340654
 20
2.772679962870487
 30
25.53270521256378
 41
0.9999999999999999
  0
SPLINE
  5
198
330
1F
100
AcDbEntity
  8
0
100
AcDbSpline
210
0.0
220
0.0
230
1.0
 70
    15
 71
     2
 72
    12
 73
     9
 74
     0
 42
0.000000001
 43
0.0000000001
 40
0.0
 40
0.0
 40
0.0
 40
1.570796326794897
 40
1.570796326794897
 40
3.141592653589793
 40
3.141592653589793
 40
4.71238898038469
 40
4.71238898038469
 40
6.283185307179586
 40
6.283185307179586
 40
6.283185307179586
 10
10.05656322557256
 20
2.752149777874444
 30
25.57376558255587
 41
0.9999999999999999
 10
13.55921300344702
 20
0.7298939857416475
 30
25.57376558255586
 41
0.7071067811865476
 10
11.53695721131423
 20
-2.772755792132808
 30
25.57376558255587
 41
0.9999999999999999
 10
9.51470141918143
 20
-6.275405570007265
 30
25.57376558255586
 41
0.7071067811865476
 10
6.012051641306974
 20
-4.253149777874468
 30
25.57376558255587
 41
0.9999999999999999
 10
2.509401863432517
 20
-2.230893985741671
 30
25.57376558255586
 41
0.7071067811865476
 10
4.531657655565313
 20
1.271755792132784
 30
25.57376558255587
 41
0.9999999999999999
 10
6.553913447698107
 20
4.774405570007239
 30
25.57376558255586
 41
0.7071067811865476
 10
10.05656322557256
 20
2.752149777874444
 30
25.57376558255587
 41
0.9999999999999999
  0
SPLINE
  5
199
330
1F
100
AcDbEntity
  8
0
100
AcDbSpline
210
0.0
220
0.0
230
1.0
 70
    15
 71
     2
 72
    12
 73
     9
 74
     0
 42
0.000000001
 43
0.0000000001
 40
0.0
 40
0.0
 40
0.0
 40
1.570796326794897
 40
1.570796326794897
 40
3.141592653589793
 40
3.141592653589793
 40
4.71238898038469
 40
4.71238898038469
 40
6.283185307179586
 40
6.283185307179586
 40
6.283185307179586
 10
9.939895232061769
 20
2.550074885496626
 30
25.80710156957748
 41
1.0
 10
13.2404701175584
 20
0.6444870868746302
 30
25.80710156957747
 41
0.7071067811865477
 10
11.3348823189364
 20
-2.656087798622009
 30
25.80710156957748
 41
1.0
 10
9.429294520314402
 20
-5.956662684118645
 30
25.80710156957747
 41
0.7071067811865477
 10
6.128719634817771
 20
-4.05107488549665
 30
25.80710156957748
 41
1.0
 10
2.828144749321137
 20
-2.145487086874653
 30
25.80710156957747
 41
0.7071067811865477
 10
4.733732547943135
 20
1.155087798621984
 30
25.80710156957748
 41
1.0
 10
6.639320346565132
 20
4.455662684118622
 30
25.80710156957747
 41
0.7071067811865477
 10
9.939895232061769
 20
2.550074885496626
 30
25.80710156957748
 41
1.0
  0
SPLINE
  5
19A
330
1F
100
AcDbEntity
  8
0
100
AcDbSpline
210
0.0
220
0.0
230
1.0
 70
    15
 71
     2
 72
    12
 73
     9
 74
     0
 42
0.000000001
 43
0.0000000001
 40
0.0
 40
0.0
 40
0.0
 40
1.570796326794897
 40
1.570796326794897
 40
3.141592653589793
 40
3.141592653589793
 40
4.71238898038469
 40
4.71238898038469
 40
6.283185307179586
 40
6.283185307179586
 40
6.283185307179586
 10
9.906278599518204
 20
2.4918491699518
 30
26.05801953084132
 41
1.0
 10
13.14862776947001
 20
0.619878003873369
 30
26.05801953084132
 41
0.7071067811865476
 10
11.27665660339158
 20
-2.622471166078445
 30
26.05801953084132
 41
1.0
 10
9.404685437313141
 20
-5.864820336030254
 30
26.05801953084132
 41
0.7071067811865476
 10
6.162336267361335
 20
-3.992849169951824
 30
26.05801953084132
 41
1.0
 10
2.919987097409528
 20
-2.120878003873391
 30
26.05801953084132
 41
0.7071067811865476
 10
4.791958263487961
 20
1.12147116607842
 30
26.05801953084132
 41
1.0
 10
6.663929429566395
 20
4.363820336030233
 30
26.05801953084132
 41
0.7071067811865476
 10
9.906278599518204
 20
2.4918491699518
 30
26.05801953084132
 41
1.0
  0
SPLINE
  5
19B
330
1F
100
AcDbEntity
  8
0
100
AcDbSpline
210
0.0
220
0.0
230
1.0
 70
    15
 71
     2
 72
    12
 73
     9
 74
     0
 42
0.000000001
 43
0.0000000001
 40
0.0
 40
0.0
 40
0.0
 40
1.570796326794897
 40
1.570796326794897
 40
3.141592653589793
 40
3.141592653589793
 40
4.71238898038469
 40
4.71238898038469
 40
6.283185307179586
 40
6.283185307179586
 40
6.283185307179586
 10
9.94142042740563
 20
2.552716601323664
 30
26.32032170513478
 41
1.0
 10
13.2446370287293
 20
0.6456036073578058
 30
26.32032170513478
 41
0.7071067811865476
 10
11.33752403476345
 20
-2.657612993965873
 30
26.32032170513477
 41
1.0
 10
9.430411040797578
 20
-5.960829595289547
 30
26.32032170513478
 41
0.7071067811865476
 10
6.127194439473907
 20
-4.053716601323689
 30
26.32032170513478
 41
1.0
 10
2.823977838150233
 20
-2.146603607357827
 30
26.32032170513478
 41
0.7071067811865476
 10
4.731090832116094
 20
1.156612993965848
 30
26.32032170513478
 41
1.0
 10
6.638203826081954
 20
4.459829595289524
 30
26.32032170513478
 41
0.7071067811865476
 10
9.94142042740563
 20
2.552716601323664
 30
26.32032170513478
 41
1.0
  0
ARC
  5
19C
330
1F
100
AcDbEntity
  8
0
100
AcDbCircle
 10
-1.208038596635706
 20
25.74082641342364
 30
7.333164339173
 40
0.5527348846588951
210
0.866025403784439
220
-0.4999999999999993
230
-4.039116577043721E-17
100
AcDbArc
 50
297.6955753266794
 51
334.5756488270607
  0
ARC
  5
19D
330
1F
100
AcDbEntity
  8
0
100
AcDbCircle
 10
-2.757924091357645
 20
25.74082641342364
 30
3.367201651179646
 40
0.5527348846588951
210
0.4999999999999993
220
0.866025403784439
230
-2.458173174832790E-19
100
AcDbArc
 50
205.4243511729393
 51
242.3044246733205
  0
ARC
  5
19E
330
1F
100
AcDbEntity
  8
0
100
AcDbCircle
 10
7.942441898995002
 20
25.74082641342364
 30
7.333164339173004
 40
0.5527348846588951
210
0.866025403784439
220
-0.4999999999999993
230
1.514134682329527E-16
100
AcDbArc
 50
205.4243511729392
 51
242.3044246733205
  0
CIRCLE
  5
19F
330
1F
100
AcDbEntity
  8
0
100
AcDbCircle
 10
8.034307433439768
 20
-0.7505000000000113
 30
22.24465301552243
 40
4.318343627094837
  0
LINE
  5
1A0
330
1F
100
AcDbEntity
  8
0
100
AcDbLine
 10
11.77410271677453
 20
-2.909671813547429
 30
25.25141862948344
 11
11.77410271677453
 21
-2.909671813547427
 31
19.23788740156142
  0
LINE
  5
1A1
330
1F
100
AcDbEntity
  8
0
100
AcDbLine
 10
5.875135619892351
 20
-4.490295283334778
 30
25.25141862948344
 11
5.875135619892351
 21
-4.490295283334777
 31
19.23788740156142
  0
LINE
  5
1A2
330
1F
100
AcDbEntity
  8
0
100
AcDbLine
 10
4.294512150105003
 20
1.408671813547404
 30
25.25141862948344
 11
4.294512150105002
 21
1.408671813547405
 31
19.23788740156142
  0
LINE
  5
1A3
330
1F
100
AcDbEntity
  8
0
100
AcDbLine
 10
11.77410271677454
 20
-2.909671813547427
 30
19.23788740156142
 11
10.43461686901356
 21
-2.136319298766933
 31
19.23788740156142
  0
LINE
  5
1A4
330
1F
100
AcDbEntity
  8
0
100
AcDbLine
 10
5.633997997865965
 20
0.6353192987669205
 30
19.23788740156142
 11
4.294512150105003
 21
1.408671813547404
 31
19.23788740156142
  0
LINE
  5
1A5
330
1F
100
AcDbEntity
  8
0
100
AcDbLine
 10
5.875135619892354
 20
-4.490295283334777
 30
19.23788740156142
 11
6.648488134672834
 21
-3.150809435573819
 31
19.23788740156142
  0
LINE
  5
1A6
330
1F
100
AcDbEntity
  8
0
100
AcDbLine
 10
9.420126732206695
 20
1.649809435573785
 30
19.23788740156142
 11
10.19347924698718
 21
2.989295283334754
 31
19.23788740156142
  0
SPLINE
  5
1A7
330
1F
100
AcDbEntity
  8
0
100
AcDbSpline
210
-2.171724664165608E-15
220
-1.0
230
-2.551593814557507E-15
 70
     8
 71
     3
 72
    25
 73
    21
 74
     0
 42
0.000000001
 43
0.0000000001
 40
-114.6399766093876
 40
-114.6399766093876
 40
-114.6399766093876
 40
-114.6399766093876
 40
-112.58169823495
 40
-110.7616161846782
 40
-107.8748159712324
 40
-104.8237814953214
 40
-98.346996035107
 40
-92.23216769958609
 40
-85.0647859284153
 40
-77.08231983773739
 40
-67.41848434707296
 40
-60.1571533922972
 40
-52.68200809745043
 40
-43.13072396029663
 40
-33.516444725592
 40
-25.39502646395592
 40
-15.92485526112194
 40
-8.188094727346382
 40
-2.377007516715403
 40
0.0
 40
0.0
 40
0.0
 40
0.0
 10
23.65694214259178
 20
0.1244999999999863
 30
14.98474882657877
 10
23.58575572592007
 20
0.1244999999999792
 30
14.93611673197313
 10
23.45156094076287
 20
0.1244999999999863
 30
14.8457307630175
 10
23.17431988450421
 20
0.1244999999999793
 30
14.92341069972254
 10
22.88473206695335
 20
0.1244999999999793
 30
15.02254224553156
 10
22.47395763411134
 20
0.1244999999999794
 30
15.31106372784538
 10
21.96714134019676
 20
0.1244999999999867
 30
15.67887176891037
 10
21.45298237008561
 20
0.1244999999999868
 30
16.28683522680153
 10
20.97114297207376
 20
0.1244999999999799
 30
16.98682756468801
 10
20.44685080647182
 20
0.1244999999999801
 30
17.83109732897581
 10
20.0084558604612
 20
0.1244999999999874
 30
18.72685771997078
 10
19.60508487396816
 20
0.1244999999999804
 30
19.61553328100662
 10
19.14478457978534
 20
0.1244999999999806
 30
20.47202755116314
 10
18.52627396900359
 20
0.1244999999999879
 30
21.34687463248688
 10
17.72671173480969
 20
0.124499999999981
 30
22.09888545137015
 10
16.85297237528653
 20
0.1244999999999884
 30
22.74616531924658
 10
15.98192327885371
 20
0.1244999999999886
 30
23.27943746263862
 10
15.11242828229686
 20
0.1244999999999887
 30
23.57752045235202
 10
14.49501887104564
 20
0.1244999999999889
 30
23.77208890880967
 10
11.97880615240958
 20
0.1244999999999893
 30
23.7603812343449
 10
11.97880615240958
 20
0.1244999999999893
 30
23.7603812343449
  0
SPLINE
  5
1A8
330
1F
100
AcDbEntity
  8
0
100
AcDbSpline
210
0.0
220
0.0
230
1.0
 70
    24
 71
     2
 72
     6
 73
     3
 74
     0
 42
0.000000001
 43
0.0000000001
 40
0.0
 40
0.0
 40
0.0
 40
1.75
 40
1.75
 40
1.75
 10
11.97880615240958
 20
0.1244999999999893
 30
23.7603812343449
 10
11.97880615240958
 20
-0.7505000000000115
 30
23.7603812343449
 10
11.97880615240958
 20
-1.625500000000012
 30
23.7603812343449
  0
SPLINE
  5
1A9
330
1F
100
AcDbEntity
  8
0
100
AcDbSpline
210
-2.086970262236550E-15
220
-1.0
230
-2.676017296415267E-15
 70
     8
 71
     3
 72
    25
 73
    21
 74
     0
 42
0.000000001
 43
0.0000000001
 40
0.0
 40
0.0
 40
0.0
 40
0.0
 40
2.377007516715403
 40
8.188094727346382
 40
15.92485526112194
 40
25.39502646395592
 40
33.516444725592
 40
43.13072396029663
 40
52.68200809745043
 40
60.1571533922972
 40
67.41848434707296
 40
77.08231983773739
 40
85.0647859284153
 40
92.23216769958609
 40
98.346996035107
 40
104.8237814953214
 40
107.8748159712324
 40
110.7616161846782
 40
112.58169823495
 40
114.6399766093876
 40
114.6399766093876
 40
114.6399766093876
 40
114.6399766093876
 10
11.97880615240958
 20
-1.625500000000012
 30
23.7603812343449
 10
11.97880615240958
 20
-1.625500000000012
 30
23.7603812343449
 10
14.49501887104564
 20
-1.625500000000012
 30
23.77208890880967
 10
15.11242828229686
 20
-1.625500000000013
 30
23.57752045235202
 10
15.98192327885371
 20
-1.625500000000012
 30
23.27943746263862
 10
16.85297237528653
 20
-1.625500000000013
 30
22.74616531924658
 10
17.72671173480969
 20
-1.62550000000002
 30
22.09888545137015
 10
18.52627396900359
 20
-1.625500000000013
 30
21.34687463248688
 10
19.14478457978534
 20
-1.62550000000002
 30
20.47202755116314
 10
19.60508487396816
 20
-1.62550000000002
 30
19.61553328100662
 10
20.0084558604612
 20
-1.625500000000013
 30
18.72685771997078
 10
20.44685080647182
 20
-1.62550000000002
 30
17.83109732897581
 10
20.97114297207376
 20
-1.62550000000002
 30
16.98682756468801
 10
21.45298237008561
 20
-1.625500000000013
 30
16.28683522680153
 10
21.96714134019676
 20
-1.625500000000013
 30
15.67887176891037
 10
22.47395763411134
 20
-1.62550000000002
 30
15.31106372784538
 10
22.88473206695335
 20
-1.62550000000002
 30
15.02254224553156
 10
23.17431988450421
 20
-1.62550000000002
 30
14.92341069972254
 10
23.45156094076287
 20
-1.625500000000013
 30
14.8457307630175
 10
23.58575572592007
 20
-1.62550000000002
 30
14.93611673197313
 10
23.65694214259178
 20
-1.625500000000013
 30
14.98474882657877
  0
SPLINE
  5
1AA
330
1F
100
AcDbEntity
  8
0
100
AcDbSpline
210
0.0
220
0.0
230
1.0
 70
    24
 71
     2
 72
     6
 73
     3
 74
     0
 42
0.000000001
 43
0.0000000001
 40
-1.75
 40
-1.75
 40
-1.75
 40
0.0
 40
0.0
 40
0.0
 10
23.65694214259178
 20
-1.625500000000013
 30
14.98474882657877
 10
23.65694214259178
 20
-0.7505000000000135
 30
14.98474882657877
 10
23.65694214259178
 20
0.1244999999999863
 30
14.98474882657877
  0
ARC
  5
1AB
330
1F
100
AcDbEntity
  8
0
100
AcDbCircle
 10
-24.45699232569269
 20
13.99150566120338
 30
-1.625500000000024
 40
1.275387110270728
210
3.501669203065250E-16
220
1.0
230
-1.318973981532522E-15
100
AcDbArc
 50
51.1488075564414
 51
254.8609165264645
  0
LINE
  5
1AC
330
1F
100
AcDbEntity
  8
0
100
AcDbLine
 10
24.79007628903692
 20
-1.625500000000017
 30
12.7603812343449
 11
24.79007628903692
 21
0.1244999999999839
 31
12.7603812343449
  0
ARC
  5
1AD
330
1F
100
AcDbEntity
  8
0
100
AcDbCircle
 10
-24.45699232569269
 20
13.99150566120337
 30
0.1244999999999795
 40
1.275387110270725
210
3.092421683022424E-16
220
1.0
230
-9.405270068920250E-16
100
AcDbArc
 50
51.14880755644149
 51
254.8609165264645
  0
SPLINE
  5
1AE
330
1F
100
AcDbEntity
  8
0
100
AcDbSpline
210
0.0
220
0.0
230
1.0
 70
    24
 71
     2
 72
     6
 73
     3
 74
     0
 42
0.000000001
 43
0.0000000001
 40
-1.999999999999978
 40
-1.999999999999978
 40
-1.999999999999978
 40
0.0
 40
0.0
 40
0.0
 10
24.79007628903692
 20
-1.625500000000017
 30
12.7603812343449
 10
23.79007628903693
 20
-1.625500000000016
 30
12.7603812343449
 10
22.79007628903695
 20
-1.625500000000016
 30
12.76038123434491
  0
SPLINE
  5
1AF
330
1F
100
AcDbEntity
  8
0
100
AcDbSpline
210
0.0
220
0.0
230
1.0
 70
    24
 71
     2
 72
     6
 73
     3
 74
     0
 42
0.000000001
 43
0.0000000001
 40
-1.75
 40
-1.75
 40
-1.75
 40
0.0
 40
0.0
 40
0.0
 10
22.79007628903695
 20
-1.625500000000016
 30
12.76038123434491
 10
22.79007628903695
 20
-0.7505000000000159
 30
12.76038123434491
 10
22.79007628903695
 20
0.124499999999984
 30
12.76038123434491
  0
SPLINE
  5
1B0
330
1F
100
AcDbEntity
  8
0
100
AcDbSpline
210
0.0
220
0.0
230
1.0
 70
    24
 71
     2
 72
     6
 73
     3
 74
     0
 42
0.000000001
 43
0.0000000001
 40
0.0
 40
0.0
 40
0.0
 40
1.999999999999971
 40
1.999999999999971
 40
1.999999999999971
 10
22.79007628903695
 20
0.124499999999984
 30
12.76038123434491
 10
23.79007628903693
 20
0.1244999999999839
 30
12.7603812343449
 10
24.79007628903692
 20
0.1244999999999839
 30
12.7603812343449
  0
SPLINE
  5
1B1
330
1F
100
AcDbEntity
  8
0
100
AcDbSpline
210
-2.350542075677211E-15
220
-1.0
230
-2.983523848990467E-15
 70
     8
 71
     3
 72
    24
 73
    20
 74
     0
 42
0.000000001
 43
0.0000000001
 40
0.0
 40
0.0
 40
0.0
 40
0.0
 40
1.961969429764278
 40
2.739087112764722
 40
3.476453788106062
 40
4.176181763098614
 40
4.775513185963493
 40
5.368423345000551
 40
6.045972079965189
 40
6.559894692477542
 40
7.081004931480751
 40
7.746033273097304
 40
8.30840164281085
 40
9.112238104319296
 40
9.82370594476127
 40
10.38630872511861
 40
11.00026063938757
 40
11.45430606960549
 40
13.2073143020778
 40
13.2073143020778
 40
13.2073143020778
 40
13.2073143020778
 10
11.97880615240958
 20
0.1244999999999893
 30
19.51038123434491
 10
12.63799121819931
 20
0.1244999999999822
 30
19.50954131063678
 10
13.55827330376096
 20
0.1244999999999823
 30
19.50836870102843
 10
14.67665246105513
 20
0.1244999999999896
 30
19.18521807770146
 10
15.36423318164596
 20
0.1244999999999897
 30
18.91305772674953
 10
15.95435752912527
 20
0.1244999999999827
 30
18.57377570305552
 10
16.47441722636888
 20
0.1244999999999828
 30
18.21647240375104
 10
16.96127917766132
 20
0.1244999999999829
 30
17.82627282170881
 10
17.39806892672332
 20
0.1244999999999759
 30
17.42239915887204
 10
17.83479624258873
 20
0.1244999999999831
 30
17.05421085202454
 10
18.23517401235923
 20
0.1244999999999831
 30
16.65274048433595
 10
18.65500295362806
 20
0.1244999999999903
 30
16.24830710187813
 10
19.11186073218098
 20
0.1244999999999762
 30
15.74823031165192
 10
19.5674345579497
 20
0.1244999999999834
 30
15.22650790349716
 10
20.00976516837112
 20
0.1244999999999906
 30
14.69372376280067
 10
20.4286200650477
 20
0.1244999999999907
 30
14.22290500347652
 10
20.82672059700299
 20
0.1244999999999908
 30
13.85341244276135
 10
21.52566953265332
 20
0.1244999999999838
 30
13.21763835498304
 10
22.23035891294195
 20
0.1244999999999768
 30
12.962796125338
 10
22.79007628903695
 20
0.124499999999984
 30
12.76038123434491
  0
SPLINE
  5
1B2
330
1F
100
AcDbEntity
  8
0
100
AcDbSpline
210
-2.222752300277140E-15
220
-1.0
230
-3.033786946119339E-15
 70
     8
 71
     3
 72
    24
 73
    20
 74
     0
 42
0.000000001
 43
0.0000000001
 40
-13.2073143020778
 40
-13.2073143020778
 40
-13.2073143020778
 40
-13.2073143020778
 40
-11.45430606960549
 40
-11.00026063938757
 40
-10.38630872511861
 40
-9.82370594476127
 40
-9.112238104319296
 40
-8.30840164281085
 40
-7.746033273097304
 40
-7.081004931480751
 40
-6.559894692477542
 40
-6.045972079965189
 40
-5.368423345000551
 40
-4.775513185963493
 40
-4.176181763098614
 40
-3.476453788106062
 40
-2.739087112764722
 40
-1.961969429764278
 40
0.0
 40
0.0
 40
0.0
 40
0.0
 10
22.79007628903695
 20
-1.625500000000016
 30
12.76038123434491
 10
22.23035891294195
 20
-1.625500000000023
 30
12.962796125338
 10
21.52566953265332
 20
-1.625500000000016
 30
13.21763835498304
 10
20.82672059700299
 20
-1.625500000000009
 30
13.85341244276135
 10
20.4286200650477
 20
-1.625500000000009
 30
14.22290500347652
 10
20.00976516837112
 20
-1.62550000000001
 30
14.69372376280067
 10
19.5674345579497
 20
-1.625500000000017
 30
15.22650790349716
 10
19.11186073218098
 20
-1.625500000000024
 30
15.74823031165192
 10
18.65500295362806
 20
-1.62550000000001
 30
16.24830710187813
 10
18.23517401235923
 20
-1.625500000000018
 30
16.65274048433595
 10
17.83479624258873
 20
-1.625500000000018
 30
17.05421085202454
 10
17.39806892672332
 20
-1.625500000000025
 30
17.42239915887204
 10
16.96127917766132
 20
-1.625500000000018
 30
17.82627282170881
 10
16.47441722636888
 20
-1.625500000000018
 30
18.21647240375104
 10
15.95435752912527
 20
-1.625500000000018
 30
18.57377570305552
 10
15.36423318164596
 20
-1.625500000000011
 30
18.91305772674953
 10
14.67665246105513
 20
-1.625500000000012
 30
19.18521807770146
 10
13.55827330376096
 20
-1.625500000000019
 30
19.50836870102843
 10
12.63799121819931
 20
-1.625500000000019
 30
19.50954131063678
 10
11.97880615240958
 20
-1.625500000000012
 30
19.51038123434491
  0
SPLINE
  5
1B3
330
1F
100
AcDbEntity
  8
0
100
AcDbSpline
210
0.0
220
0.0
230
1.0
 70
    24
 71
     2
 72
     6
 73
     3
 74
     0
 42
0.000000001
 43
0.0000000001
 40
-1.75
 40
-1.75
 40
-1.75
 40
0.0
 40
0.0
 40
0.0
 10
11.97880615240958
 20
-1.625500000000012
 30
19.51038123434491
 10
11.97880615240958
 20
-0.7505000000000116
 30
19.51038123434491
 10
11.97880615240958
 20
0.1244999999999893
 30
19.51038123434491
  0
SPLINE
  5
1B4
330
1F
100
AcDbEntity
  8
0
100
AcDbSpline
210
0.0
220
0.0
230
1.0
 70
    24
 71
     2
 72
     6
 73
     3
 74
     0
 42
0.000000001
 43
0.0000000001
 40
0.0
 40
0.0
 40
0.0
 40
4.249999999999997
 40
4.249999999999997
 40
4.249999999999997
 10
11.97880615240958
 20
0.1244999999999893
 30
23.7603812343449
 10
11.97880615240958
 20
0.1244999999999893
 30
21.6353812343449
 10
11.97880615240958
 20
0.1244999999999893
 30
19.51038123434491
  0
SPLINE
  5
1B5
330
1F
100
AcDbEntity
  8
0
100
AcDbSpline
210
0.0
220
0.0
230
1.0
 70
    24
 71
     2
 72
     6
 73
     3
 74
     0
 42
0.000000001
 43
0.0000000001
 40
0.0
 40
0.0
 40
0.0
 40
4.24999999999999
 40
4.24999999999999
 40
4.24999999999999
 10
11.97880615240958
 20
-1.625500000000012
 30
23.7603812343449
 10
11.97880615240958
 20
-1.625500000000012
 30
21.6353812343449
 10
11.97880615240958
 20
-1.625500000000012
 30
19.51038123434491
  0
SPLINE
  5
1B6
330
1F
100
AcDbEntity
  8
0
100
AcDbSpline
210
-2.008955151751846E-15
220
-1.0
230
-2.673408635436430E-15
 70
     8
 71
     3
 72
    25
 73
    21
 74
     0
 42
0.000000001
 43
0.0000000001
 40
-114.6399766093876
 40
-114.6399766093876
 40
-114.6399766093876
 40
-114.6399766093876
 40
-112.58169823495
 40
-110.7616161846782
 40
-107.8748159712324
 40
-104.8237814953214
 40
-98.346996035107
 40
-92.23216769958609
 40
-85.0647859284153
 40
-77.08231983773739
 40
-67.41848434707296
 40
-60.1571533922972
 40
-52.68200809745043
 40
-43.13072396029663
 40
-33.516444725592
 40
-25.39502646395592
 40
-15.92485526112194
 40
-8.188094727346382
 40
-2.377007516715403
 40
0.0
 40
0.0
 40
0.0
 40
0.0
 10
23.65694214259241
 20
-0.7505000000000084
 30
14.98474882657926
 10
23.5857557259207
 20
-0.7505000000000155
 30
14.93611673197362
 10
23.45156094076349
 20
-0.7505000000000084
 30
14.845730763018
 10
23.17431988450482
 20
-0.7505000000000155
 30
14.92341069972302
 10
22.88473206695395
 20
-0.7505000000000155
 30
15.02254224553204
 10
22.47395763411192
 20
-0.7505000000000155
 30
15.31106372784583
 10
21.96714134019731
 20
-0.7505000000000084
 30
15.67887176891081
 10
21.45298237008613
 20
-0.7505000000000084
 30
16.28683522680194
 10
20.97114297207424
 20
-0.7505000000000155
 30
16.9868275646884
 10
20.44685080647226
 20
-0.7505000000000155
 30
17.83109732897616
 10
20.0084558604616
 20
-0.7505000000000084
 30
18.7268577199711
 10
19.60508487396853
 20
-0.7505000000000155
 30
19.61553328100691
 10
19.14478457978567
 20
-0.7505000000000155
 30
20.4720275511634
 10
18.52627396900387
 20
-0.7505000000000084
 30
21.34687463248711
 10
17.72671173480993
 20
-0.7505000000000155
 30
22.09888545137034
 10
16.85297237528672
 20
-0.7505000000000084
 30
22.74616531924674
 10
15.98192327885386
 20
-0.7505000000000084
 30
23.27943746263873
 10
15.11242828229697
 20
-0.7505000000000084
 30
23.57752045235211
 10
14.49501887104572
 20
-0.7505000000000084
 30
23.77208890880974
 10
11.97880615240958
 20
-0.7505000000000084
 30
23.7603812343449
 10
11.97880615240958
 20
-0.7505000000000084
 30
23.7603812343449
  0
SPLINE
  5
1B7
330
1F
100
AcDbEntity
  8
0
100
AcDbSpline
210
0.0
220
0.0
230
1.0
 70
    24
 71
     2
 72
     6
 73
     3
 74
     0
 42
0.000000001
 43
0.0000000001
 40
0.0
 40
0.0
 40
0.0
 40
1.75
 40
1.75
 40
1.75
 10
23.4363501864264
 20
0.1244999999999886
 30
14.87817957641129
 10
23.4363501864264
 20
-0.7505000000000112
 30
14.87817957641129
 10
23.4363501864264
 20
-1.625500000000011
 30
14.87817957641129
  0
SPLINE
  5
1B8
330
1F
100
AcDbEntity
  8
0
100
AcDbSpline
210
0.0
220
0.0
230
1.0
 70
    24
 71
     2
 72
     6
 73
     3
 74
     0
 42
0.000000001
 43
0.0000000001
 40
0.0
 40
0.0
 40
0.0
 40
1.75
 40
1.75
 40
1.75
 10
23.2206054903754
 20
0.1244999999999861
 30
14.91207422730099
 10
23.2206054903754
 20
-0.7505000000000136
 30
14.91207422730099
 10
23.2206054903754
 20
-1.625500000000013
 30
14.91207422730099
  0
SPLINE
  5
1B9
330
1F
100
AcDbEntity
  8
0
100
AcDbSpline
210
0.0
220
0.0
230
1.0
 70
    24
 71
     2
 72
     6
 73
     3
 74
     0
 42
0.000000001
 43
0.0000000001
 40
0.0
 40
0.0
 40
0.0
 40
1.75
 40
1.75
 40
1.75
 10
22.8968134662984
 20
0.1244999999999842
 30
15.03512730489936
 10
22.8968134662984
 20
-0.7505000000000155
 30
15.03512730489936
 10
22.8968134662984
 20
-1.625500000000015
 30
15.03512730489936
  0
SPLINE
  5
1BA
330
1F
100
AcDbEntity
  8
0
100
AcDbSpline
210
0.0
220
0.0
230
1.0
 70
    24
 71
     2
 72
     6
 73
     3
 74
     0
 42
0.000000001
 43
0.0000000001
 40
0.0
 40
0.0
 40
0.0
 40
1.75
 40
1.75
 40
1.75
 10
22.58798122837031
 20
0.1244999999999846
 30
15.23171412786834
 10
22.58798122837031
 20
-0.7505000000000149
 30
15.23171412786834
 10
22.58798122837031
 20
-1.625500000000015
 30
15.23171412786834
  0
SPLINE
  5
1BB
330
1F
100
AcDbEntity
  8
0
100
AcDbSpline
210
0.0
220
0.0
230
1.0
 70
    24
 71
     2
 72
     6
 73
     3
 74
     0
 42
0.000000001
 43
0.0000000001
 40
0.0
 40
0.0
 40
0.0
 40
1.75
 40
1.75
 40
1.75
 10
21.97666270396617
 20
0.12449999999999
 30
15.71155506186351
 10
21.97666270396617
 20
-0.7505000000000097
 30
15.71155506186351
 10
21.97666270396617
 20
-1.625500000000009
 30
15.71155506186351
  0
SPLINE
  5
1BC
330
1F
100
AcDbEntity
  8
0
100
AcDbSpline
210
0.0
220
0.0
230
1.0
 70
    24
 71
     2
 72
     6
 73
     3
 74
     0
 42
0.000000001
 43
0.0000000001
 40
0.0
 40
0.0
 40
0.0
 40
1.75
 40
1.75
 40
1.75
 10
21.48983690007982
 20
0.1244999999999904
 30
16.26049936022282
 10
21.48983690007982
 20
-0.7505000000000094
 30
16.26049936022282
 10
21.48983690007982
 20
-1.625500000000009
 30
16.26049936022282
  0
SPLINE
  5
1BD
330
1F
100
AcDbEntity
  8
0
100
AcDbSpline
210
0.0
220
0.0
230
1.0
 70
    24
 71
     2
 72
     6
 73
     3
 74
     0
 42
0.000000001
 43
0.0000000001
 40
0.0
 40
0.0
 40
0.0
 40
1.75
 40
1.75
 40
1.75
 10
20.99480010568909
 20
0.1244999999999856
 30
16.96374782424204
 10
20.99480010568909
 20
-0.7505000000000142
 30
16.96374782424204
 10
20.99480010568909
 20
-1.625500000000014
 30
16.96374782424204
  0
SPLINE
  5
1BE
330
1F
100
AcDbEntity
  8
0
100
AcDbSpline
210
0.0
220
0.0
230
1.0
 70
    24
 71
     2
 72
     6
 73
     3
 74
     0
 42
0.000000001
 43
0.0000000001
 40
0.0
 40
0.0
 40
0.0
 40
1.75
 40
1.75
 40
1.75
 10
20.49511730627206
 20
0.1244999999999852
 30
17.78089115648856
 10
20.49511730627206
 20
-0.7505000000000146
 30
17.78089115648856
 10
20.49511730627206
 20
-1.625500000000014
 30
17.78089115648856
  0
SPLINE
  5
1BF
330
1F
100
AcDbEntity
  8
0
100
AcDbSpline
210
0.0
220
0.0
230
1.0
 70
    24
 71
     2
 72
     6
 73
     3
 74
     0
 42
0.000000001
 43
0.0000000001
 40
0.0
 40
0.0
 40
0.0
 40
1.75
 40
1.75
 40
1.75
 10
19.97207075593847
 20
0.1244999999999888
 30
18.815783390388
 10
19.97207075593847
 20
-0.7505000000000108
 30
18.815783390388
 10
19.97207075593847
 20
-1.62550000000001
 30
18.815783390388
  0
SPLINE
  5
1C0
330
1F
100
AcDbEntity
  8
0
100
AcDbSpline
210
0.0
220
0.0
230
1.0
 70
    24
 71
     2
 72
     6
 73
     3
 74
     0
 42
0.000000001
 43
0.0000000001
 40
0.0
 40
0.0
 40
0.0
 40
1.75
 40
1.75
 40
1.75
 10
19.5999587945879
 20
0.1244999999999853
 30
19.60360906510352
 10
19.5999587945879
 20
-0.7505000000000145
 30
19.60360906510352
 10
19.5999587945879
 20
-1.625500000000014
 30
19.60360906510352
  0
SPLINE
  5
1C1
330
1F
100
AcDbEntity
  8
0
100
AcDbSpline
210
0.0
220
0.0
230
1.0
 70
    24
 71
     2
 72
     6
 73
     3
 74
     0
 42
0.000000001
 43
0.0000000001
 40
0.0
 40
0.0
 40
0.0
 40
1.75
 40
1.75
 40
1.75
 10
19.17013510298823
 20
0.1244999999999851
 30
20.39085292170768
 10
19.17013510298823
 20
-0.7505000000000146
 30
20.39085292170768
 10
19.17013510298823
 20
-1.625500000000014
 30
20.39085292170768
  0
SPLINE
  5
1C2
330
1F
100
AcDbEntity
  8
0
100
AcDbSpline
210
0.0
220
0.0
230
1.0
 70
    24
 71
     2
 72
     6
 73
     3
 74
     0
 42
0.000000001
 43
0.0000000001
 40
0.0
 40
0.0
 40
0.0
 40
1.75
 40
1.75
 40
1.75
 10
18.49877120079472
 20
0.1244999999999888
 30
21.31967627221483
 10
18.49877120079472
 20
-0.750500000000011
 30
21.31967627221483
 10
18.49877120079472
 20
-1.625500000000011
 30
21.31967627221483
  0
SPLINE
  5
1C3
330
1F
100
AcDbEntity
  8
0
100
AcDbSpline
210
0.0
220
0.0
230
1.0
 70
    24
 71
     2
 72
     6
 73
     3
 74
     0
 42
0.000000001
 43
0.0000000001
 40
0.0
 40
0.0
 40
0.0
 40
1.75
 40
1.75
 40
1.75
 10
17.66830270815051
 20
0.1244999999999865
 30
22.12039284594693
 10
17.66830270815051
 20
-0.7505000000000133
 30
22.12039284594693
 10
17.66830270815051
 20
-1.625500000000013
 30
22.12039284594693
  0
SPLINE
  5
1C4
330
1F
100
AcDbEntity
  8
0
100
AcDbSpline
210
0.0
220
0.0
230
1.0
 70
    24
 71
     2
 72
     6
 73
     3
 74
     0
 42
0.000000001
 43
0.0000000001
 40
0.0
 40
0.0
 40
0.0
 40
1.75
 40
1.75
 40
1.75
 10
16.88776098363062
 20
0.12449999999999
 30
22.70381175170729
 10
16.88776098363062
 20
-0.7505000000000097
 30
22.70381175170729
 10
16.88776098363062
 20
-1.625500000000009
 30
22.70381175170729
  0
SPLINE
  5
1C5
330
1F
100
AcDbEntity
  8
0
100
AcDbSpline
210
0.0
220
0.0
230
1.0
 70
    24
 71
     2
 72
     6
 73
     3
 74
     0
 42
0.000000001
 43
0.0000000001
 40
0.0
 40
0.0
 40
0.0
 40
1.75
 40
1.75
 40
1.75
 10
15.90467174486535
 20
0.1244999999999913
 30
23.27369255731484
 10
15.90467174486535
 20
-0.7505000000000084
 30
23.27369255731484
 10
15.90467174486535
 20
-1.625500000000008
 30
23.27369255731484
  0
SPLINE
  5
1C6
330
1F
100
AcDbEntity
  8
0
100
AcDbSpline
210
0.0
220
0.0
230
1.0
 70
    24
 71
     2
 72
     6
 73
     3
 74
     0
 42
0.000000001
 43
0.0000000001
 40
0.0
 40
0.0
 40
0.0
 40
1.75
 40
1.75
 40
1.75
 10
15.03528791226172
 20
0.1244999999999913
 30
23.59922342301592
 10
15.03528791226172
 20
-0.7505000000000084
 30
23.59922342301592
 10
15.03528791226172
 20
-1.625500000000008
 30
23.59922342301592
  0
SPLINE
  5
1C7
330
1F
100
AcDbEntity
  8
0
100
AcDbSpline
210
0.0
220
0.0
230
1.0
 70
    24
 71
     2
 72
     6
 73
     3
 74
     0
 42
0.000000001
 43
0.0000000001
 40
0.0
 40
0.0
 40
0.0
 40
1.75
 40
1.75
 40
1.75
 10
13.25442251402439
 20
0.1244999999999913
 30
23.75776113953459
 10
13.25442251402439
 20
-0.7505000000000084
 30
23.75776113953459
 10
13.25442251402439
 20
-1.625500000000008
 30
23.75776113953459
  0
ARC
  5
1C8
330
1F
100
AcDbEntity
  8
0
100
AcDbCircle
 10
-24.45699232569269
 20
13.99150566120337
 30
-0.7505000000000166
 40
1.275387110270728
210
0.0
220
1.0
230
0.0
100
AcDbArc
 50
51.14880755642371
 51
254.8609165264643
  0
LINE
  5
1C9
330
1F
100
AcDbEntity
  8
0
100
AcDbLine
 10
25.73237943596342
 20
0.1244999999999842
 30
13.99150566120337
 11
25.73237943596342
 21
-1.625500000000016
 31
13.99150566120337
  0
LINE
  5
1CA
330
1F
100
AcDbEntity
  8
0
100
AcDbLine
 10
24.45699232569269
 20
0.1244999999999842
 30
15.2668927714741
 11
24.45699232569269
 21
-1.625500000000016
 31
15.2668927714741
  0
LINE
  5
1CB
330
1F
100
AcDbEntity
  8
0
100
AcDbLine
 10
23.79007628903694
 20
-1.625500000000017
 30
12.7603812343449
 11
23.79007628903694
 21
0.1244999999999844
 31
12.7603812343449
  0
LINE
  5
1CC
330
1F
100
AcDbEntity
  8
0
100
AcDbLine
 10
22.79007628903695
 20
-0.7505000000000163
 30
12.7603812343449
 11
24.79007628903693
 21
-0.7505000000000164
 31
12.7603812343449
  0
SPLINE
  5
1CD
330
1F
100
AcDbEntity
  8
0
100
AcDbSpline
210
-2.472108640398136E-15
220
-1.0
230
-2.906845475679089E-15
 70
     8
 71
     3
 72
    24
 73
    20
 74
     0
 42
0.000000001
 43
0.0000000001
 40
0.0
 40
0.0
 40
0.0
 40
0.0
 40
1.961969429764278
 40
2.739087112764722
 40
3.476453788106062
 40
4.176181763098614
 40
4.775513185963493
 40
5.368423345000551
 40
6.045972079965189
 40
6.559894692477542
 40
7.081004931480751
 40
7.746033273097304
 40
8.30840164281085
 40
9.112238104319296
 40
9.82370594476127
 40
10.38630872511861
 40
11.00026063938757
 40
11.45430606960549
 40
13.2073143020778
 40
13.2073143020778
 40
13.2073143020778
 40
13.2073143020778
 10
11.97880615240958
 20
-0.7505000000000084
 30
19.51038123434491
 10
12.63799121819931
 20
-0.7505000000000155
 30
19.50954131063678
 10
13.55827330376096
 20
-0.7505000000000155
 30
19.50836870102843
 10
14.67665246105513
 20
-0.7505000000000084
 30
19.18521807770146
 10
15.36423318164596
 20
-0.7505000000000084
 30
18.91305772674953
 10
15.95435752912527
 20
-0.7505000000000155
 30
18.57377570305552
 10
16.47441722636888
 20
-0.7505000000000155
 30
18.21647240375104
 10
16.96127917766132
 20
-0.7505000000000155
 30
17.82627282170881
 10
17.39806892672332
 20
-0.7505000000000226
 30
17.42239915887204
 10
17.83479624258873
 20
-0.7505000000000155
 30
17.05421085202454
 10
18.23517401235923
 20
-0.7505000000000155
 30
16.65274048433595
 10
18.65500295362806
 20
-0.7505000000000084
 30
16.24830710187813
 10
19.11186073218098
 20
-0.7505000000000226
 30
15.74823031165191
 10
19.5674345579497
 20
-0.7505000000000155
 30
15.22650790349716
 10
20.00976516837112
 20
-0.7505000000000084
 30
14.69372376280066
 10
20.4286200650477
 20
-0.7505000000000084
 30
14.22290500347652
 10
20.82672059700299
 20
-0.7505000000000084
 30
13.85341244276135
 10
21.52566953265332
 20
-0.7505000000000155
 30
13.21763835498304
 10
22.23035891294195
 20
-0.7505000000000226
 30
12.962796125338
 10
22.79007628903695
 20
-0.7505000000000155
 30
12.7603812343449
  0
SPLINE
  5
1CE
330
1F
100
AcDbEntity
  8
0
100
AcDbSpline
210
0.0
220
0.0
230
1.0
 70
    24
 71
     2
 72
     6
 73
     3
 74
     0
 42
0.000000001
 43
0.0000000001
 40
0.0
 40
0.0
 40
0.0
 40
1.75
 40
1.75
 40
1.75
 10
13.93629298364972
 20
0.1244999999999871
 30
19.37783181393515
 10
13.93629298364972
 20
-0.7505000000000127
 30
19.37783181393515
 10
13.93629298364972
 20
-1.625500000000013
 30
19.37783181393515
  0
SPLINE
  5
1CF
330
1F
100
AcDbEntity
  8
0
100
AcDbSpline
210
0.0
220
0.0
230
1.0
 70
    24
 71
     2
 72
     6
 73
     3
 74
     0
 42
0.000000001
 43
0.0000000001
 40
0.0
 40
0.0
 40
0.0
 40
1.75
 40
1.75
 40
1.75
 10
14.68498607512639
 20
0.1244999999999906
 30
19.16957584641662
 10
14.68498607512639
 20
-0.7505000000000093
 30
19.16957584641662
 10
14.68498607512639
 20
-1.625500000000009
 30
19.16957584641662
  0
SPLINE
  5
1D0
330
1F
100
AcDbEntity
  8
0
100
AcDbSpline
210
0.0
220
0.0
230
1.0
 70
    24
 71
     2
 72
     6
 73
     3
 74
     0
 42
0.000000001
 43
0.0000000001
 40
0.0
 40
0.0
 40
0.0
 40
1.75
 40
1.75
 40
1.75
 10
15.36807200839638
 20
0.12449999999999
 30
18.89190117765367
 10
15.36807200839638
 20
-0.7505000000000096
 30
18.89190117765367
 10
15.36807200839638
 20
-1.625500000000009
 30
18.89190117765367
  0
SPLINE
  5
1D1
330
1F
100
AcDbEntity
  8
0
100
AcDbSpline
210
0.0
220
0.0
230
1.0
 70
    24
 71
     2
 72
     6
 73
     3
 74
     0
 42
0.000000001
 43
0.0000000001
 40
0.0
 40
0.0
 40
0.0
 40
1.75
 40
1.75
 40
1.75
 10
15.97783241904885
 20
0.1244999999999852
 30
18.54866440720491
 10
15.97783241904885
 20
-0.7505000000000144
 30
18.54866440720491
 10
15.97783241904885
 20
-1.625500000000014
 30
18.54866440720491
  0
SPLINE
  5
1D2
330
1F
100
AcDbEntity
  8
0
100
AcDbSpline
210
0.0
220
0.0
230
1.0
 70
    24
 71
     2
 72
     6
 73
     3
 74
     0
 42
0.000000001
 43
0.0000000001
 40
0.0
 40
0.0
 40
0.0
 40
1.75
 40
1.75
 40
1.75
 10
16.47181546940563
 20
0.1244999999999842
 30
18.20928423631472
 10
16.47181546940563
 20
-0.7505000000000155
 30
18.20928423631472
 10
16.47181546940563
 20
-1.625500000000015
 30
18.20928423631472
  0
SPLINE
  5
1D3
330
1F
100
AcDbEntity
  8
0
100
AcDbSpline
210
0.0
220
0.0
230
1.0
 70
    24
 71
     2
 72
     6
 73
     3
 74
     0
 42
0.000000001
 43
0.0000000001
 40
0.0
 40
0.0
 40
0.0
 40
1.75
 40
1.75
 40
1.75
 10
16.93492460752711
 20
0.1244999999999831
 30
17.83905135976574
 10
16.93492460752711
 20
-0.7505000000000165
 30
17.83905135976574
 10
16.93492460752711
 20
-1.625500000000016
 30
17.83905135976574
  0
SPLINE
  5
1D4
330
1F
100
AcDbEntity
  8
0
100
AcDbSpline
210
0.0
220
0.0
230
1.0
 70
    24
 71
     2
 72
     6
 73
     3
 74
     0
 42
0.000000001
 43
0.0000000001
 40
0.0
 40
0.0
 40
0.0
 40
1.75
 40
1.75
 40
1.75
 10
17.44206225958118
 20
0.1244999999999796
 30
17.38973667035389
 10
17.44206225958118
 20
-0.75050000000002
 30
17.38973667035389
 10
17.44206225958118
 20
-1.62550000000002
 30
17.38973667035389
  0
SPLINE
  5
1D5
330
1F
100
AcDbEntity
  8
0
100
AcDbSpline
210
0.0
220
0.0
230
1.0
 70
    24
 71
     2
 72
     6
 73
     3
 74
     0
 42
0.000000001
 43
0.0000000001
 40
0.0
 40
0.0
 40
0.0
 40
1.75
 40
1.75
 40
1.75
 10
17.82798654134907
 20
0.1244999999999831
 30
17.0503564994637
 10
17.82798654134907
 20
-0.7505000000000166
 30
17.0503564994637
 10
17.82798654134907
 20
-1.625500000000016
 30
17.0503564994637
  0
SPLINE
  5
1D6
330
1F
100
AcDbEntity
  8
0
100
AcDbSpline
210
0.0
220
0.0
230
1.0
 70
    24
 71
     2
 72
     6
 73
     3
 74
     0
 42
0.000000001
 43
0.0000000001
 40
0.0
 40
0.0
 40
0.0
 40
1.75
 40
1.75
 40
1.75
 10
18.20233312497006
 20
0.1244999999999851
 30
16.68783682203187
 10
18.20233312497006
 20
-0.7505000000000145
 30
16.68783682203187
 10
18.20233312497006
 20
-1.625500000000014
 30
16.68783682203187
  0
SPLINE
  5
1D7
330
1F
100
AcDbEntity
  8
0
100
AcDbSpline
210
0.0
220
0.0
230
1.0
 70
    24
 71
     2
 72
     6
 73
     3
 74
     0
 42
0.000000001
 43
0.0000000001
 40
0.0
 40
0.0
 40
0.0
 40
1.75
 40
1.75
 40
1.75
 10
18.67417876183718
 20
0.1244999999999877
 30
16.21919581857322
 10
18.67417876183718
 20
-0.7505000000000119
 30
16.21919581857322
 10
18.67417876183718
 20
-1.625500000000011
 30
16.21919581857322
  0
SPLINE
  5
1D8
330
1F
100
AcDbEntity
  8
0
100
AcDbSpline
210
0.0
220
0.0
230
1.0
 70
    24
 71
     2
 72
     6
 73
     3
 74
     0
 42
0.000000001
 43
0.0000000001
 40
0.0
 40
0.0
 40
0.0
 40
1.75
 40
1.75
 40
1.75
 10
19.05624378563434
 20
0.1244999999999812
 30
15.80654039228495
 10
19.05624378563434
 20
-0.7505000000000186
 30
15.80654039228495
 10
19.05624378563434
 20
-1.625500000000018
 30
15.80654039228495
  0
SPLINE
  5
1D9
330
1F
100
AcDbEntity
  8
0
100
AcDbSpline
210
0.0
220
0.0
230
1.0
 70
    24
 71
     2
 72
     6
 73
     3
 74
     0
 42
0.000000001
 43
0.0000000001
 40
0.0
 40
0.0
 40
0.0
 40
1.75
 40
1.75
 40
1.75
 10
19.5849600819625
 20
0.1244999999999845
 30
15.20105535130751
 10
19.5849600819625
 20
-0.750500000000015
 30
15.20105535130751
 10
19.5849600819625
 20
-1.625500000000015
 30
15.20105535130751
  0
SPLINE
  5
1DA
330
1F
100
AcDbEntity
  8
0
100
AcDbSpline
210
0.0
220
0.0
230
1.0
 70
    24
 71
     2
 72
     6
 73
     3
 74
     0
 42
0.000000001
 43
0.0000000001
 40
0.0
 40
0.0
 40
0.0
 40
1.75
 40
1.75
 40
1.75
 10
20.0450204237131
 20
0.1244999999999905
 30
14.6583482756843
 10
20.0450204237131
 20
-0.7505000000000093
 30
14.6583482756843
 10
20.0450204237131
 20
-1.625500000000009
 30
14.6583482756843
  0
SPLINE
  5
1DB
330
1F
100
AcDbEntity
  8
0
100
AcDbSpline
210
0.0
220
0.0
230
1.0
 70
    24
 71
     2
 72
     6
 73
     3
 74
     0
 42
0.000000001
 43
0.0000000001
 40
0.0
 40
0.0
 40
0.0
 40
1.75
 40
1.75
 40
1.75
 10
20.42322626530483
 20
0.1244999999999913
 30
14.24183629524233
 10
20.42322626530483
 20
-0.7505000000000084
 30
14.24183629524233
 10
20.42322626530483
 20
-1.625500000000008
 30
14.24183629524233
  0
SPLINE
  5
1DC
330
1F
100
AcDbEntity
  8
0
100
AcDbSpline
210
0.0
220
0.0
230
1.0
 70
    24
 71
     2
 72
     6
 73
     3
 74
     0
 42
0.000000001
 43
0.0000000001
 40
0.0
 40
0.0
 40
0.0
 40
1.75
 40
1.75
 40
1.75
 10
20.86703918933793
 20
0.1244999999999904
 30
13.81761107027838
 10
20.86703918933793
 20
-0.7505000000000093
 30
13.81761107027838
 10
20.86703918933793
 20
-1.625500000000009
 30
13.81761107027838
  0
SPLINE
  5
1DD
330
1F
100
AcDbEntity
  8
0
100
AcDbSpline
210
0.0
220
0.0
230
1.0
 70
    24
 71
     2
 72
     6
 73
     3
 74
     0
 42
0.000000001
 43
0.0000000001
 40
0.0
 40
0.0
 40
0.0
 40
1.75
 40
1.75
 40
1.75
 10
21.21051178495828
 20
0.1244999999999874
 30
13.5206534491275
 10
21.21051178495828
 20
-0.7505000000000124
 30
13.5206534491275
 10
21.21051178495828
 20
-1.625500000000012
 30
13.5206534491275
  0
LINE
  5
1DE
330
1F
100
AcDbEntity
  8
0
100
AcDbLine
 10
11.97880615240958
 20
0.1244999999999913
 30
21.6353812343449
 11
11.97880615240958
 21
-1.625500000000015
 31
21.6353812343449
  0
LINE
  5
1DF
330
1F
100
AcDbEntity
  8
0
100
AcDbLine
 10
11.97880615240958
 20
-0.7505000000000116
 30
19.51038123434491
 11
11.97880615240958
 21
-0.7505000000000116
 31
23.76038123434489
  0
LINE
  5
1E0
330
1F
100
AcDbEntity
  8
0
100
AcDbLine
 10
16.39420637859203
 20
-1.625500000000015
 30
18.26623506811524
 11
20.23810319577276
 21
-1.625500000000016
 31
18.26623506811524
  0
LINE
  5
1E1
330
1F
100
AcDbEntity
  8
0
100
AcDbLine
 10
18.92395449378
 20
-1.625500000000015
 30
15.95285925297651
 11
18.92395449378
 21
-1.625500000000015
 31
20.77025263994868
  0
LINE
  5
1E2
330
1F
100
AcDbEntity
  8
0
100
AcDbLine
 10
16.39420637381478
 20
0.1244999999999845
 30
18.26623507157732
 11
20.23810319402861
 21
0.124499999999984
 31
18.26623507157732
  0
LINE
  5
1E3
330
1F
100
AcDbEntity
  8
0
100
AcDbLine
 10
18.92395449378
 20
0.1244999999999842
 30
15.95285925297651
 11
18.92395449378
 21
0.1244999999999842
 31
20.77025263994868
  0
ENDSEC
  0
SECTION
  2
OBJECTS
  0
DICTIONARY
  5
C
330
0
100
AcDbDictionary
281
     1
  3
ACAD_DETAILVIEWSTYLE
350
229
  3
ACAD_GROUP
350
D
  3
ACAD_LAYOUT
350
1A
  3
ACAD_MATERIAL
350
43
  3
ACAD_MLEADERSTYLE
350
6B
  3
ACAD_MLINESTYLE
350
17
  3
ACAD_PLOTSETTINGS
350
19
  3
ACAD_PLOTSTYLENAME
350
E
  3
ACAD_SCALELIST
350
47
  3
ACAD_SECTIONVIEWSTYLE
350
22A
  3
ACAD_TABLESTYLE
350
69
  3
ACAD_VISUALSTYLE
350
2A
  3
ACDB_RECOMPOSE_DATA
350
226
  3
AcDbVariableDictionary
350
1E6
  0
DICTIONARY
  5
1E4
330
8
100
AcDbDictionary
280
     1
281
     1
  3
ACAD_XREC_ROUNDTRIP
360
1E5
  0
DICTIONARY
  5
229
102
{ACAD_REACTORS
330
C
102
}
330
C
100
AcDbDictionary
281
     1
  0
DICTIONARY
  5
D
102
{ACAD_REACTORS
330
C
102
}
330
C
100
AcDbDictionary
281
     1
  0
DICTIONARY
  5
1A
102
{ACAD_REACTORS
330
C
102
}
330
C
100
AcDbDictionary
281
     1
  3
Layout1
350
1E
  3
Layout2
350
26
  3
Model
350
22
  0
DICTIONARY
  5
43
102
{ACAD_REACTORS
330
C
102
}
330
C
100
AcDbDictionary
281
     1
  3
ByBlock
350
45
  3
ByLayer
350
44
  3
Global
350
46
  0
DICTIONARY
  5
6B
102
{ACAD_REACTORS
330
C
102
}
330
C
100
AcDbDictionary
281
     1
  3
Standard
350
6C
  0
DICTIONARY
  5
17
102
{ACAD_REACTORS
330
C
102
}
330
C
100
AcDbDictionary
281
     1
  3
Standard
350
18
  0
DICTIONARY
  5
19
102
{ACAD_REACTORS
330
C
102
}
330
C
100
AcDbDictionary
281
     1
  0
ACDBDICTIONARYWDFLT
  5
E
102
{ACAD_REACTORS
330
C
102
}
330
C
100
AcDbDictionary
281
     1
  3
Normal
350
F
100
AcDbDictionaryWithDefault
340
F
  0
DICTIONARY
  5
47
102
{ACAD_REACTORS
330
C
102
}
330
C
100
AcDbDictionary
281
     1
  3
A0
350
48
  3
A1
350
49
  3
A2
350
4A
  3
A3
350
4B
  3
A4
350
4C
  3
A5
350
4D
  3
A6
350
4E
  3
A7
350
4F
  3
A8
350
50
  3
A9
350
51
  3
B0
350
52
  3
B1
350
53
  3
B2
350
54
  3
B3
350
55
  3
B4
350
56
  3
B5
350
57
  3
B6
350
58
  3
B7
350
59
  3
B8
350
5A
  3
B9
350
5B
  3
C0
350
5C
  3
C1
350
5D
  3
C2
350
5E
  3
C3
350
5F
  3
C4
350
60
  3
C5
350
61
  3
C6
350
62
  3
C7
350
63
  3
C8
350
64
  3
C9
350
65
  3
D0
350
66
  3
D1
350
67
  3
D2
350
68
  0
DICTIONARY
  5
22A
102
{ACAD_REACTORS
330
C
102
}
330
C
100
AcDbDictionary
281
     1
  0
DICTIONARY
  5
69
102
{ACAD_REACTORS
330
C
102
}
330
C
100
AcDbDictionary
281
     1
  3
Standard
350
6A
  0
DICTIONARY
  5
2A
102
{ACAD_REACTORS
330
C
102
}
330
C
100
AcDbDictionary
281
     1
  3
2dWireframe
350
2F
  3
Basic
350
32
  3
Brighten
350
36
  3
ColorChange
350
3A
  3
Conceptual
350
34
  3
Dim
350
35
  3
EdgeColorOff
350
3D
  3
Facepattern
350
39
  3
Flat
350
2B
  3
FlatWithEdges
350
2C
  3
Gouraud
350
2D
  3
GouraudWithEdges
350
2E
  3
Hidden
350
31
  3
JitterOff
350
3B
  3
Linepattern
350
38
  3
OverhangOff
350
3C
  3
Realistic
350
33
  3
Shaded
350
42
  3
Shaded with edges
350
41
  3
Shades of Gray
350
3E
  3
Sketchy
350
3F
  3
Thicken
350
37
  3
Wireframe
350
30
  3
X-Ray
350
40
  0
XRECORD
  5
226
102
{ACAD_REACTORS
330
C
102
}
330
C
100
AcDbXrecord
280
     1
 90
        1
330
6A
  0
DICTIONARY
  5
1E6
102
{ACAD_REACTORS
330
C
102
}
330
C
100
AcDbDictionary
281
     1
  3
CANNOSCALE
350
1E7
  3
CMLEADERSTYLE
350
228
  3
CTABLESTYLE
350
227
  3
MSLTSCALE
350
1E8
  3
XCLIPFRAME
350
1E9
  0
XRECORD
  5
1E5
102
{ACAD_REACTORS
330
1E4
102
}
330
1E4
100
AcDbXrecord
280
     1
102
VTR_0.000_0.000_1.000_1.000_GRIDDISPLAY
 70
     3
102
VTR_0.000_0.000_1.000_1.000_GRIDMAJOR
 70
     5
102
VTR_0.000_0.000_1.000_1.000_DEFAULTLIGHTING
280
     1
102
VTR_0.000_0.000_1.000_1.000_DEFAULTLIGHTINGTYPE
 70
     1
102
VTR_0.000_0.000_1.000_1.000_BRIGHTNESS
141
0.0
102
VTR_0.000_0.000_1.000_1.000_CONTRAST
142
0.0
  0
LAYOUT
  5
1E
102
{ACAD_REACTORS
330
1A
102
}
330
1A
100
AcDbPlotSettings
  1

  2
none_device
  4

  6

 40
0.0
 41
0.0
 42
0.0
 43
0.0
 44
0.0
 45
0.0
 46
0.0
 47
0.0
 48
0.0
 49
0.0
140
0.0
141
0.0
142
1.0
143
1.0
 70
   688
 72
     0
 73
     0
 74
     5
  7

 75
    16
 76
     0
 77
     2
 78
   300
147
1.0
148
0.0
149
0.0
100
AcDbLayout
  1
Layout1
 70
     1
 71
     1
 10
0.0
 20
0.0
 11
12.0
 21
9.0
 12
0.0
 22
0.0
 32
0.0
 14
1.000000000000000E+20
 24
1.000000000000000E+20
 34
1.000000000000000E+20
 15
-1.000000000000000E+20
 25
-1.000000000000000E+20
 35
-1.000000000000000E+20
146
0.0
 13
0.0
 23
0.0
 33
0.0
 16
1.0
 26
0.0
 36
0.0
 17
0.0
 27
1.0
 37
0.0
 76
     0
330
1B
  0
LAYOUT
  5
26
102
{ACAD_REACTORS
330
1A
102
}
330
1A
100
AcDbPlotSettings
  1

  2
none_device
  4

  6

 40
0.0
 41
0.0
 42
0.0
 43
0.0
 44
0.0
 45
0.0
 46
0.0
 47
0.0
 48
0.0
 49
0.0
140
0.0
141
0.0
142
1.0
143
1.0
 70
   688
 72
     0
 73
     0
 74
     5
  7

 75
    16
 76
     0
 77
     2
 78
   300
147
1.0
148
0.0
149
0.0
100
AcDbLayout
  1
Layout2
 70
     1
 71
     2
 10
0.0
 20
0.0
 11
0.0
 21
0.0
 12
0.0
 22
0.0
 32
0.0
 14
0.0
 24
0.0
 34
0.0
 15
0.0
 25
0.0
 35
0.0
146
0.0
 13
0.0
 23
0.0
 33
0.0
 16
1.0
 26
0.0
 36
0.0
 17
0.0
 27
1.0
 37
0.0
 76
     0
330
23
  0
LAYOUT
  5
22
102
{ACAD_REACTORS
330
1A
102
}
330
1A
100
AcDbPlotSettings
  1

  2
none_device
  4
Letter_(8.50_x_11.00_Inches)
  6

 40
6.35
 41
6.35
 42
6.35000508
 43
6.35000508
 44
215.9
 45
279.4
 46
0.0
 47
0.0
 48
0.0
 49
0.0
140
0.0
141
0.0
142
1.0
143
1.0
 70
  1712
 72
     0
 73
     0
 74
     0
  7

 75
     0
 76
     0
 77
     2
 78
   300
147
1.0
148
0.0
149
0.0
100
AcDbLayout
  1
Model
 70
     1
 71
     0
 10
0.0
 20
0.0
 11
12.0
 21
9.0
 12
0.0
 22
0.0
 32
0.0
 14
-9.66376456908389
 24
-18.44857200252367
 34
12.76038123434489
 15
25.73237943596342
 25
16.94757200252365
 35
37.7367435842252
146
0.0
 13
0.0
 23
0.0
 33
0.0
 16
1.0
 26
0.0
 36
0.0
 17
0.0
 27
1.0
 37
0.0
 76
     0
330
1F
331
29
  0
MATERIAL
  5
45
102
{ACAD_REACTORS
330
43
102
}
102
{ACAD_XDICTIONARY
360
21C
102
}
330
43
100
AcDbMaterial
  1
ByBlock
  0
MATERIAL
  5
44
102
{ACAD_REACTORS
330
43
102
}
102
{ACAD_XDICTIONARY
360
21A
102
}
330
43
100
AcDbMaterial
  1
ByLayer
  0
MATERIAL
  5
46
102
{ACAD_REACTORS
330
43
102
}
102
{ACAD_XDICTIONARY
360
21E
102
}
330
43
100
AcDbMaterial
  1
Global
  0
MLEADERSTYLE
  5
6C
102
{ACAD_REACTORS
330
6B
102
}
102
{ACAD_XDICTIONARY
360
224
102
}
330
6B
100
AcDbMLeaderStyle
170
     2
171
     1
172
     0
 90
        2
 40
0.0
 41
0.0
173
     1
 91
-1056964608
340
14
 92
       -2
290
     1
 42
0.09
291
     1
 43
0.36
  3
Standard
341
0
 44
0.18
300

342
11
174
     1
178
     6
175
     1
176
     0
 93
-1056964608
 45
0.18
292
     0
297
     0
 46
0.18
343
0
 94
-1056964608
 47
1.0
 49
1.0
140
1.0
293
     1
141
0.0
294
     1
177
     0
142
1.0
295
     0
296
     0
143
0.125
1001
ACAD_MLEADERVER
1070
     2
  0
MLINESTYLE
  5
18
102
{ACAD_REACTORS
330
17
102
}
330
17
100
AcDbMlineStyle
  2
Standard
 70
     0
  3

 62
   256
 51
90.0
 52
90.0
 71
     2
 49
0.5
 62
   256
  6
BYLAYER
 49
-0.5
 62
   256
  6
BYLAYER
  0
ACDBPLACEHOLDER
  5
F
102
{ACAD_REACTORS
330
E
102
}
330
E
  0
SCALE
  5
48
102
{ACAD_REACTORS
330
47
102
}
330
47
100
AcDbScale
 70
     0
300
1:1
140
1.0
141
1.0
290
     1
  0
SCALE
  5
49
102
{ACAD_REACTORS
330
47
102
}
330
47
100
AcDbScale
 70
     0
300
1:2
140
1.0
141
2.0
290
     0
  0
SCALE
  5
4A
102
{ACAD_REACTORS
330
47
102
}
330
47
100
AcDbScale
 70
     0
300
1:4
140
1.0
141
4.0
290
     0
  0
SCALE
  5
4B
102
{ACAD_REACTORS
330
47
102
}
330
47
100
AcDbScale
 70
     0
300
1:5
140
1.0
141
5.0
290
     0
  0
SCALE
  5
4C
102
{ACAD_REACTORS
330
47
102
}
330
47
100
AcDbScale
 70
     0
300
1:8
140
1.0
141
8.0
290
     0
  0
SCALE
  5
4D
102
{ACAD_REACTORS
330
47
102
}
330
47
100
AcDbScale
 70
     0
300
1:10
140
1.0
141
10.0
290
     0
  0
SCALE
  5
4E
102
{ACAD_REACTORS
330
47
102
}
330
47
100
AcDbScale
 70
     0
300
1:16
140
1.0
141
16.0
290
     0
  0
SCALE
  5
4F
102
{ACAD_REACTORS
330
47
102
}
330
47
100
AcDbScale
 70
     0
300
1:20
140
1.0
141
20.0
290
     0
  0
SCALE
  5
50
102
{ACAD_REACTORS
330
47
102
}
330
47
100
AcDbScale
 70
     0
300
1:30
140
1.0
141
30.0
290
     0
  0
SCALE
  5
51
102
{ACAD_REACTORS
330
47
102
}
330
47
100
AcDbScale
 70
     0
300
1:40
140
1.0
141
40.0
290
     0
  0
SCALE
  5
52
102
{ACAD_REACTORS
330
47
102
}
330
47
100
AcDbScale
 70
     0
300
1:50
140
1.0
141
50.0
290
     0
  0
SCALE
  5
53
102
{ACAD_REACTORS
330
47
102
}
330
47
100
AcDbScale
 70
     0
300
1:100
140
1.0
141
100.0
290
     0
  0
SCALE
  5
54
102
{ACAD_REACTORS
330
47
102
}
330
47
100
AcDbScale
 70
     0
300
2:1
140
2.0
141
1.0
290
     0
  0
SCALE
  5
55
102
{ACAD_REACTORS
330
47
102
}
330
47
100
AcDbScale
 70
     0
300
4:1
140
4.0
141
1.0
290
     0
  0
SCALE
  5
56
102
{ACAD_REACTORS
330
47
102
}
330
47
100
AcDbScale
 70
     0
300
8:1
140
8.0
141
1.0
290
     0
  0
SCALE
  5
57
102
{ACAD_REACTORS
330
47
102
}
330
47
100
AcDbScale
 70
     0
300
10:1
140
10.0
141
1.0
290
     0
  0
SCALE
  5
58
102
{ACAD_REACTORS
330
47
102
}
330
47
100
AcDbScale
 70
     0
300
100:1
140
100.0
141
1.0
290
     0
  0
SCALE
  5
59
102
{ACAD_REACTORS
330
47
102
}
330
47
100
AcDbScale
 70
     0
300
1/128" = 1'-0"
140
0.0078125
141
12.0
290
     0
  0
SCALE
  5
5A
102
{ACAD_REACTORS
330
47
102
}
330
47
100
AcDbScale
 70
     0
300
1/64" = 1'-0"
140
0.015625
141
12.0
290
     0
  0
SCALE
  5
5B
102
{ACAD_REACTORS
330
47
102
}
330
47
100
AcDbScale
 70
     0
300
1/32" = 1'-0"
140
0.03125
141
12.0
290
     0
  0
SCALE
  5
5C
102
{ACAD_REACTORS
330
47
102
}
330
47
100
AcDbScale
 70
     0
300
1/16" = 1'-0"
140
0.0625
141
12.0
290
     0
  0
SCALE
  5
5D
102
{ACAD_REACTORS
330
47
102
}
330
47
100
AcDbScale
 70
     0
300
3/32" = 1'-0"
140
0.09375
141
12.0
290
     0
  0
SCALE
  5
5E
102
{ACAD_REACTORS
330
47
102
}
330
47
100
AcDbScale
 70
     0
300
1/8" = 1'-0"
140
0.125
141
12.0
290
     0
  0
SCALE
  5
5F
102
{ACAD_REACTORS
330
47
102
}
330
47
100
AcDbScale
 70
     0
300
3/16" = 1'-0"
140
0.1875
141
12.0
290
     0
  0
SCALE
  5
60
102
{ACAD_REACTORS
330
47
102
}
330
47
100
AcDbScale
 70
     0
300
1/4" = 1'-0"
140
0.25
141
12.0
290
     0
  0
SCALE
  5
61
102
{ACAD_REACTORS
330
47
102
}
330
47
100
AcDbScale
 70
     0
300
3/8" = 1'-0"
140
0.375
141
12.0
290
     0
  0
SCALE
  5
62
102
{ACAD_REACTORS
330
47
102
}
330
47
100
AcDbScale
 70
     0
300
1/2" = 1'-0"
140
0.5
141
12.0
290
     0
  0
SCALE
  5
63
102
{ACAD_REACTORS
330
47
102
}
330
47
100
AcDbScale
 70
     0
300
3/4" = 1'-0"
140
0.75
141
12.0
290
     0
  0
SCALE
  5
64
102
{ACAD_REACTORS
330
47
102
}
330
47
100
AcDbScale
 70
     0
300
1" = 1'-0"
140
1.0
141
12.0
290
     0
  0
SCALE
  5
65
102
{ACAD_REACTORS
330
47
102
}
330
47
100
AcDbScale
 70
     0
300
1-1/2" = 1'-0"
140
1.5
141
12.0
290
     0
  0
SCALE
  5
66
102
{ACAD_REACTORS
330
47
102
}
330
47
100
AcDbScale
 70
     0
300
3" = 1'-0"
140
3.0
141
12.0
290
     0
  0
SCALE
  5
67
102
{ACAD_REACTORS
330
47
102
}
330
47
100
AcDbScale
 70
     0
300
6" = 1'-0"
140
6.0
141
12.0
290
     0
  0
SCALE
  5
68
102
{ACAD_REACTORS
330
47
102
}
330
47
100
AcDbScale
 70
     0
300
1'-0" = 1'-0"
140
12.0
141
12.0
290
     0
  0
TABLESTYLE
  5
6A
102
{ACAD_REACTORS
330
69
102
}
102
{ACAD_XDICTIONARY
360
220
102
}
330
69
100
AcDbTableStyle
  3
Standard
 70
     0
 71
     0
 40
0.06
 41
0.06
280
     0
281
     0
  7
Standard
140
0.18
170
     2
 62
     0
 63
   257
283
     0
274
    -2
284
     1
 64
     0
275
    -2
285
     1
 65
     0
276
    -2
286
     1
 66
     0
277
    -2
287
     1
 67
     0
278
    -2
288
     1
 68
     0
279
    -2
289
     1
 69
     0
  7
Standard
140
0.25
170
     5
 62
     0
 63
   257
283
     0
274
    -2
284
     1
 64
     0
275
    -2
285
     1
 65
     0
276
    -2
286
     1
 66
     0
277
    -2
287
     1
 67
     0
278
    -2
288
     1
 68
     0
279
    -2
289
     1
 69
     0
  7
Standard
140
0.18
170
     5
 62
     0
 63
   257
283
     0
274
    -2
284
     1
 64
     0
275
    -2
285
     1
 65
     0
276
    -2
286
     1
 66
     0
277
    -2
287
     1
 67
     0
278
    -2
288
     1
 68
     0
279
    -2
289
     1
 69
     0
  0
VISUALSTYLE
  5
2F
102
{ACAD_REACTORS
330
2A
102
}
102
{ACAD_XDICTIONARY
360
1F2
102
}
330
2A
100
AcDbVisualStyle
  2
2dWireframe
 70
     4
 71
     0
 72
     2
 73
     0
 90
        0
 40
0.6
 41
30.0
 62
     5
 63
     7
421
 16777215
 74
     1
 91
        4
 64
     7
 65
   257
 75
     1
175
     1
 42
1.0
 92
        0
 66
   257
 43
1.0
 76
     1
 77
     6
 78
     2
 67
     7
 79
     5
170
     0
171
     0
290
     0
174
     0
 93
        1
 44
0.0
173
     0
291
     0
 45
0.0
1001
ACAD
1000
AcDbSavedByObjectVersion
1070
     0
  0
VISUALSTYLE
  5
32
102
{ACAD_REACTORS
330
2A
102
}
102
{ACAD_XDICTIONARY
360
1F8
102
}
330
2A
100
AcDbVisualStyle
  2
Basic
 70
     7
 71
     1
 72
     0
 73
     1
 90
        0
 40
0.6
 41
30.0
 62
     5
 63
     7
421
 16777215
 74
     0
 91
        4
 64
     7
 65
   257
 75
     1
175
     1
 42
1.0
 92
        8
 66
     7
 43
1.0
 76
     1
 77
     6
 78
     2
 67
     7
 79
     5
170
     0
171
     0
290
     0
174
     0
 93
        1
 44
0.0
173
     0
291
     1
 45
0.0
1001
ACAD
1000
AcDbSavedByObjectVersion
1070
     0
  0
VISUALSTYLE
  5
36
102
{ACAD_REACTORS
330
2A
102
}
102
{ACAD_XDICTIONARY
360
200
102
}
330
2A
100
AcDbVisualStyle
  2
Brighten
 70
    12
 71
     2
 72
     2
 73
     0
 90
        0
 40
0.6
 41
30.0
 62
     5
 63
     7
421
 16777215
 74
     1
 91
        4
 64
     7
 65
   257
 75
     1
175
     1
 42
1.0
 92
        8
 66
     7
 43
1.0
 76
     1
 77
     6
 78
     2
 67
     7
 79
     5
170
     0
171
     0
290
     0
174
     0
 93
        1
 44
50.0
173
     0
291
     1
 45
0.0
1001
ACAD
1000
AcDbSavedByObjectVersion
1070
     0
  0
VISUALSTYLE
  5
3A
102
{ACAD_REACTORS
330
2A
102
}
102
{ACAD_XDICTIONARY
360
208
102
}
330
2A
100
AcDbVisualStyle
  2
ColorChange
 70
    16
 71
     2
 72
     2
 73
     3
 90
        0
 40
0.6
 41
30.0
 62
     5
 63
     8
421
  8421504
 74
     1
 91
        4
 64
     7
 65
   257
 75
     1
175
     1
 42
1.0
 92
        8
 66
     8
424
  8421504
 43
1.0
 76
     1
 77
     6
 78
     2
 67
     7
 79
     5
170
     0
171
     0
290
     0
174
     0
 93
        1
 44
0.0
173
     0
291
     1
 45
0.0
1001
ACAD
1000
AcDbSavedByObjectVersion
1070
     0
  0
VISUALSTYLE
  5
34
102
{ACAD_REACTORS
330
2A
102
}
102
{ACAD_XDICTIONARY
360
1FC
102
}
330
2A
100
AcDbVisualStyle
  2
Conceptual
 70
     9
 71
     3
 72
     2
 73
     0
 90
        0
 40
0.6
 41
30.0
 62
     5
 63
     7
421
 16777215
 74
     2
 91
        2
 64
     7
 65
   257
 75
     1
175
     1
 42
179.0
 92
        8
 66
     7
 43
1.0
 76
     1
 77
     6
 78
     2
 67
     7
 79
     3
170
     0
171
     0
290
     0
174
     0
 93
        1
 44
0.0
173
     0
291
     0
 45
0.0
1001
ACAD
1000
AcDbSavedByObjectVersion
1070
     0
  0
VISUALSTYLE
  5
35
102
{ACAD_REACTORS
330
2A
102
}
102
{ACAD_XDICTIONARY
360
1FE
102
}
330
2A
100
AcDbVisualStyle
  2
Dim
 70
    11
 71
     2
 72
     2
 73
     0
 90
        0
 40
0.6
 41
30.0
 62
     5
 63
     7
421
 16777215
 74
     1
 91
        4
 64
     7
 65
   257
 75
     1
175
     1
 42
1.0
 92
        8
 66
     7
 43
1.0
 76
     1
 77
     6
 78
     2
 67
     7
 79
     5
170
     0
171
     0
290
     0
174
     0
 93
        1
 44
-50.0
173
     0
291
     1
 45
0.0
1001
ACAD
1000
AcDbSavedByObjectVersion
1070
     0
  0
VISUALSTYLE
  5
3D
102
{ACAD_REACTORS
330
2A
102
}
102
{ACAD_XDICTIONARY
360
20E
102
}
330
2A
100
AcDbVisualStyle
  2
EdgeColorOff
 70
    22
 71
     2
 72
     2
 73
     0
 90
        0
 40
0.6
 41
30.0
 62
     5
 63
     7
421
 16777215
 74
     1
 91
        4
 64
     7
 65
   257
 75
     1
175
     1
 42
1.0
 92
        8
 66
     7
 43
1.0
 76
     1
 77
     6
 78
     2
 67
     7
 79
     5
170
     0
171
     0
290
     0
174
     0
 93
        1
 44
0.0
173
     0
291
     1
 45
0.0
1001
ACAD
1000
AcDbSavedByObjectVersion
1070
     0
  0
VISUALSTYLE
  5
39
102
{ACAD_REACTORS
330
2A
102
}
102
{ACAD_XDICTIONARY
360
206
102
}
330
2A
100
AcDbVisualStyle
  2
Facepattern
 70
    15
 71
     2
 72
     2
 73
     0
 90
        0
 40
0.6
 41
30.0
 62
     5
 63
     7
421
 16777215
 74
     1
 91
        4
 64
     7
 65
   257
 75
     1
175
     1
 42
1.0
 92
        8
 66
     7
 43
1.0
 76
     1
 77
     6
 78
     2
 67
     7
 79
     5
170
     0
171
     0
290
     0
174
     0
 93
        1
 44
0.0
173
     0
291
     1
 45
0.0
1001
ACAD
1000
AcDbSavedByObjectVersion
1070
     0
  0
VISUALSTYLE
  5
2B
102
{ACAD_REACTORS
330
2A
102
}
102
{ACAD_XDICTIONARY
360
1EA
102
}
330
2A
100
AcDbVisualStyle
  2
Flat
 70
     0
 71
     2
 72
     1
 73
     1
 90
        2
 40
0.6
 41
30.0
 62
     5
 63
     7
421
 16777215
 74
     0
 91
        0
 64
     7
 65
   257
 75
     1
175
     1
 42
1.0
 92
        8
 66
     7
 43
1.0
 76
     1
 77
     6
 78
     2
 67
     7
 79
     5
170
     0
171
     0
290
     0
174
     0
 93
       13
 44
0.0
173
     0
291
     1
 45
0.0
1001
ACAD
1000
AcDbSavedByObjectVersion
1070
     0
  0
VISUALSTYLE
  5
2C
102
{ACAD_REACTORS
330
2A
102
}
102
{ACAD_XDICTIONARY
360
1EC
102
}
330
2A
100
AcDbVisualStyle
  2
FlatWithEdges
 70
     1
 71
     2
 72
     1
 73
     1
 90
        2
 40
0.6
 41
30.0
 62
     5
 63
     7
421
 16777215
 74
     1
 91
        0
 64
     7
 65
   257
 75
     1
175
     1
 42
1.0
 92
        0
 66
   257
 43
1.0
 76
     1
 77
     6
 78
     2
 67
     7
 79
     5
170
     0
171
     0
290
     0
174
     0
 93
       13
 44
0.0
173
     0
291
     1
 45
0.0
1001
ACAD
1000
AcDbSavedByObjectVersion
1070
     0
  0
VISUALSTYLE
  5
2D
102
{ACAD_REACTORS
330
2A
102
}
102
{ACAD_XDICTIONARY
360
1EE
102
}
330
2A
100
AcDbVisualStyle
  2
Gouraud
 70
     2
 71
     2
 72
     2
 73
     1
 90
        2
 40
0.6
 41
30.0
 62
     5
 63
     7
421
 16777215
 74
     0
 91
        0
 64
     7
 65
   257
 75
     1
175
     1
 42
1.0
 92
        0
 66
     7
 43
1.0
 76
     1
 77
     6
 78
     2
 67
     7
 79
     5
170
     0
171
     0
290
     0
174
     0
 93
       13
 44
0.0
173
     0
291
     1
 45
0.0
1001
ACAD
1000
AcDbSavedByObjectVersion
1070
     0
  0
VISUALSTYLE
  5
2E
102
{ACAD_REACTORS
330
2A
102
}
102
{ACAD_XDICTIONARY
360
1F0
102
}
330
2A
100
AcDbVisualStyle
  2
GouraudWithEdges
 70
     3
 71
     2
 72
     2
 73
     1
 90
        2
 40
0.6
 41
30.0
 62
     5
 63
     7
421
 16777215
 74
     1
 91
        0
 64
     7
 65
   257
 75
     1
175
     1
 42
1.0
 92
        0
 66
   257
 43
1.0
 76
     1
 77
     6
 78
     2
 67
     7
 79
     5
170
     0
171
     0
290
     0
174
     0
 93
       13
 44
0.0
173
     0
291
     1
 45
0.0
1001
ACAD
1000
AcDbSavedByObjectVersion
1070
     0
  0
VISUALSTYLE
  5
31
102
{ACAD_REACTORS
330
2A
102
}
102
{ACAD_XDICTIONARY
360
1F6
102
}
330
2A
100
AcDbVisualStyle
  2
Hidden
 70
     6
 71
     1
 72
     2
 73
     2
 90
        0
 40
0.6
 41
30.0
 62
     5
 63
     7
421
 16777215
 74
     2
 91
        2
 64
     7
 65
   257
 75
     2
175
     1
 42
40.0
 92
        0
 66
   257
 43
1.0
 76
     1
 77
     6
 78
     2
 67
     7
 79
     3
170
     0
171
     0
290
     0
174
     0
 93
        1
 44
0.0
173
     0
291
     0
 45
0.0
1001
ACAD
1000
AcDbSavedByObjectVersion
1070
     0
  0
VISUALSTYLE
  5
3B
102
{ACAD_REACTORS
330
2A
102
}
102
{ACAD_XDICTIONARY
360
20A
102
}
330
2A
100
AcDbVisualStyle
  2
JitterOff
 70
    20
 71
     2
 72
     2
 73
     0
 90
        0
 40
0.6
 41
30.0
 62
     5
 63
     7
421
 16777215
 74
     1
 91
        4
 64
     7
 65
   257
 75
     1
175
     1
 42
1.0
 92
       10
 66
     7
 43
1.0
 76
     1
 77
     6
 78
     2
 67
     7
 79
     5
170
     0
171
     0
290
     0
174
     0
 93
        1
 44
0.0
173
     0
291
     1
 45
0.0
1001
ACAD
1000
AcDbSavedByObjectVersion
1070
     0
  0
VISUALSTYLE
  5
38
102
{ACAD_REACTORS
330
2A
102
}
102
{ACAD_XDICTIONARY
360
204
102
}
330
2A
100
AcDbVisualStyle
  2
Linepattern
 70
    14
 71
     2
 72
     2
 73
     0
 90
        0
 40
0.6
 41
30.0
 62
     5
 63
     7
421
 16777215
 74
     1
 91
        4
 64
     7
 65
   257
 75
     7
175
     7
 42
1.0
 92
        8
 66
     7
 43
1.0
 76
     1
 77
     6
 78
     2
 67
     7
 79
     5
170
     0
171
     0
290
     0
174
     0
 93
        1
 44
0.0
173
     0
291
     1
 45
0.0
1001
ACAD
1000
AcDbSavedByObjectVersion
1070
     0
  0
VISUALSTYLE
  5
3C
102
{ACAD_REACTORS
330
2A
102
}
102
{ACAD_XDICTIONARY
360
20C
102
}
330
2A
100
AcDbVisualStyle
  2
OverhangOff
 70
    21
 71
     2
 72
     2
 73
     0
 90
        0
 40
0.6
 41
30.0
 62
     5
 63
     7
421
 16777215
 74
     1
 91
        4
 64
     7
 65
   257
 75
     1
175
     1
 42
1.0
 92
        9
 66
     7
 43
1.0
 76
     1
 77
     6
 78
     2
 67
     7
 79
     5
170
     0
171
     0
290
     0
174
     0
 93
        1
 44
0.0
173
     0
291
     1
 45
0.0
1001
ACAD
1000
AcDbSavedByObjectVersion
1070
     0
  0
VISUALSTYLE
  5
33
102
{ACAD_REACTORS
330
2A
102
}
102
{ACAD_XDICTIONARY
360
1FA
102
}
330
2A
100
AcDbVisualStyle
  2
Realistic
 70
     8
 71
     2
 72
     3
 73
     0
 90
        2
 40
0.6
 41
30.0
 62
     5
 63
     7
421
 16777215
 74
     0
 91
        0
 64
     7
 65
   257
 75
     1
175
     1
 42
1.0
 92
        8
 66
   257
 43
1.0
 76
     1
 77
     6
 78
     2
 67
     7
 79
     3
170
     0
171
     0
290
     0
174
     0
 93
       13
 44
0.0
173
     0
291
     0
 45
0.0
1001
ACAD
1000
AcDbSavedByObjectVersion
1070
     0
  0
VISUALSTYLE
  5
42
102
{ACAD_REACTORS
330
2A
102
}
102
{ACAD_XDICTIONARY
360
218
102
}
330
2A
100
AcDbVisualStyle
  2
Shaded
 70
    27
 71
     2
 72
     2
 73
     1
 90
        2
 40
0.6
 41
30.0
 62
     5
 63
     7
421
 16777215
 74
     0
 91
        4
 64
     7
 65
   257
 75
     1
175
     1
 42
1.0
 92
        8
 66
   257
 43
1.0
 76
     1
 77
     6
 78
     2
 67
     8
425
  7895160
 79
     3
170
     0
171
     0
290
     0
174
     0
 93
        5
 44
0.0
173
     0
291
     0
 45
0.0
1001
ACAD
1000
AcDbSavedByObjectVersion
1070
     0
  0
VISUALSTYLE
  5
41
102
{ACAD_REACTORS
330
2A
102
}
102
{ACAD_XDICTIONARY
360
216
102
}
330
2A
100
AcDbVisualStyle
  2
Shaded with edges
 70
    26
 71
     2
 72
     2
 73
     1
 90
        2
 40
0.6
 41
30.0
 62
     5
 63
     7
421
 16777215
 74
     1
 91
       10
 64
     7
 65
   257
 75
     2
175
     1
 42
1.0
 92
        8
 66
   257
 43
1.0
 76
     1
 77
     6
 78
     2
 67
     7
 79
     3
170
     0
171
     0
290
     0
174
     0
 93
        5
 44
0.0
173
     0
291
     0
 45
0.0
1001
ACAD
1000
AcDbSavedByObjectVersion
1070
     0
  0
VISUALSTYLE
  5
3E
102
{ACAD_REACTORS
330
2A
102
}
102
{ACAD_XDICTIONARY
360
210
102
}
330
2A
100
AcDbVisualStyle
  2
Shades of Gray
 70
    23
 71
     2
 72
     2
 73
     3
 90
        0
 40
0.6
 41
30.0
 62
     5
 63
     7
421
 16777215
 74
     2
 91
        2
 64
     7
 65
     7
 75
     1
175
     1
 42
40.0
 92
        8
 66
     7
 43
1.0
 76
     1
 77
     6
 78
     2
 67
     7
 79
     3
170
     0
171
     0
290
     0
174
     0
 93
        1
 44
0.0
173
     0
291
     0
 45
0.0
1001
ACAD
1000
AcDbSavedByObjectVersion
1070
     0
  0
VISUALSTYLE
  5
3F
102
{ACAD_REACTORS
330
2A
102
}
102
{ACAD_XDICTIONARY
360
212
102
}
330
2A
100
AcDbVisualStyle
  2
Sketchy
 70
    24
 71
     1
 72
     2
 73
     2
 90
        0
 40
0.6
 41
30.0
 62
     5
 63
     7
421
 16777215
 74
     2
 91
        2
 64
     7
 65
     7
 75
     1
175
     1
 42
40.0
 92
       11
 66
     7
 43
1.0
 76
     1
 77
     6
 78
     2
 67
     7
 79
     6
170
     0
171
     0
290
     0
174
     0
 93
        1
 44
0.0
173
     0
291
     0
 45
0.0
1001
ACAD
1000
AcDbSavedByObjectVersion
1070
     0
  0
VISUALSTYLE
  5
37
102
{ACAD_REACTORS
330
2A
102
}
102
{ACAD_XDICTIONARY
360
202
102
}
330
2A
100
AcDbVisualStyle
  2
Thicken
 70
    13
 71
     2
 72
     2
 73
     0
 90
        0
 40
0.6
 41
30.0
 62
     5
 63
     7
421
 16777215
 74
     1
 91
        4
 64
     7
 65
   257
 75
     1
175
     1
 42
1.0
 92
       12
 66
     7
 43
1.0
 76
     1
 77
     6
 78
     2
 67
     7
 79
     5
170
     0
171
     0
290
     0
174
     0
 93
        1
 44
0.0
173
     0
291
     1
 45
0.0
1001
ACAD
1000
AcDbSavedByObjectVersion
1070
     0
  0
VISUALSTYLE
  5
30
102
{ACAD_REACTORS
330
2A
102
}
102
{ACAD_XDICTIONARY
360
1F4
102
}
330
2A
100
AcDbVisualStyle
  2
Wireframe
 70
     5
 71
     0
 72
     2
 73
     0
 90
        0
 40
0.6
 41
30.0
 62
     5
 63
     7
421
 16777215
 74
     1
 91
        4
 64
     7
 65
   257
 75
     1
175
     1
 42
1.0
 92
        0
 66
   257
 43
1.0
 76
     1
 77
     6
 78
     2
 67
     7
 79
     3
170
     0
171
     0
290
     0
174
     0
 93
        1
 44
0.0
173
     0
291
     0
 45
0.0
1001
ACAD
1000
AcDbSavedByObjectVersion
1070
     0
  0
VISUALSTYLE
  5
40
102
{ACAD_REACTORS
330
2A
102
}
102
{ACAD_XDICTIONARY
360
214
102
}
330
2A
100
AcDbVisualStyle
  2
X-Ray
 70
    25
 71
     2
 72
     2
 73
     1
 90
        1
 40
0.5
 41
30.0
 62
     5
 63
     7
421
 16777215
 74
     1
 91
        0
 64
     7
 65
   257
 75
     1
175
     1
 42
1.0
 92
        8
 66
     7
 43
1.0
 76
     1
 77
     6
 78
     2
 67
     7
 79
     3
170
     0
171
     0
290
     0
174
     0
 93
       13
 44
0.0
173
     0
291
     0
 45
0.0
1001
ACAD
1000
AcDbSavedByObjectVersion
1070
     0
  0
DICTIONARYVAR
  5
1E7
102
{ACAD_REACTORS
330
1E6
102
}
330
1E6
100
DictionaryVariables
280
     0
  1
1:1
  0
DICTIONARYVAR
  5
228
102
{ACAD_REACTORS
330
1E6
102
}
330
1E6
100
DictionaryVariables
280
     0
  1
Standard
  0
DICTIONARYVAR
  5
227
102
{ACAD_REACTORS
330
1E6
102
}
330
1E6
100
DictionaryVariables
280
     0
  1
Standard
  0
DICTIONARYVAR
  5
1E8
102
{ACAD_REACTORS
330
1E6
102
}
330
1E6
100
DictionaryVariables
280
     0
  1
1
  0
DICTIONARYVAR
  5
1E9
102
{ACAD_REACTORS
330
1E6
102
}
330
1E6
100
DictionaryVariables
280
     0
  1
2
  0
DICTIONARY
  5
21C
330
45
100
AcDbDictionary
280
     1
281
     1
  3
ACAD_XREC_ROUNDTRIP
360
21D
  0
DICTIONARY
  5
21A
330
44
100
AcDbDictionary
280
     1
281
     1
  3
ACAD_XREC_ROUNDTRIP
360
21B
  0
DICTIONARY
  5
21E
330
46
100
AcDbDictionary
280
     1
281
     1
  3
ACAD_XREC_ROUNDTRIP
360
21F
  0
DICTIONARY
  5
224
330
6C
100
AcDbDictionary
280
     1
281
     1
  3
ACAD_XREC_ROUNDTRIP
360
225
  0
DICTIONARY
  5
220
330
6A
100
AcDbDictionary
280
     1
281
     1
  3
ACAD_ROUNDTRIP_2008_TABLESTYLE_CELLSTYLEMAP
360
222
  3
ACAD_XREC_ROUNDTRIP
360
221
  0
DICTIONARY
  5
1F2
330
2F
100
AcDbDictionary
280
     1
281
     1
  3
ACAD_XREC_ROUNDTRIP
360
1F3
  0
DICTIONARY
  5
1F8
330
32
100
AcDbDictionary
280
     1
281
     1
  3
ACAD_XREC_ROUNDTRIP
360
1F9
  0
DICTIONARY
  5
200
330
36
100
AcDbDictionary
280
     1
281
     1
  3
ACAD_XREC_ROUNDTRIP
360
201
  0
DICTIONARY
  5
208
330
3A
100
AcDbDictionary
280
     1
281
     1
  3
ACAD_XREC_ROUNDTRIP
360
209
  0
DICTIONARY
  5
1FC
330
34
100
AcDbDictionary
280
     1
281
     1
  3
ACAD_XREC_ROUNDTRIP
360
1FD
  0
DICTIONARY
  5
1FE
330
35
100
AcDbDictionary
280
     1
281
     1
  3
ACAD_XREC_ROUNDTRIP
360
1FF
  0
DICTIONARY
  5
20E
330
3D
100
AcDbDictionary
280
     1
281
     1
  3
ACAD_XREC_ROUNDTRIP
360
20F
  0
DICTIONARY
  5
206
330
39
100
AcDbDictionary
280
     1
281
     1
  3
ACAD_XREC_ROUNDTRIP
360
207
  0
DICTIONARY
  5
1EA
330
2B
100
AcDbDictionary
280
     1
281
     1
  3
ACAD_XREC_ROUNDTRIP
360
1EB
  0
DICTIONARY
  5
1EC
330
2C
100
AcDbDictionary
280
     1
281
     1
  3
ACAD_XREC_ROUNDTRIP
360
1ED
  0
DICTIONARY
  5
1EE
330
2D
100
AcDbDictionary
280
     1
281
     1
  3
ACAD_XREC_ROUNDTRIP
360
1EF
  0
DICTIONARY
  5
1F0
330
2E
100
AcDbDictionary
280
     1
281
     1
  3
ACAD_XREC_ROUNDTRIP
360
1F1
  0
DICTIONARY
  5
1F6
330
31
100
AcDbDictionary
280
     1
281
     1
  3
ACAD_XREC_ROUNDTRIP
360
1F7
  0
DICTIONARY
  5
20A
330
3B
100
AcDbDictionary
280
     1
281
     1
  3
ACAD_XREC_ROUNDTRIP
360
20B
  0
DICTIONARY
  5
204
330
38
100
AcDbDictionary
280
     1
281
     1
  3
ACAD_XREC_ROUNDTRIP
360
205
  0
DICTIONARY
  5
20C
330
3C
100
AcDbDictionary
280
     1
281
     1
  3
ACAD_XREC_ROUNDTRIP
360
20D
  0
DICTIONARY
  5
1FA
330
33
100
AcDbDictionary
280
     1
281
     1
  3
ACAD_XREC_ROUNDTRIP
360
1FB
  0
DICTIONARY
  5
218
330
42
100
AcDbDictionary
280
     1
281
     1
  3
ACAD_XREC_ROUNDTRIP
360
219
  0
DICTIONARY
  5
216
330
41
100
AcDbDictionary
280
     1
281
     1
  3
ACAD_XREC_ROUNDTRIP
360
217
  0
DICTIONARY
  5
210
330
3E
100
AcDbDictionary
280
     1
281
     1
  3
ACAD_XREC_ROUNDTRIP
360
211
  0
DICTIONARY
  5
212
330
3F
100
AcDbDictionary
280
     1
281
     1
  3
ACAD_XREC_ROUNDTRIP
360
213
  0
DICTIONARY
  5
202
330
37
100
AcDbDictionary
280
     1
281
     1
  3
ACAD_XREC_ROUNDTRIP
360
203
  0
DICTIONARY
  5
1F4
330
30
100
AcDbDictionary
280
     1
281
     1
  3
ACAD_XREC_ROUNDTRIP
360
1F5
  0
DICTIONARY
  5
214
330
40
100
AcDbDictionary
280
     1
281
     1
  3
ACAD_XREC_ROUNDTRIP
360
215
  0
XRECORD
  5
21D
102
{ACAD_REACTORS
330
21C
102
}
330
21C
100
AcDbXrecord
280
     1
102
MATERIAL
148
0.0
149
0.0
149
0.0
 93
        0
 94
      127
282
     0
 72
     1
 77
     1
171
     1
175
     1
179
     1
273
     0
  0
XRECORD
  5
21B
102
{ACAD_REACTORS
330
21A
102
}
330
21A
100
AcDbXrecord
280
     1
102
MATERIAL
148
0.0
149
0.0
149
0.0
 93
        0
 94
      127
282
     0
 72
     1
 77
     1
171
     1
175
     1
179
     1
273
     0
  0
XRECORD
  5
21F
102
{ACAD_REACTORS
330
21E
102
}
330
21E
100
AcDbXrecord
280
     1
102
MATERIAL
148
0.0
149
0.0
149
0.0
 93
        0
 94
      127
282
     0
 72
     1
 77
     1
171
     1
175
     1
179
     1
273
     0
  0
XRECORD
  5
225
102
{ACAD_REACTORS
330
224
102
}
330
224
100
AcDbXrecord
280
     1
102
ACAD_ROUNDTRIP_2010_MLEADER_STYLE
  0
CELLSTYLEMAP
  5
222
102
{ACAD_REACTORS
330
220
102
}
330
220
100
AcDbCellStyleMap
 90
        3
300
CELLSTYLE
  1
TABLEFORMAT_BEGIN
 90
        5
170
     1
 91
        0
 92
    32768
 62
   257
 93
        1
300
CONTENTFORMAT
  1
CONTENTFORMAT_BEGIN
 90
        0
 91
        0
 92
        4
 93
        0
300

 40
0.0
140
1.0
 94
        5
 62
     0
340
11
144
0.25
309
CONTENTFORMAT_END
171
     1
301
MARGIN
  1
CELLMARGIN_BEGIN
 40
0.06
 40
0.06
 40
0.06
 40
0.06
 40
0.06
 40
0.06
309
CELLMARGIN_END
 94
        6
 95
        1
302
GRIDFORMAT
  1
GRIDFORMAT_BEGIN
 90
        0
 91
        1
 62
     0
 92
       -2
340
14
 93
        0
 40
0.045
309
GRIDFORMAT_END
 95
        2
302
GRIDFORMAT
  1
GRIDFORMAT_BEGIN
 90
        0
 91
        1
 62
     0
 92
       -2
340
14
 93
        0
 40
0.045
309
GRIDFORMAT_END
 95
        4
302
GRIDFORMAT
  1
GRIDFORMAT_BEGIN
 90
        0
 91
        1
 62
     0
 92
       -2
340
14
 93
        0
 40
0.045
309
GRIDFORMAT_END
 95
        8
302
GRIDFORMAT
  1
GRIDFORMAT_BEGIN
 90
        0
 91
        1
 62
     0
 92
       -2
340
14
 93
        0
 40
0.045
309
GRIDFORMAT_END
 95
       16
302
GRIDFORMAT
  1
GRIDFORMAT_BEGIN
 90
        0
 91
        1
 62
     0
 92
       -2
340
14
 93
        0
 40
0.045
309
GRIDFORMAT_END
 95
       32
302
GRIDFORMAT
  1
GRIDFORMAT_BEGIN
 90
        0
 91
        1
 62
     0
 92
       -2
340
14
 93
        0
 40
0.045
309
GRIDFORMAT_END
309
TABLEFORMAT_END
  1
CELLSTYLE_BEGIN
 90
        1
 91
        1
300
_TITLE
309
CELLSTYLE_END
300
CELLSTYLE
  1
TABLEFORMAT_BEGIN
 90
        5
170
     1
 91
        0
 92
        0
 62
   257
 93
        1
300
CONTENTFORMAT
  1
CONTENTFORMAT_BEGIN
 90
        0
 91
        0
 92
        4
 93
        0
300

 40
0.0
140
1.0
 94
        5
 62
     0
340
11
144
0.18
309
CONTENTFORMAT_END
171
     1
301
MARGIN
  1
CELLMARGIN_BEGIN
 40
0.06
 40
0.06
 40
0.06
 40
0.06
 40
0.06
 40
0.06
309
CELLMARGIN_END
 94
        6
 95
        1
302
GRIDFORMAT
  1
GRIDFORMAT_BEGIN
 90
        0
 91
        1
 62
     0
 92
       -2
340
14
 93
        0
 40
0.045
309
GRIDFORMAT_END
 95
        2
302
GRIDFORMAT
  1
GRIDFORMAT_BEGIN
 90
        0
 91
        1
 62
     0
 92
       -2
340
14
 93
        0
 40
0.045
309
GRIDFORMAT_END
 95
        4
302
GRIDFORMAT
  1
GRIDFORMAT_BEGIN
 90
        0
 91
        1
 62
     0
 92
       -2
340
14
 93
        0
 40
0.045
309
GRIDFORMAT_END
 95
        8
302
GRIDFORMAT
  1
GRIDFORMAT_BEGIN
 90
        0
 91
        1
 62
     0
 92
       -2
340
14
 93
        0
 40
0.045
309
GRIDFORMAT_END
 95
       16
302
GRIDFORMAT
  1
GRIDFORMAT_BEGIN
 90
        0
 91
        1
 62
     0
 92
       -2
340
14
 93
        0
 40
0.045
309
GRIDFORMAT_END
 95
       32
302
GRIDFORMAT
  1
GRIDFORMAT_BEGIN
 90
        0
 91
        1
 62
     0
 92
       -2
340
14
 93
        0
 40
0.045
309
GRIDFORMAT_END
309
TABLEFORMAT_END
  1
CELLSTYLE_BEGIN
 90
        2
 91
        1
300
_HEADER
309
CELLSTYLE_END
300
CELLSTYLE
  1
TABLEFORMAT_BEGIN
 90
        5
170
     1
 91
        0
 92
        0
 62
   257
 93
        1
300
CONTENTFORMAT
  1
CONTENTFORMAT_BEGIN
 90
        0
 91
        0
 92
        4
 93
        0
300

 40
0.0
140
1.0
 94
        2
 62
     0
340
11
144
0.18
309
CONTENTFORMAT_END
171
     1
301
MARGIN
  1
CELLMARGIN_BEGIN
 40
0.06
 40
0.06
 40
0.06
 40
0.06
 40
0.06
 40
0.06
309
CELLMARGIN_END
 94
        6
 95
        1
302
GRIDFORMAT
  1
GRIDFORMAT_BEGIN
 90
        0
 91
        1
 62
     0
 92
       -2
340
14
 93
        0
 40
0.045
309
GRIDFORMAT_END
 95
        2
302
GRIDFORMAT
  1
GRIDFORMAT_BEGIN
 90
        0
 91
        1
 62
     0
 92
       -2
340
14
 93
        0
 40
0.045
309
GRIDFORMAT_END
 95
        4
302
GRIDFORMAT
  1
GRIDFORMAT_BEGIN
 90
        0
 91
        1
 62
     0
 92
       -2
340
14
 93
        0
 40
0.045
309
GRIDFORMAT_END
 95
        8
302
GRIDFORMAT
  1
GRIDFORMAT_BEGIN
 90
        0
 91
        1
 62
     0
 92
       -2
340
14
 93
        0
 40
0.045
309
GRIDFORMAT_END
 95
       16
302
GRIDFORMAT
  1
GRIDFORMAT_BEGIN
 90
        0
 91
        1
 62
     0
 92
       -2
340
14
 93
        0
 40
0.045
309
GRIDFORMAT_END
 95
       32
302
GRIDFORMAT
  1
GRIDFORMAT_BEGIN
 90
        0
 91
        1
 62
     0
 92
       -2
340
14
 93
        0
 40
0.045
309
GRIDFORMAT_END
309
TABLEFORMAT_END
  1
CELLSTYLE_BEGIN
 90
        3
 91
        2
300
_DATA
309
CELLSTYLE_END
  0
XRECORD
  5
221
102
{ACAD_REACTORS
330
220
102
}
330
220
100
AcDbXrecord
280
     1
102
ACAD_ROUNDTRIP_PRE2007_TABLESTYLE
 90
        4
 91
        0
  1

 92
        4
 93
        0
  2

 94
        4
 95
        0
  3

  0
XRECORD
  5
1F3
102
{ACAD_REACTORS
330
1F2
102
}
330
1F2
100
AcDbXrecord
280
     1
102
RTVSPropertyOp0
 70
     1
102
RTVSPropertyOp1
 70
     1
102
RTVSPropertyOp2
 70
     1
102
RTVSPropertyOp3
 70
     1
102
RTVSPropertyOp4
 70
     1
102
RTVSPropertyOp5
 70
     1
102
RTVSPropertyOp6
 70
     1
102
RTVSPropertyOp7
 70
     1
102
RTVSPropertyOp8
 70
     1
102
RTVSPropertyOp9
 70
     1
102
RTVSPropertyOp10
 70
     1
102
RTVSPropertyOp11
 70
     1
102
RTVSPropertyOp12
 70
     1
102
RTVSPropertyOp13
 70
     1
102
RTVSPropertyOp14
 70
     1
102
RTVSPropertyOp15
 70
     1
102
RTVSPropertyOp16
 70
     1
102
RTVSPropertyOp17
 70
     1
102
RTVSPropertyOp18
 70
     1
102
RTVSPropertyOp19
 70
     1
102
RTVSPropertyOp20
 70
     1
102
RTVSPropertyOp21
 70
     1
102
RTVSPropertyOp22
 70
     1
102
RTVSPropertyOp23
 70
     1
102
RTVSPropertyOp24
 70
     1
102
RTVSPropertyOp25
 70
     1
102
RTVSPropertyOp26
 70
     1
102
RTVSPropertyOp27
 70
     1
102
RTVSPropertyOp28
 70
     1
102
RTVSPropertyOp29
 70
     1
102
RTVSPropertyOp30
 70
     1
102
RTVSPropertyOp31
 70
     1
102
RTVSPropertyOp32
 70
     1
102
RTVSPropertyOp33
 70
     1
102
RTVSPropertyOp34
 70
     1
102
RTVSPropertyOp35
 70
     1
102
RTVSPropertyOp36
 70
     1
102
RTVSPropertyOp37
 70
     1
102
RTVSPropertyOp38
 70
     1
102
RTVSPropertyOp39
 70
     1
102
RTVSPropertyOp40
 70
     1
102
RTVSPropertyOp41
 70
     1
102
RTVSPropertyOp42
 70
     1
102
RTVSPropertyOp43
 70
     1
102
RTVSPropertyOp44
 70
     1
102
RTVSPropertyOp45
 70
     1
102
RTVSPropertyOp46
 70
     1
102
RTVSPropertyOp47
 70
     1
102
RTVSPropertyOp48
 70
     1
102
RTVSPropertyOp49
 70
     1
102
RTVSPropertyOp50
 70
     1
102
RTVSPropertyOp51
 70
     0
102
RTVSPropertyOp52
 70
     0
102
RTVSPropertyOp53
 70
     1
102
RTVSPropertyOp54
 70
     1
102
RTVSPropertyOp55
 70
     1
102
RTVSPropertyOp56
 70
     1
102
RTVSPropertyOp57
 70
     1
102
RTVSPost2010Prop28
280
     1
102
RTVSPost2010PropOp28
 70
     1
102
RTVSPost2010Prop29
280
     1
102
RTVSPost2010PropOp29
 70
     1
102
RTVSPost2010Prop30
280
     0
102
RTVSPost2010PropOp30
 70
     1
102
RTVSPost2010Prop31
280
     0
102
RTVSPost2010PropOp31
 70
     1
102
RTVSPost2010Prop32
280
     0
102
RTVSPost2010PropOp32
 70
     1
102
RTVSPost2010Prop33
280
     0
102
RTVSPost2010PropOp33
 70
     1
102
RTVSPost2010Prop34
280
     0
102
RTVSPost2010PropOp34
 70
     1
102
RTVSPost2010Prop35
280
     0
102
RTVSPost2010PropOp35
 70
     1
102
RTVSPost2010Prop36
280
     0
102
RTVSPost2010PropOp36
 70
     1
102
RTVSPost2010Prop37
 90
       50
102
RTVSPost2010PropOp37
 70
     1
102
RTVSPost2010Prop38
140
0.0
102
RTVSPost2010PropOp38
 70
     1
102
RTVSPost2010Prop39
140
1.0
102
RTVSPost2010PropOp39
 70
     1
102
RTVSPost2010Prop40
 90
        0
102
RTVSPost2010PropOp40
 70
     1
102
RTVSPost2010Prop41ColorIndex
 90
       18
102
RTVSPost2010Prop41ColorRGB
 90
        0
102
RTVSPost2010PropOp41
 70
     1
102
RTVSPost2010Prop42
 90
       50
102
RTVSPost2010PropOp42
 70
     1
102
RTVSPost2010Prop43
 90
        3
102
RTVSPost2010PropOp43
 70
     1
102
RTVSPost2010Prop44ColorIndex
 90
        5
102
RTVSPost2010Prop44ColorRGB
 90
      255
102
RTVSPost2010PropOp44
 70
     1
102
RTVSPost2010Prop45
280
     0
102
RTVSPost2010PropOp45
 70
     1
102
RTVSPost2010Prop46
 90
       50
102
RTVSPost2010PropOp46
 70
     1
102
RTVSPost2010Prop47
 90
       50
102
RTVSPost2010PropOp47
 70
     1
102
RTVSPost2010Prop48
 90
       50
102
RTVSPost2010PropOp48
 70
     1
102
RTVSPost2010Prop49
280
     0
102
RTVSPost2010PropOp49
 70
     1
102
RTVSPost2010Prop50
 90
       50
102
RTVSPost2010PropOp50
 70
     1
102
RTVSPost2010Prop51ColorIndex
 90
      256
102
RTVSPost2010Prop51ColorRGB
 90
-16777216
102
RTVSPost2010PropOp51
 70
     0
102
RTVSPost2010Prop52
140
1.0
102
RTVSPost2010PropOp52
 70
     0
102
RTVSPost2010Prop53
 90
        2
102
RTVSPost2010PropOp53
 70
     1
102
RTVSPost2010Prop54
  1
strokes_ogs.tif
102
RTVSPost2010PropOp54
 70
     1
102
RTVSPost2010Prop55
280
     0
102
RTVSPost2010PropOp55
 70
     1
102
RTVSPost2010Prop56
140
1.0
102
RTVSPost2010PropOp56
 70
     1
102
RTVSPost2010Prop57
140
1.0
102
RTVSPost2010PropOp57
 70
     1
  0
XRECORD
  5
1F9
102
{ACAD_REACTORS
330
1F8
102
}
330
1F8
100
AcDbXrecord
280
     1
102
RTVSPropertyOp0
 70
     1
102
RTVSPropertyOp1
 70
     1
102
RTVSPropertyOp2
 70
     1
102
RTVSPropertyOp3
 70
     1
102
RTVSPropertyOp4
 70
     1
102
RTVSPropertyOp5
 70
     1
102
RTVSPropertyOp6
 70
     1
102
RTVSPropertyOp7
 70
     1
102
RTVSPropertyOp8
 70
     1
102
RTVSPropertyOp9
 70
     1
102
RTVSPropertyOp10
 70
     1
102
RTVSPropertyOp11
 70
     1
102
RTVSPropertyOp12
 70
     1
102
RTVSPropertyOp13
 70
     1
102
RTVSPropertyOp14
 70
     1
102
RTVSPropertyOp15
 70
     1
102
RTVSPropertyOp16
 70
     1
102
RTVSPropertyOp17
 70
     1
102
RTVSPropertyOp18
 70
     1
102
RTVSPropertyOp19
 70
     1
102
RTVSPropertyOp20
 70
     1
102
RTVSPropertyOp21
 70
     1
102
RTVSPropertyOp22
 70
     1
102
RTVSPropertyOp23
 70
     1
102
RTVSPropertyOp24
 70
     1
102
RTVSPropertyOp25
 70
     1
102
RTVSPropertyOp26
 70
     1
102
RTVSPropertyOp27
 70
     1
102
RTVSPropertyOp28
 70
     1
102
RTVSPropertyOp29
 70
     1
102
RTVSPropertyOp30
 70
     1
102
RTVSPropertyOp31
 70
     1
102
RTVSPropertyOp32
 70
     1
102
RTVSPropertyOp33
 70
     1
102
RTVSPropertyOp34
 70
     1
102
RTVSPropertyOp35
 70
     1
102
RTVSPropertyOp36
 70
     1
102
RTVSPropertyOp37
 70
     1
102
RTVSPropertyOp38
 70
     1
102
RTVSPropertyOp39
 70
     1
102
RTVSPropertyOp40
 70
     1
102
RTVSPropertyOp41
 70
     1
102
RTVSPropertyOp42
 70
     1
102
RTVSPropertyOp43
 70
     1
102
RTVSPropertyOp44
 70
     1
102
RTVSPropertyOp45
 70
     1
102
RTVSPropertyOp46
 70
     1
102
RTVSPropertyOp47
 70
     1
102
RTVSPropertyOp48
 70
     1
102
RTVSPropertyOp49
 70
     1
102
RTVSPropertyOp50
 70
     1
102
RTVSPropertyOp51
 70
     0
102
RTVSPropertyOp52
 70
     0
102
RTVSPropertyOp53
 70
     1
102
RTVSPropertyOp54
 70
     1
102
RTVSPropertyOp55
 70
     1
102
RTVSPropertyOp56
 70
     1
102
RTVSPropertyOp57
 70
     1
102
RTVSPost2010Prop28
280
     0
102
RTVSPost2010PropOp28
 70
     1
102
RTVSPost2010Prop29
280
     1
102
RTVSPost2010PropOp29
 70
     1
102
RTVSPost2010Prop30
280
     1
102
RTVSPost2010PropOp30
 70
     1
102
RTVSPost2010Prop31
280
     0
102
RTVSPost2010PropOp31
 70
     1
102
RTVSPost2010Prop32
280
     0
102
RTVSPost2010PropOp32
 70
     1
102
RTVSPost2010Prop33
280
     0
102
RTVSPost2010PropOp33
 70
     1
102
RTVSPost2010Prop34
280
     0
102
RTVSPost2010PropOp34
 70
     1
102
RTVSPost2010Prop35
280
     0
102
RTVSPost2010PropOp35
 70
     1
102
RTVSPost2010Prop36
280
     0
102
RTVSPost2010PropOp36
 70
     1
102
RTVSPost2010Prop37
 90
       50
102
RTVSPost2010PropOp37
 70
     1
102
RTVSPost2010Prop38
140
0.0
102
RTVSPost2010PropOp38
 70
     1
102
RTVSPost2010Prop39
140
1.0
102
RTVSPost2010PropOp39
 70
     1
102
RTVSPost2010Prop40
 90
        0
102
RTVSPost2010PropOp40
 70
     1
102
RTVSPost2010Prop41ColorIndex
 90
       18
102
RTVSPost2010Prop41ColorRGB
 90
        0
102
RTVSPost2010PropOp41
 70
     1
102
RTVSPost2010Prop42
 90
       50
102
RTVSPost2010PropOp42
 70
     1
102
RTVSPost2010Prop43
 90
        3
102
RTVSPost2010PropOp43
 70
     1
102
RTVSPost2010Prop44ColorIndex
 90
        5
102
RTVSPost2010Prop44ColorRGB
 90
      255
102
RTVSPost2010PropOp44
 70
     1
102
RTVSPost2010Prop45
280
     0
102
RTVSPost2010PropOp45
 70
     1
102
RTVSPost2010Prop46
 90
       50
102
RTVSPost2010PropOp46
 70
     1
102
RTVSPost2010Prop47
 90
       50
102
RTVSPost2010PropOp47
 70
     1
102
RTVSPost2010Prop48
 90
       50
102
RTVSPost2010PropOp48
 70
     1
102
RTVSPost2010Prop49
280
     0
102
RTVSPost2010PropOp49
 70
     1
102
RTVSPost2010Prop50
 90
       50
102
RTVSPost2010PropOp50
 70
     1
102
RTVSPost2010Prop51ColorIndex
 90
      256
102
RTVSPost2010Prop51ColorRGB
 90
-16777216
102
RTVSPost2010PropOp51
 70
     0
102
RTVSPost2010Prop52
140
1.0
102
RTVSPost2010PropOp52
 70
     0
102
RTVSPost2010Prop53
 90
        2
102
RTVSPost2010PropOp53
 70
     1
102
RTVSPost2010Prop54
  1
strokes_ogs.tif
102
RTVSPost2010PropOp54
 70
     1
102
RTVSPost2010Prop55
280
     0
102
RTVSPost2010PropOp55
 70
     1
102
RTVSPost2010Prop56
140
1.0
102
RTVSPost2010PropOp56
 70
     1
102
RTVSPost2010Prop57
140
1.0
102
RTVSPost2010PropOp57
 70
     1
  0
XRECORD
  5
201
102
{ACAD_REACTORS
330
200
102
}
330
200
100
AcDbXrecord
280
     1
102
RTVSPropertyOp0
 70
     1
102
RTVSPropertyOp1
 70
     1
102
RTVSPropertyOp2
 70
     1
102
RTVSPropertyOp3
 70
     1
102
RTVSPropertyOp4
 70
     1
102
RTVSPropertyOp5
 70
     1
102
RTVSPropertyOp6
 70
     1
102
RTVSPropertyOp7
 70
     1
102
RTVSPropertyOp8
 70
     1
102
RTVSPropertyOp9
 70
     1
102
RTVSPropertyOp10
 70
     1
102
RTVSPropertyOp11
 70
     1
102
RTVSPropertyOp12
 70
     1
102
RTVSPropertyOp13
 70
     1
102
RTVSPropertyOp14
 70
     1
102
RTVSPropertyOp15
 70
     1
102
RTVSPropertyOp16
 70
     1
102
RTVSPropertyOp17
 70
     1
102
RTVSPropertyOp18
 70
     1
102
RTVSPropertyOp19
 70
     1
102
RTVSPropertyOp20
 70
     1
102
RTVSPropertyOp21
 70
     1
102
RTVSPropertyOp22
 70
     1
102
RTVSPropertyOp23
 70
     1
102
RTVSPropertyOp24
 70
     1
102
RTVSPropertyOp25
 70
     1
102
RTVSPropertyOp26
 70
     1
102
RTVSPropertyOp27
 70
     1
102
RTVSPropertyOp28
 70
     1
102
RTVSPropertyOp29
 70
     1
102
RTVSPropertyOp30
 70
     1
102
RTVSPropertyOp31
 70
     1
102
RTVSPropertyOp32
 70
     1
102
RTVSPropertyOp33
 70
     1
102
RTVSPropertyOp34
 70
     1
102
RTVSPropertyOp35
 70
     1
102
RTVSPropertyOp36
 70
     1
102
RTVSPropertyOp37
 70
     1
102
RTVSPropertyOp38
 70
     1
102
RTVSPropertyOp39
 70
     1
102
RTVSPropertyOp40
 70
     1
102
RTVSPropertyOp41
 70
     1
102
RTVSPropertyOp42
 70
     1
102
RTVSPropertyOp43
 70
     1
102
RTVSPropertyOp44
 70
     1
102
RTVSPropertyOp45
 70
     1
102
RTVSPropertyOp46
 70
     1
102
RTVSPropertyOp47
 70
     1
102
RTVSPropertyOp48
 70
     1
102
RTVSPropertyOp49
 70
     1
102
RTVSPropertyOp50
 70
     1
102
RTVSPropertyOp51
 70
     0
102
RTVSPropertyOp52
 70
     0
102
RTVSPropertyOp53
 70
     1
102
RTVSPropertyOp54
 70
     1
102
RTVSPropertyOp55
 70
     1
102
RTVSPropertyOp56
 70
     1
102
RTVSPropertyOp57
 70
     1
102
RTVSPost2010Prop28
280
     0
102
RTVSPost2010PropOp28
 70
     1
102
RTVSPost2010Prop29
280
     1
102
RTVSPost2010PropOp29
 70
     1
102
RTVSPost2010Prop30
280
     1
102
RTVSPost2010PropOp30
 70
     1
102
RTVSPost2010Prop31
280
     0
102
RTVSPost2010PropOp31
 70
     1
102
RTVSPost2010Prop32
280
     0
102
RTVSPost2010PropOp32
 70
     1
102
RTVSPost2010Prop33
280
     0
102
RTVSPost2010PropOp33
 70
     1
102
RTVSPost2010Prop34
280
     0
102
RTVSPost2010PropOp34
 70
     1
102
RTVSPost2010Prop35
280
     0
102
RTVSPost2010PropOp35
 70
     1
102
RTVSPost2010Prop36
280
     0
102
RTVSPost2010PropOp36
 70
     1
102
RTVSPost2010Prop37
 90
       50
102
RTVSPost2010PropOp37
 70
     1
102
RTVSPost2010Prop38
140
0.0
102
RTVSPost2010PropOp38
 70
     1
102
RTVSPost2010Prop39
140
1.0
102
RTVSPost2010PropOp39
 70
     1
102
RTVSPost2010Prop40
 90
        0
102
RTVSPost2010PropOp40
 70
     1
102
RTVSPost2010Prop41ColorIndex
 90
       18
102
RTVSPost2010Prop41ColorRGB
 90
        0
102
RTVSPost2010PropOp41
 70
     1
102
RTVSPost2010Prop42
 90
       50
102
RTVSPost2010PropOp42
 70
     1
102
RTVSPost2010Prop43
 90
        3
102
RTVSPost2010PropOp43
 70
     1
102
RTVSPost2010Prop44ColorIndex
 90
        5
102
RTVSPost2010Prop44ColorRGB
 90
      255
102
RTVSPost2010PropOp44
 70
     1
102
RTVSPost2010Prop45
280
     0
102
RTVSPost2010PropOp45
 70
     1
102
RTVSPost2010Prop46
 90
       50
102
RTVSPost2010PropOp46
 70
     1
102
RTVSPost2010Prop47
 90
       50
102
RTVSPost2010PropOp47
 70
     1
102
RTVSPost2010Prop48
 90
       50
102
RTVSPost2010PropOp48
 70
     1
102
RTVSPost2010Prop49
280
     0
102
RTVSPost2010PropOp49
 70
     1
102
RTVSPost2010Prop50
 90
       50
102
RTVSPost2010PropOp50
 70
     1
102
RTVSPost2010Prop51ColorIndex
 90
      256
102
RTVSPost2010Prop51ColorRGB
 90
-16777216
102
RTVSPost2010PropOp51
 70
     0
102
RTVSPost2010Prop52
140
1.0
102
RTVSPost2010PropOp52
 70
     0
102
RTVSPost2010Prop53
 90
        2
102
RTVSPost2010PropOp53
 70
     1
102
RTVSPost2010Prop54
  1
strokes_ogs.tif
102
RTVSPost2010PropOp54
 70
     1
102
RTVSPost2010Prop55
280
     0
102
RTVSPost2010PropOp55
 70
     1
102
RTVSPost2010Prop56
140
1.0
102
RTVSPost2010PropOp56
 70
     1
102
RTVSPost2010Prop57
140
1.0
102
RTVSPost2010PropOp57
 70
     1
  0
XRECORD
  5
209
102
{ACAD_REACTORS
330
208
102
}
330
208
100
AcDbXrecord
280
     1
102
RTVSPropertyOp0
 70
     1
102
RTVSPropertyOp1
 70
     1
102
RTVSPropertyOp2
 70
     1
102
RTVSPropertyOp3
 70
     1
102
RTVSPropertyOp4
 70
     1
102
RTVSPropertyOp5
 70
     1
102
RTVSPropertyOp6
 70
     1
102
RTVSPropertyOp7
 70
     1
102
RTVSPropertyOp8
 70
     1
102
RTVSPropertyOp9
 70
     1
102
RTVSPropertyOp10
 70
     1
102
RTVSPropertyOp11
 70
     1
102
RTVSPropertyOp12
 70
     1
102
RTVSPropertyOp13
 70
     1
102
RTVSPropertyOp14
 70
     1
102
RTVSPropertyOp15
 70
     1
102
RTVSPropertyOp16
 70
     1
102
RTVSPropertyOp17
 70
     1
102
RTVSPropertyOp18
 70
     1
102
RTVSPropertyOp19
 70
     1
102
RTVSPropertyOp20
 70
     1
102
RTVSPropertyOp21
 70
     1
102
RTVSPropertyOp22
 70
     1
102
RTVSPropertyOp23
 70
     1
102
RTVSPropertyOp24
 70
     1
102
RTVSPropertyOp25
 70
     1
102
RTVSPropertyOp26
 70
     1
102
RTVSPropertyOp27
 70
     1
102
RTVSPropertyOp28
 70
     1
102
RTVSPropertyOp29
 70
     1
102
RTVSPropertyOp30
 70
     1
102
RTVSPropertyOp31
 70
     1
102
RTVSPropertyOp32
 70
     1
102
RTVSPropertyOp33
 70
     1
102
RTVSPropertyOp34
 70
     1
102
RTVSPropertyOp35
 70
     1
102
RTVSPropertyOp36
 70
     1
102
RTVSPropertyOp37
 70
     1
102
RTVSPropertyOp38
 70
     1
102
RTVSPropertyOp39
 70
     1
102
RTVSPropertyOp40
 70
     1
102
RTVSPropertyOp41
 70
     1
102
RTVSPropertyOp42
 70
     1
102
RTVSPropertyOp43
 70
     1
102
RTVSPropertyOp44
 70
     1
102
RTVSPropertyOp45
 70
     1
102
RTVSPropertyOp46
 70
     1
102
RTVSPropertyOp47
 70
     1
102
RTVSPropertyOp48
 70
     1
102
RTVSPropertyOp49
 70
     1
102
RTVSPropertyOp50
 70
     1
102
RTVSPropertyOp51
 70
     0
102
RTVSPropertyOp52
 70
     0
102
RTVSPropertyOp53
 70
     1
102
RTVSPropertyOp54
 70
     1
102
RTVSPropertyOp55
 70
     1
102
RTVSPropertyOp56
 70
     1
102
RTVSPropertyOp57
 70
     1
102
RTVSPost2010Prop28
280
     0
102
RTVSPost2010PropOp28
 70
     1
102
RTVSPost2010Prop29
280
     1
102
RTVSPost2010PropOp29
 70
     1
102
RTVSPost2010Prop30
280
     1
102
RTVSPost2010PropOp30
 70
     1
102
RTVSPost2010Prop31
280
     0
102
RTVSPost2010PropOp31
 70
     1
102
RTVSPost2010Prop32
280
     0
102
RTVSPost2010PropOp32
 70
     1
102
RTVSPost2010Prop33
280
     0
102
RTVSPost2010PropOp33
 70
     1
102
RTVSPost2010Prop34
280
     0
102
RTVSPost2010PropOp34
 70
     1
102
RTVSPost2010Prop35
280
     0
102
RTVSPost2010PropOp35
 70
     1
102
RTVSPost2010Prop36
280
     0
102
RTVSPost2010PropOp36
 70
     1
102
RTVSPost2010Prop37
 90
       50
102
RTVSPost2010PropOp37
 70
     1
102
RTVSPost2010Prop38
140
0.0
102
RTVSPost2010PropOp38
 70
     1
102
RTVSPost2010Prop39
140
1.0
102
RTVSPost2010PropOp39
 70
     1
102
RTVSPost2010Prop40
 90
        0
102
RTVSPost2010PropOp40
 70
     1
102
RTVSPost2010Prop41ColorIndex
 90
       18
102
RTVSPost2010Prop41ColorRGB
 90
        0
102
RTVSPost2010PropOp41
 70
     1
102
RTVSPost2010Prop42
 90
       50
102
RTVSPost2010PropOp42
 70
     1
102
RTVSPost2010Prop43
 90
        3
102
RTVSPost2010PropOp43
 70
     1
102
RTVSPost2010Prop44ColorIndex
 90
        5
102
RTVSPost2010Prop44ColorRGB
 90
      255
102
RTVSPost2010PropOp44
 70
     1
102
RTVSPost2010Prop45
280
     0
102
RTVSPost2010PropOp45
 70
     1
102
RTVSPost2010Prop46
 90
       50
102
RTVSPost2010PropOp46
 70
     1
102
RTVSPost2010Prop47
 90
       50
102
RTVSPost2010PropOp47
 70
     1
102
RTVSPost2010Prop48
 90
       50
102
RTVSPost2010PropOp48
 70
     1
102
RTVSPost2010Prop49
280
     0
102
RTVSPost2010PropOp49
 70
     1
102
RTVSPost2010Prop50
 90
       50
102
RTVSPost2010PropOp50
 70
     1
102
RTVSPost2010Prop51ColorIndex
 90
      256
102
RTVSPost2010Prop51ColorRGB
 90
-16777216
102
RTVSPost2010PropOp51
 70
     0
102
RTVSPost2010Prop52
140
1.0
102
RTVSPost2010PropOp52
 70
     0
102
RTVSPost2010Prop53
 90
        2
102
RTVSPost2010PropOp53
 70
     1
102
RTVSPost2010Prop54
  1
strokes_ogs.tif
102
RTVSPost2010PropOp54
 70
     1
102
RTVSPost2010Prop55
280
     0
102
RTVSPost2010PropOp55
 70
     1
102
RTVSPost2010Prop56
140
1.0
102
RTVSPost2010PropOp56
 70
     1
102
RTVSPost2010Prop57
140
1.0
102
RTVSPost2010PropOp57
 70
     1
  0
XRECORD
  5
1FD
102
{ACAD_REACTORS
330
1FC
102
}
330
1FC
100
AcDbXrecord
280
     1
102
RTVSPropertyOp0
 70
     1
102
RTVSPropertyOp1
 70
     1
102
RTVSPropertyOp2
 70
     1
102
RTVSPropertyOp3
 70
     1
102
RTVSPropertyOp4
 70
     1
102
RTVSPropertyOp5
 70
     1
102
RTVSPropertyOp6
 70
     1
102
RTVSPropertyOp7
 70
     1
102
RTVSPropertyOp8
 70
     1
102
RTVSPropertyOp9
 70
     1
102
RTVSPropertyOp10
 70
     1
102
RTVSPropertyOp11
 70
     1
102
RTVSPropertyOp12
 70
     1
102
RTVSPropertyOp13
 70
     1
102
RTVSPropertyOp14
 70
     1
102
RTVSPropertyOp15
 70
     1
102
RTVSPropertyOp16
 70
     1
102
RTVSPropertyOp17
 70
     1
102
RTVSPropertyOp18
 70
     1
102
RTVSPropertyOp19
 70
     1
102
RTVSPropertyOp20
 70
     1
102
RTVSPropertyOp21
 70
     1
102
RTVSPropertyOp22
 70
     1
102
RTVSPropertyOp23
 70
     1
102
RTVSPropertyOp24
 70
     1
102
RTVSPropertyOp25
 70
     1
102
RTVSPropertyOp26
 70
     1
102
RTVSPropertyOp27
 70
     1
102
RTVSPropertyOp28
 70
     1
102
RTVSPropertyOp29
 70
     1
102
RTVSPropertyOp30
 70
     1
102
RTVSPropertyOp31
 70
     1
102
RTVSPropertyOp32
 70
     1
102
RTVSPropertyOp33
 70
     1
102
RTVSPropertyOp34
 70
     1
102
RTVSPropertyOp35
 70
     1
102
RTVSPropertyOp36
 70
     1
102
RTVSPropertyOp37
 70
     1
102
RTVSPropertyOp38
 70
     1
102
RTVSPropertyOp39
 70
     1
102
RTVSPropertyOp40
 70
     1
102
RTVSPropertyOp41
 70
     1
102
RTVSPropertyOp42
 70
     1
102
RTVSPropertyOp43
 70
     1
102
RTVSPropertyOp44
 70
     1
102
RTVSPropertyOp45
 70
     1
102
RTVSPropertyOp46
 70
     1
102
RTVSPropertyOp47
 70
     1
102
RTVSPropertyOp48
 70
     1
102
RTVSPropertyOp49
 70
     1
102
RTVSPropertyOp50
 70
     1
102
RTVSPropertyOp51
 70
     0
102
RTVSPropertyOp52
 70
     0
102
RTVSPropertyOp53
 70
     1
102
RTVSPropertyOp54
 70
     1
102
RTVSPropertyOp55
 70
     1
102
RTVSPropertyOp56
 70
     1
102
RTVSPropertyOp57
 70
     1
102
RTVSPost2010Prop28
280
     0
102
RTVSPost2010PropOp28
 70
     1
102
RTVSPost2010Prop29
280
     1
102
RTVSPost2010PropOp29
 70
     1
102
RTVSPost2010Prop30
280
     1
102
RTVSPost2010PropOp30
 70
     1
102
RTVSPost2010Prop31
280
     0
102
RTVSPost2010PropOp31
 70
     1
102
RTVSPost2010Prop32
280
     0
102
RTVSPost2010PropOp32
 70
     1
102
RTVSPost2010Prop33
280
     0
102
RTVSPost2010PropOp33
 70
     1
102
RTVSPost2010Prop34
280
     0
102
RTVSPost2010PropOp34
 70
     1
102
RTVSPost2010Prop35
280
     0
102
RTVSPost2010PropOp35
 70
     1
102
RTVSPost2010Prop36
280
     0
102
RTVSPost2010PropOp36
 70
     1
102
RTVSPost2010Prop37
 90
       50
102
RTVSPost2010PropOp37
 70
     1
102
RTVSPost2010Prop38
140
0.0
102
RTVSPost2010PropOp38
 70
     1
102
RTVSPost2010Prop39
140
1.0
102
RTVSPost2010PropOp39
 70
     1
102
RTVSPost2010Prop40
 90
        0
102
RTVSPost2010PropOp40
 70
     1
102
RTVSPost2010Prop41ColorIndex
 90
       18
102
RTVSPost2010Prop41ColorRGB
 90
        0
102
RTVSPost2010PropOp41
 70
     1
102
RTVSPost2010Prop42
 90
       50
102
RTVSPost2010PropOp42
 70
     1
102
RTVSPost2010Prop43
 90
        3
102
RTVSPost2010PropOp43
 70
     1
102
RTVSPost2010Prop44ColorIndex
 90
        5
102
RTVSPost2010Prop44ColorRGB
 90
      255
102
RTVSPost2010PropOp44
 70
     1
102
RTVSPost2010Prop45
280
     0
102
RTVSPost2010PropOp45
 70
     1
102
RTVSPost2010Prop46
 90
       50
102
RTVSPost2010PropOp46
 70
     1
102
RTVSPost2010Prop47
 90
       50
102
RTVSPost2010PropOp47
 70
     1
102
RTVSPost2010Prop48
 90
       50
102
RTVSPost2010PropOp48
 70
     1
102
RTVSPost2010Prop49
280
     0
102
RTVSPost2010PropOp49
 70
     1
102
RTVSPost2010Prop50
 90
       50
102
RTVSPost2010PropOp50
 70
     1
102
RTVSPost2010Prop51ColorIndex
 90
      256
102
RTVSPost2010Prop51ColorRGB
 90
-16777216
102
RTVSPost2010PropOp51
 70
     0
102
RTVSPost2010Prop52
140
1.0
102
RTVSPost2010PropOp52
 70
     0
102
RTVSPost2010Prop53
 90
        2
102
RTVSPost2010PropOp53
 70
     1
102
RTVSPost2010Prop54
  1
strokes_ogs.tif
102
RTVSPost2010PropOp54
 70
     1
102
RTVSPost2010Prop55
280
     0
102
RTVSPost2010PropOp55
 70
     1
102
RTVSPost2010Prop56
140
1.0
102
RTVSPost2010PropOp56
 70
     1
102
RTVSPost2010Prop57
140
1.0
102
RTVSPost2010PropOp57
 70
     1
  0
XRECORD
  5
1FF
102
{ACAD_REACTORS
330
1FE
102
}
330
1FE
100
AcDbXrecord
280
     1
102
RTVSPropertyOp0
 70
     1
102
RTVSPropertyOp1
 70
     1
102
RTVSPropertyOp2
 70
     1
102
RTVSPropertyOp3
 70
     1
102
RTVSPropertyOp4
 70
     1
102
RTVSPropertyOp5
 70
     1
102
RTVSPropertyOp6
 70
     1
102
RTVSPropertyOp7
 70
     1
102
RTVSPropertyOp8
 70
     1
102
RTVSPropertyOp9
 70
     1
102
RTVSPropertyOp10
 70
     1
102
RTVSPropertyOp11
 70
     1
102
RTVSPropertyOp12
 70
     1
102
RTVSPropertyOp13
 70
     1
102
RTVSPropertyOp14
 70
     1
102
RTVSPropertyOp15
 70
     1
102
RTVSPropertyOp16
 70
     1
102
RTVSPropertyOp17
 70
     1
102
RTVSPropertyOp18
 70
     1
102
RTVSPropertyOp19
 70
     1
102
RTVSPropertyOp20
 70
     1
102
RTVSPropertyOp21
 70
     1
102
RTVSPropertyOp22
 70
     1
102
RTVSPropertyOp23
 70
     1
102
RTVSPropertyOp24
 70
     1
102
RTVSPropertyOp25
 70
     1
102
RTVSPropertyOp26
 70
     1
102
RTVSPropertyOp27
 70
     1
102
RTVSPropertyOp28
 70
     1
102
RTVSPropertyOp29
 70
     1
102
RTVSPropertyOp30
 70
     1
102
RTVSPropertyOp31
 70
     1
102
RTVSPropertyOp32
 70
     1
102
RTVSPropertyOp33
 70
     1
102
RTVSPropertyOp34
 70
     1
102
RTVSPropertyOp35
 70
     1
102
RTVSPropertyOp36
 70
     1
102
RTVSPropertyOp37
 70
     1
102
RTVSPropertyOp38
 70
     1
102
RTVSPropertyOp39
 70
     1
102
RTVSPropertyOp40
 70
     1
102
RTVSPropertyOp41
 70
     1
102
RTVSPropertyOp42
 70
     1
102
RTVSPropertyOp43
 70
     1
102
RTVSPropertyOp44
 70
     1
102
RTVSPropertyOp45
 70
     1
102
RTVSPropertyOp46
 70
     1
102
RTVSPropertyOp47
 70
     1
102
RTVSPropertyOp48
 70
     1
102
RTVSPropertyOp49
 70
     1
102
RTVSPropertyOp50
 70
     1
102
RTVSPropertyOp51
 70
     0
102
RTVSPropertyOp52
 70
     0
102
RTVSPropertyOp53
 70
     1
102
RTVSPropertyOp54
 70
     1
102
RTVSPropertyOp55
 70
     1
102
RTVSPropertyOp56
 70
     1
102
RTVSPropertyOp57
 70
     1
102
RTVSPost2010Prop28
280
     0
102
RTVSPost2010PropOp28
 70
     1
102
RTVSPost2010Prop29
280
     1
102
RTVSPost2010PropOp29
 70
     1
102
RTVSPost2010Prop30
280
     1
102
RTVSPost2010PropOp30
 70
     1
102
RTVSPost2010Prop31
280
     0
102
RTVSPost2010PropOp31
 70
     1
102
RTVSPost2010Prop32
280
     0
102
RTVSPost2010PropOp32
 70
     1
102
RTVSPost2010Prop33
280
     0
102
RTVSPost2010PropOp33
 70
     1
102
RTVSPost2010Prop34
280
     0
102
RTVSPost2010PropOp34
 70
     1
102
RTVSPost2010Prop35
280
     0
102
RTVSPost2010PropOp35
 70
     1
102
RTVSPost2010Prop36
280
     0
102
RTVSPost2010PropOp36
 70
     1
102
RTVSPost2010Prop37
 90
       50
102
RTVSPost2010PropOp37
 70
     1
102
RTVSPost2010Prop38
140
0.0
102
RTVSPost2010PropOp38
 70
     1
102
RTVSPost2010Prop39
140
1.0
102
RTVSPost2010PropOp39
 70
     1
102
RTVSPost2010Prop40
 90
        0
102
RTVSPost2010PropOp40
 70
     1
102
RTVSPost2010Prop41ColorIndex
 90
       18
102
RTVSPost2010Prop41ColorRGB
 90
        0
102
RTVSPost2010PropOp41
 70
     1
102
RTVSPost2010Prop42
 90
       50
102
RTVSPost2010PropOp42
 70
     1
102
RTVSPost2010Prop43
 90
        3
102
RTVSPost2010PropOp43
 70
     1
102
RTVSPost2010Prop44ColorIndex
 90
        5
102
RTVSPost2010Prop44ColorRGB
 90
      255
102
RTVSPost2010PropOp44
 70
     1
102
RTVSPost2010Prop45
280
     0
102
RTVSPost2010PropOp45
 70
     1
102
RTVSPost2010Prop46
 90
       50
102
RTVSPost2010PropOp46
 70
     1
102
RTVSPost2010Prop47
 90
       50
102
RTVSPost2010PropOp47
 70
     1
102
RTVSPost2010Prop48
 90
       50
102
RTVSPost2010PropOp48
 70
     1
102
RTVSPost2010Prop49
280
     0
102
RTVSPost2010PropOp49
 70
     1
102
RTVSPost2010Prop50
 90
       50
102
RTVSPost2010PropOp50
 70
     1
102
RTVSPost2010Prop51ColorIndex
 90
      256
102
RTVSPost2010Prop51ColorRGB
 90
-16777216
102
RTVSPost2010PropOp51
 70
     0
102
RTVSPost2010Prop52
140
1.0
102
RTVSPost2010PropOp52
 70
     0
102
RTVSPost2010Prop53
 90
        2
102
RTVSPost2010PropOp53
 70
     1
102
RTVSPost2010Prop54
  1
strokes_ogs.tif
102
RTVSPost2010PropOp54
 70
     1
102
RTVSPost2010Prop55
280
     0
102
RTVSPost2010PropOp55
 70
     1
102
RTVSPost2010Prop56
140
1.0
102
RTVSPost2010PropOp56
 70
     1
102
RTVSPost2010Prop57
140
1.0
102
RTVSPost2010PropOp57
 70
     1
  0
XRECORD
  5
20F
102
{ACAD_REACTORS
330
20E
102
}
330
20E
100
AcDbXrecord
280
     1
102
RTVSPropertyOp0
 70
     0
102
RTVSPropertyOp1
 70
     0
102
RTVSPropertyOp2
 70
     0
102
RTVSPropertyOp3
 70
     0
102
RTVSPropertyOp4
 70
     0
102
RTVSPropertyOp5
 70
     0
102
RTVSPropertyOp6
 70
     0
102
RTVSPropertyOp7
 70
     0
102
RTVSPropertyOp8
 70
     0
102
RTVSPropertyOp9
 70
     0
102
RTVSPropertyOp10
 70
     0
102
RTVSPropertyOp11
 70
     0
102
RTVSPropertyOp12
 70
     0
102
RTVSPropertyOp13
 70
     0
102
RTVSPropertyOp14
 70
     2
102
RTVSPropertyOp15
 70
     0
102
RTVSPropertyOp16
 70
     0
102
RTVSPropertyOp17
 70
     0
102
RTVSPropertyOp18
 70
     0
102
RTVSPropertyOp19
 70
     0
102
RTVSPropertyOp20
 70
     0
102
RTVSPropertyOp21
 70
     0
102
RTVSPropertyOp22
 70
     0
102
RTVSPropertyOp23
 70
     0
102
RTVSPropertyOp24
 70
     0
102
RTVSPropertyOp25
 70
     0
102
RTVSPropertyOp26
 70
     0
102
RTVSPropertyOp27
 70
     0
102
RTVSPropertyOp28
 70
     0
102
RTVSPropertyOp29
 70
     0
102
RTVSPropertyOp30
 70
     0
102
RTVSPropertyOp31
 70
     0
102
RTVSPropertyOp32
 70
     0
102
RTVSPropertyOp33
 70
     0
102
RTVSPropertyOp34
 70
     0
102
RTVSPropertyOp35
 70
     0
102
RTVSPropertyOp36
 70
     0
102
RTVSPropertyOp37
 70
     0
102
RTVSPropertyOp38
 70
     0
102
RTVSPropertyOp39
 70
     0
102
RTVSPropertyOp40
 70
     0
102
RTVSPropertyOp41
 70
     0
102
RTVSPropertyOp42
 70
     0
102
RTVSPropertyOp43
 70
     0
102
RTVSPropertyOp44
 70
     0
102
RTVSPropertyOp45
 70
     0
102
RTVSPropertyOp46
 70
     0
102
RTVSPropertyOp47
 70
     0
102
RTVSPropertyOp48
 70
     0
102
RTVSPropertyOp49
 70
     0
102
RTVSPropertyOp50
 70
     0
102
RTVSPropertyOp51
 70
     0
102
RTVSPropertyOp52
 70
     0
102
RTVSPropertyOp53
 70
     0
102
RTVSPropertyOp54
 70
     0
102
RTVSPropertyOp55
 70
     0
102
RTVSPropertyOp56
 70
     0
102
RTVSPropertyOp57
 70
     0
102
RTVSPost2010Prop28
280
     0
102
RTVSPost2010PropOp28
 70
     0
102
RTVSPost2010Prop29
280
     1
102
RTVSPost2010PropOp29
 70
     0
102
RTVSPost2010Prop30
280
     1
102
RTVSPost2010PropOp30
 70
     0
102
RTVSPost2010Prop31
280
     0
102
RTVSPost2010PropOp31
 70
     0
102
RTVSPost2010Prop32
280
     0
102
RTVSPost2010PropOp32
 70
     0
102
RTVSPost2010Prop33
280
     0
102
RTVSPost2010PropOp33
 70
     0
102
RTVSPost2010Prop34
280
     0
102
RTVSPost2010PropOp34
 70
     0
102
RTVSPost2010Prop35
280
     0
102
RTVSPost2010PropOp35
 70
     0
102
RTVSPost2010Prop36
280
     0
102
RTVSPost2010PropOp36
 70
     0
102
RTVSPost2010Prop37
 90
       50
102
RTVSPost2010PropOp37
 70
     0
102
RTVSPost2010Prop38
140
0.0
102
RTVSPost2010PropOp38
 70
     0
102
RTVSPost2010Prop39
140
1.0
102
RTVSPost2010PropOp39
 70
     0
102
RTVSPost2010Prop40
 90
        0
102
RTVSPost2010PropOp40
 70
     0
102
RTVSPost2010Prop41ColorIndex
 90
       18
102
RTVSPost2010Prop41ColorRGB
 90
        0
102
RTVSPost2010PropOp41
 70
     0
102
RTVSPost2010Prop42
 90
       50
102
RTVSPost2010PropOp42
 70
     0
102
RTVSPost2010Prop43
 90
        3
102
RTVSPost2010PropOp43
 70
     0
102
RTVSPost2010Prop44ColorIndex
 90
        5
102
RTVSPost2010Prop44ColorRGB
 90
      255
102
RTVSPost2010PropOp44
 70
     0
102
RTVSPost2010Prop45
280
     0
102
RTVSPost2010PropOp45
 70
     0
102
RTVSPost2010Prop46
 90
       50
102
RTVSPost2010PropOp46
 70
     0
102
RTVSPost2010Prop47
 90
       50
102
RTVSPost2010PropOp47
 70
     0
102
RTVSPost2010Prop48
 90
       50
102
RTVSPost2010PropOp48
 70
     0
102
RTVSPost2010Prop49
280
     0
102
RTVSPost2010PropOp49
 70
     0
102
RTVSPost2010Prop50
 90
       50
102
RTVSPost2010PropOp50
 70
     0
102
RTVSPost2010Prop51ColorIndex
 90
      256
102
RTVSPost2010Prop51ColorRGB
 90
-16777216
102
RTVSPost2010PropOp51
 70
     0
102
RTVSPost2010Prop52
140
1.0
102
RTVSPost2010PropOp52
 70
     0
102
RTVSPost2010Prop53
 90
        2
102
RTVSPost2010PropOp53
 70
     0
102
RTVSPost2010Prop54
  1
strokes_ogs.tif
102
RTVSPost2010PropOp54
 70
     0
102
RTVSPost2010Prop55
280
     0
102
RTVSPost2010PropOp55
 70
     0
102
RTVSPost2010Prop56
140
1.0
102
RTVSPost2010PropOp56
 70
     0
102
RTVSPost2010Prop57
140
1.0
102
RTVSPost2010PropOp57
 70
     0
  0
XRECORD
  5
207
102
{ACAD_REACTORS
330
206
102
}
330
206
100
AcDbXrecord
280
     1
102
RTVSPropertyOp0
 70
     1
102
RTVSPropertyOp1
 70
     1
102
RTVSPropertyOp2
 70
     1
102
RTVSPropertyOp3
 70
     1
102
RTVSPropertyOp4
 70
     1
102
RTVSPropertyOp5
 70
     1
102
RTVSPropertyOp6
 70
     1
102
RTVSPropertyOp7
 70
     1
102
RTVSPropertyOp8
 70
     1
102
RTVSPropertyOp9
 70
     1
102
RTVSPropertyOp10
 70
     1
102
RTVSPropertyOp11
 70
     1
102
RTVSPropertyOp12
 70
     1
102
RTVSPropertyOp13
 70
     1
102
RTVSPropertyOp14
 70
     1
102
RTVSPropertyOp15
 70
     1
102
RTVSPropertyOp16
 70
     1
102
RTVSPropertyOp17
 70
     1
102
RTVSPropertyOp18
 70
     1
102
RTVSPropertyOp19
 70
     1
102
RTVSPropertyOp20
 70
     1
102
RTVSPropertyOp21
 70
     1
102
RTVSPropertyOp22
 70
     1
102
RTVSPropertyOp23
 70
     1
102
RTVSPropertyOp24
 70
     1
102
RTVSPropertyOp25
 70
     1
102
RTVSPropertyOp26
 70
     1
102
RTVSPropertyOp27
 70
     1
102
RTVSPropertyOp28
 70
     1
102
RTVSPropertyOp29
 70
     1
102
RTVSPropertyOp30
 70
     1
102
RTVSPropertyOp31
 70
     1
102
RTVSPropertyOp32
 70
     1
102
RTVSPropertyOp33
 70
     1
102
RTVSPropertyOp34
 70
     1
102
RTVSPropertyOp35
 70
     1
102
RTVSPropertyOp36
 70
     1
102
RTVSPropertyOp37
 70
     1
102
RTVSPropertyOp38
 70
     1
102
RTVSPropertyOp39
 70
     1
102
RTVSPropertyOp40
 70
     1
102
RTVSPropertyOp41
 70
     1
102
RTVSPropertyOp42
 70
     1
102
RTVSPropertyOp43
 70
     1
102
RTVSPropertyOp44
 70
     1
102
RTVSPropertyOp45
 70
     1
102
RTVSPropertyOp46
 70
     1
102
RTVSPropertyOp47
 70
     1
102
RTVSPropertyOp48
 70
     1
102
RTVSPropertyOp49
 70
     1
102
RTVSPropertyOp50
 70
     1
102
RTVSPropertyOp51
 70
     0
102
RTVSPropertyOp52
 70
     0
102
RTVSPropertyOp53
 70
     1
102
RTVSPropertyOp54
 70
     1
102
RTVSPropertyOp55
 70
     1
102
RTVSPropertyOp56
 70
     1
102
RTVSPropertyOp57
 70
     1
102
RTVSPost2010Prop28
280
     0
102
RTVSPost2010PropOp28
 70
     1
102
RTVSPost2010Prop29
280
     1
102
RTVSPost2010PropOp29
 70
     1
102
RTVSPost2010Prop30
280
     1
102
RTVSPost2010PropOp30
 70
     1
102
RTVSPost2010Prop31
280
     0
102
RTVSPost2010PropOp31
 70
     1
102
RTVSPost2010Prop32
280
     0
102
RTVSPost2010PropOp32
 70
     1
102
RTVSPost2010Prop33
280
     0
102
RTVSPost2010PropOp33
 70
     1
102
RTVSPost2010Prop34
280
     0
102
RTVSPost2010PropOp34
 70
     1
102
RTVSPost2010Prop35
280
     0
102
RTVSPost2010PropOp35
 70
     1
102
RTVSPost2010Prop36
280
     0
102
RTVSPost2010PropOp36
 70
     1
102
RTVSPost2010Prop37
 90
       50
102
RTVSPost2010PropOp37
 70
     1
102
RTVSPost2010Prop38
140
0.0
102
RTVSPost2010PropOp38
 70
     1
102
RTVSPost2010Prop39
140
1.0
102
RTVSPost2010PropOp39
 70
     1
102
RTVSPost2010Prop40
 90
        0
102
RTVSPost2010PropOp40
 70
     1
102
RTVSPost2010Prop41ColorIndex
 90
       18
102
RTVSPost2010Prop41ColorRGB
 90
        0
102
RTVSPost2010PropOp41
 70
     1
102
RTVSPost2010Prop42
 90
       50
102
RTVSPost2010PropOp42
 70
     1
102
RTVSPost2010Prop43
 90
        3
102
RTVSPost2010PropOp43
 70
     1
102
RTVSPost2010Prop44ColorIndex
 90
        5
102
RTVSPost2010Prop44ColorRGB
 90
      255
102
RTVSPost2010PropOp44
 70
     1
102
RTVSPost2010Prop45
280
     0
102
RTVSPost2010PropOp45
 70
     1
102
RTVSPost2010Prop46
 90
       50
102
RTVSPost2010PropOp46
 70
     1
102
RTVSPost2010Prop47
 90
       50
102
RTVSPost2010PropOp47
 70
     1
102
RTVSPost2010Prop48
 90
       50
102
RTVSPost2010PropOp48
 70
     1
102
RTVSPost2010Prop49
280
     0
102
RTVSPost2010PropOp49
 70
     1
102
RTVSPost2010Prop50
 90
       50
102
RTVSPost2010PropOp50
 70
     1
102
RTVSPost2010Prop51ColorIndex
 90
      256
102
RTVSPost2010Prop51ColorRGB
 90
-16777216
102
RTVSPost2010PropOp51
 70
     0
102
RTVSPost2010Prop52
140
1.0
102
RTVSPost2010PropOp52
 70
     0
102
RTVSPost2010Prop53
 90
        2
102
RTVSPost2010PropOp53
 70
     1
102
RTVSPost2010Prop54
  1
strokes_ogs.tif
102
RTVSPost2010PropOp54
 70
     1
102
RTVSPost2010Prop55
280
     0
102
RTVSPost2010PropOp55
 70
     1
102
RTVSPost2010Prop56
140
1.0
102
RTVSPost2010PropOp56
 70
     1
102
RTVSPost2010Prop57
140
1.0
102
RTVSPost2010PropOp57
 70
     1
  0
XRECORD
  5
1EB
102
{ACAD_REACTORS
330
1EA
102
}
330
1EA
100
AcDbXrecord
280
     1
102
RTVSPropertyOp0
 70
     1
102
RTVSPropertyOp1
 70
     1
102
RTVSPropertyOp2
 70
     1
102
RTVSPropertyOp3
 70
     1
102
RTVSPropertyOp4
 70
     1
102
RTVSPropertyOp5
 70
     1
102
RTVSPropertyOp6
 70
     1
102
RTVSPropertyOp7
 70
     1
102
RTVSPropertyOp8
 70
     1
102
RTVSPropertyOp9
 70
     1
102
RTVSPropertyOp10
 70
     1
102
RTVSPropertyOp11
 70
     1
102
RTVSPropertyOp12
 70
     1
102
RTVSPropertyOp13
 70
     1
102
RTVSPropertyOp14
 70
     1
102
RTVSPropertyOp15
 70
     1
102
RTVSPropertyOp16
 70
     1
102
RTVSPropertyOp17
 70
     1
102
RTVSPropertyOp18
 70
     1
102
RTVSPropertyOp19
 70
     1
102
RTVSPropertyOp20
 70
     1
102
RTVSPropertyOp21
 70
     1
102
RTVSPropertyOp22
 70
     1
102
RTVSPropertyOp23
 70
     1
102
RTVSPropertyOp24
 70
     1
102
RTVSPropertyOp25
 70
     1
102
RTVSPropertyOp26
 70
     1
102
RTVSPropertyOp27
 70
     1
102
RTVSPropertyOp28
 70
     1
102
RTVSPropertyOp29
 70
     1
102
RTVSPropertyOp30
 70
     1
102
RTVSPropertyOp31
 70
     1
102
RTVSPropertyOp32
 70
     1
102
RTVSPropertyOp33
 70
     1
102
RTVSPropertyOp34
 70
     1
102
RTVSPropertyOp35
 70
     1
102
RTVSPropertyOp36
 70
     1
102
RTVSPropertyOp37
 70
     1
102
RTVSPropertyOp38
 70
     1
102
RTVSPropertyOp39
 70
     1
102
RTVSPropertyOp40
 70
     1
102
RTVSPropertyOp41
 70
     1
102
RTVSPropertyOp42
 70
     1
102
RTVSPropertyOp43
 70
     1
102
RTVSPropertyOp44
 70
     1
102
RTVSPropertyOp45
 70
     1
102
RTVSPropertyOp46
 70
     1
102
RTVSPropertyOp47
 70
     1
102
RTVSPropertyOp48
 70
     1
102
RTVSPropertyOp49
 70
     1
102
RTVSPropertyOp50
 70
     1
102
RTVSPropertyOp51
 70
     0
102
RTVSPropertyOp52
 70
     0
102
RTVSPropertyOp53
 70
     1
102
RTVSPropertyOp54
 70
     1
102
RTVSPropertyOp55
 70
     1
102
RTVSPropertyOp56
 70
     1
102
RTVSPropertyOp57
 70
     1
102
RTVSPost2010Prop28
280
     0
102
RTVSPost2010PropOp28
 70
     1
102
RTVSPost2010Prop29
280
     1
102
RTVSPost2010PropOp29
 70
     1
102
RTVSPost2010Prop30
280
     1
102
RTVSPost2010PropOp30
 70
     1
102
RTVSPost2010Prop31
280
     0
102
RTVSPost2010PropOp31
 70
     1
102
RTVSPost2010Prop32
280
     0
102
RTVSPost2010PropOp32
 70
     1
102
RTVSPost2010Prop33
280
     0
102
RTVSPost2010PropOp33
 70
     1
102
RTVSPost2010Prop34
280
     0
102
RTVSPost2010PropOp34
 70
     1
102
RTVSPost2010Prop35
280
     0
102
RTVSPost2010PropOp35
 70
     1
102
RTVSPost2010Prop36
280
     0
102
RTVSPost2010PropOp36
 70
     1
102
RTVSPost2010Prop37
 90
       50
102
RTVSPost2010PropOp37
 70
     1
102
RTVSPost2010Prop38
140
0.0
102
RTVSPost2010PropOp38
 70
     1
102
RTVSPost2010Prop39
140
1.0
102
RTVSPost2010PropOp39
 70
     1
102
RTVSPost2010Prop40
 90
        0
102
RTVSPost2010PropOp40
 70
     1
102
RTVSPost2010Prop41ColorIndex
 90
       18
102
RTVSPost2010Prop41ColorRGB
 90
        0
102
RTVSPost2010PropOp41
 70
     1
102
RTVSPost2010Prop42
 90
       50
102
RTVSPost2010PropOp42
 70
     1
102
RTVSPost2010Prop43
 90
        3
102
RTVSPost2010PropOp43
 70
     1
102
RTVSPost2010Prop44ColorIndex
 90
        5
102
RTVSPost2010Prop44ColorRGB
 90
      255
102
RTVSPost2010PropOp44
 70
     1
102
RTVSPost2010Prop45
280
     0
102
RTVSPost2010PropOp45
 70
     1
102
RTVSPost2010Prop46
 90
       50
102
RTVSPost2010PropOp46
 70
     1
102
RTVSPost2010Prop47
 90
       50
102
RTVSPost2010PropOp47
 70
     1
102
RTVSPost2010Prop48
 90
       50
102
RTVSPost2010PropOp48
 70
     1
102
RTVSPost2010Prop49
280
     0
102
RTVSPost2010PropOp49
 70
     1
102
RTVSPost2010Prop50
 90
       50
102
RTVSPost2010PropOp50
 70
     1
102
RTVSPost2010Prop51ColorIndex
 90
      256
102
RTVSPost2010Prop51ColorRGB
 90
-16777216
102
RTVSPost2010PropOp51
 70
     0
102
RTVSPost2010Prop52
140
1.0
102
RTVSPost2010PropOp52
 70
     0
102
RTVSPost2010Prop53
 90
        2
102
RTVSPost2010PropOp53
 70
     1
102
RTVSPost2010Prop54
  1
strokes_ogs.tif
102
RTVSPost2010PropOp54
 70
     1
102
RTVSPost2010Prop55
280
     0
102
RTVSPost2010PropOp55
 70
     1
102
RTVSPost2010Prop56
140
1.0
102
RTVSPost2010PropOp56
 70
     1
102
RTVSPost2010Prop57
140
1.0
102
RTVSPost2010PropOp57
 70
     1
  0
XRECORD
  5
1ED
102
{ACAD_REACTORS
330
1EC
102
}
330
1EC
100
AcDbXrecord
280
     1
102
RTVSPropertyOp0
 70
     1
102
RTVSPropertyOp1
 70
     1
102
RTVSPropertyOp2
 70
     1
102
RTVSPropertyOp3
 70
     1
102
RTVSPropertyOp4
 70
     1
102
RTVSPropertyOp5
 70
     1
102
RTVSPropertyOp6
 70
     1
102
RTVSPropertyOp7
 70
     1
102
RTVSPropertyOp8
 70
     1
102
RTVSPropertyOp9
 70
     1
102
RTVSPropertyOp10
 70
     1
102
RTVSPropertyOp11
 70
     1
102
RTVSPropertyOp12
 70
     1
102
RTVSPropertyOp13
 70
     1
102
RTVSPropertyOp14
 70
     1
102
RTVSPropertyOp15
 70
     1
102
RTVSPropertyOp16
 70
     1
102
RTVSPropertyOp17
 70
     1
102
RTVSPropertyOp18
 70
     1
102
RTVSPropertyOp19
 70
     1
102
RTVSPropertyOp20
 70
     1
102
RTVSPropertyOp21
 70
     1
102
RTVSPropertyOp22
 70
     1
102
RTVSPropertyOp23
 70
     1
102
RTVSPropertyOp24
 70
     1
102
RTVSPropertyOp25
 70
     1
102
RTVSPropertyOp26
 70
     1
102
RTVSPropertyOp27
 70
     1
102
RTVSPropertyOp28
 70
     1
102
RTVSPropertyOp29
 70
     1
102
RTVSPropertyOp30
 70
     1
102
RTVSPropertyOp31
 70
     1
102
RTVSPropertyOp32
 70
     1
102
RTVSPropertyOp33
 70
     1
102
RTVSPropertyOp34
 70
     1
102
RTVSPropertyOp35
 70
     1
102
RTVSPropertyOp36
 70
     1
102
RTVSPropertyOp37
 70
     1
102
RTVSPropertyOp38
 70
     1
102
RTVSPropertyOp39
 70
     1
102
RTVSPropertyOp40
 70
     1
102
RTVSPropertyOp41
 70
     1
102
RTVSPropertyOp42
 70
     1
102
RTVSPropertyOp43
 70
     1
102
RTVSPropertyOp44
 70
     1
102
RTVSPropertyOp45
 70
     1
102
RTVSPropertyOp46
 70
     1
102
RTVSPropertyOp47
 70
     1
102
RTVSPropertyOp48
 70
     1
102
RTVSPropertyOp49
 70
     1
102
RTVSPropertyOp50
 70
     1
102
RTVSPropertyOp51
 70
     0
102
RTVSPropertyOp52
 70
     0
102
RTVSPropertyOp53
 70
     1
102
RTVSPropertyOp54
 70
     1
102
RTVSPropertyOp55
 70
     1
102
RTVSPropertyOp56
 70
     1
102
RTVSPropertyOp57
 70
     1
102
RTVSPost2010Prop28
280
     0
102
RTVSPost2010PropOp28
 70
     1
102
RTVSPost2010Prop29
280
     1
102
RTVSPost2010PropOp29
 70
     1
102
RTVSPost2010Prop30
280
     1
102
RTVSPost2010PropOp30
 70
     1
102
RTVSPost2010Prop31
280
     0
102
RTVSPost2010PropOp31
 70
     1
102
RTVSPost2010Prop32
280
     0
102
RTVSPost2010PropOp32
 70
     1
102
RTVSPost2010Prop33
280
     0
102
RTVSPost2010PropOp33
 70
     1
102
RTVSPost2010Prop34
280
     0
102
RTVSPost2010PropOp34
 70
     1
102
RTVSPost2010Prop35
280
     0
102
RTVSPost2010PropOp35
 70
     1
102
RTVSPost2010Prop36
280
     0
102
RTVSPost2010PropOp36
 70
     1
102
RTVSPost2010Prop37
 90
       50
102
RTVSPost2010PropOp37
 70
     1
102
RTVSPost2010Prop38
140
0.0
102
RTVSPost2010PropOp38
 70
     1
102
RTVSPost2010Prop39
140
1.0
102
RTVSPost2010PropOp39
 70
     1
102
RTVSPost2010Prop40
 90
        0
102
RTVSPost2010PropOp40
 70
     1
102
RTVSPost2010Prop41ColorIndex
 90
       18
102
RTVSPost2010Prop41ColorRGB
 90
        0
102
RTVSPost2010PropOp41
 70
     1
102
RTVSPost2010Prop42
 90
       50
102
RTVSPost2010PropOp42
 70
     1
102
RTVSPost2010Prop43
 90
        3
102
RTVSPost2010PropOp43
 70
     1
102
RTVSPost2010Prop44ColorIndex
 90
        5
102
RTVSPost2010Prop44ColorRGB
 90
      255
102
RTVSPost2010PropOp44
 70
     1
102
RTVSPost2010Prop45
280
     0
102
RTVSPost2010PropOp45
 70
     1
102
RTVSPost2010Prop46
 90
       50
102
RTVSPost2010PropOp46
 70
     1
102
RTVSPost2010Prop47
 90
       50
102
RTVSPost2010PropOp47
 70
     1
102
RTVSPost2010Prop48
 90
       50
102
RTVSPost2010PropOp48
 70
     1
102
RTVSPost2010Prop49
280
     0
102
RTVSPost2010PropOp49
 70
     1
102
RTVSPost2010Prop50
 90
       50
102
RTVSPost2010PropOp50
 70
     1
102
RTVSPost2010Prop51ColorIndex
 90
      256
102
RTVSPost2010Prop51ColorRGB
 90
-16777216
102
RTVSPost2010PropOp51
 70
     0
102
RTVSPost2010Prop52
140
1.0
102
RTVSPost2010PropOp52
 70
     0
102
RTVSPost2010Prop53
 90
        2
102
RTVSPost2010PropOp53
 70
     1
102
RTVSPost2010Prop54
  1
strokes_ogs.tif
102
RTVSPost2010PropOp54
 70
     1
102
RTVSPost2010Prop55
280
     0
102
RTVSPost2010PropOp55
 70
     1
102
RTVSPost2010Prop56
140
1.0
102
RTVSPost2010PropOp56
 70
     1
102
RTVSPost2010Prop57
140
1.0
102
RTVSPost2010PropOp57
 70
     1
  0
XRECORD
  5
1EF
102
{ACAD_REACTORS
330
1EE
102
}
330
1EE
100
AcDbXrecord
280
     1
102
RTVSPropertyOp0
 70
     1
102
RTVSPropertyOp1
 70
     1
102
RTVSPropertyOp2
 70
     1
102
RTVSPropertyOp3
 70
     1
102
RTVSPropertyOp4
 70
     1
102
RTVSPropertyOp5
 70
     1
102
RTVSPropertyOp6
 70
     1
102
RTVSPropertyOp7
 70
     1
102
RTVSPropertyOp8
 70
     1
102
RTVSPropertyOp9
 70
     1
102
RTVSPropertyOp10
 70
     1
102
RTVSPropertyOp11
 70
     1
102
RTVSPropertyOp12
 70
     1
102
RTVSPropertyOp13
 70
     1
102
RTVSPropertyOp14
 70
     1
102
RTVSPropertyOp15
 70
     1
102
RTVSPropertyOp16
 70
     1
102
RTVSPropertyOp17
 70
     1
102
RTVSPropertyOp18
 70
     1
102
RTVSPropertyOp19
 70
     1
102
RTVSPropertyOp20
 70
     1
102
RTVSPropertyOp21
 70
     1
102
RTVSPropertyOp22
 70
     1
102
RTVSPropertyOp23
 70
     1
102
RTVSPropertyOp24
 70
     1
102
RTVSPropertyOp25
 70
     1
102
RTVSPropertyOp26
 70
     1
102
RTVSPropertyOp27
 70
     1
102
RTVSPropertyOp28
 70
     1
102
RTVSPropertyOp29
 70
     1
102
RTVSPropertyOp30
 70
     1
102
RTVSPropertyOp31
 70
     1
102
RTVSPropertyOp32
 70
     1
102
RTVSPropertyOp33
 70
     1
102
RTVSPropertyOp34
 70
     1
102
RTVSPropertyOp35
 70
     1
102
RTVSPropertyOp36
 70
     1
102
RTVSPropertyOp37
 70
     1
102
RTVSPropertyOp38
 70
     1
102
RTVSPropertyOp39
 70
     1
102
RTVSPropertyOp40
 70
     1
102
RTVSPropertyOp41
 70
     1
102
RTVSPropertyOp42
 70
     1
102
RTVSPropertyOp43
 70
     1
102
RTVSPropertyOp44
 70
     1
102
RTVSPropertyOp45
 70
     1
102
RTVSPropertyOp46
 70
     1
102
RTVSPropertyOp47
 70
     1
102
RTVSPropertyOp48
 70
     1
102
RTVSPropertyOp49
 70
     1
102
RTVSPropertyOp50
 70
     1
102
RTVSPropertyOp51
 70
     0
102
RTVSPropertyOp52
 70
     0
102
RTVSPropertyOp53
 70
     1
102
RTVSPropertyOp54
 70
     1
102
RTVSPropertyOp55
 70
     1
102
RTVSPropertyOp56
 70
     1
102
RTVSPropertyOp57
 70
     1
102
RTVSPost2010Prop28
280
     0
102
RTVSPost2010PropOp28
 70
     1
102
RTVSPost2010Prop29
280
     1
102
RTVSPost2010PropOp29
 70
     1
102
RTVSPost2010Prop30
280
     1
102
RTVSPost2010PropOp30
 70
     1
102
RTVSPost2010Prop31
280
     0
102
RTVSPost2010PropOp31
 70
     1
102
RTVSPost2010Prop32
280
     0
102
RTVSPost2010PropOp32
 70
     1
102
RTVSPost2010Prop33
280
     0
102
RTVSPost2010PropOp33
 70
     1
102
RTVSPost2010Prop34
280
     0
102
RTVSPost2010PropOp34
 70
     1
102
RTVSPost2010Prop35
280
     0
102
RTVSPost2010PropOp35
 70
     1
102
RTVSPost2010Prop36
280
     0
102
RTVSPost2010PropOp36
 70
     1
102
RTVSPost2010Prop37
 90
       50
102
RTVSPost2010PropOp37
 70
     1
102
RTVSPost2010Prop38
140
0.0
102
RTVSPost2010PropOp38
 70
     1
102
RTVSPost2010Prop39
140
1.0
102
RTVSPost2010PropOp39
 70
     1
102
RTVSPost2010Prop40
 90
        0
102
RTVSPost2010PropOp40
 70
     1
102
RTVSPost2010Prop41ColorIndex
 90
       18
102
RTVSPost2010Prop41ColorRGB
 90
        0
102
RTVSPost2010PropOp41
 70
     1
102
RTVSPost2010Prop42
 90
       50
102
RTVSPost2010PropOp42
 70
     1
102
RTVSPost2010Prop43
 90
        3
102
RTVSPost2010PropOp43
 70
     1
102
RTVSPost2010Prop44ColorIndex
 90
        5
102
RTVSPost2010Prop44ColorRGB
 90
      255
102
RTVSPost2010PropOp44
 70
     1
102
RTVSPost2010Prop45
280
     0
102
RTVSPost2010PropOp45
 70
     1
102
RTVSPost2010Prop46
 90
       50
102
RTVSPost2010PropOp46
 70
     1
102
RTVSPost2010Prop47
 90
       50
102
RTVSPost2010PropOp47
 70
     1
102
RTVSPost2010Prop48
 90
       50
102
RTVSPost2010PropOp48
 70
     1
102
RTVSPost2010Prop49
280
     0
102
RTVSPost2010PropOp49
 70
     1
102
RTVSPost2010Prop50
 90
       50
102
RTVSPost2010PropOp50
 70
     1
102
RTVSPost2010Prop51ColorIndex
 90
      256
102
RTVSPost2010Prop51ColorRGB
 90
-16777216
102
RTVSPost2010PropOp51
 70
     0
102
RTVSPost2010Prop52
140
1.0
102
RTVSPost2010PropOp52
 70
     0
102
RTVSPost2010Prop53
 90
        2
102
RTVSPost2010PropOp53
 70
     1
102
RTVSPost2010Prop54
  1
strokes_ogs.tif
102
RTVSPost2010PropOp54
 70
     1
102
RTVSPost2010Prop55
280
     0
102
RTVSPost2010PropOp55
 70
     1
102
RTVSPost2010Prop56
140
1.0
102
RTVSPost2010PropOp56
 70
     1
102
RTVSPost2010Prop57
140
1.0
102
RTVSPost2010PropOp57
 70
     1
  0
XRECORD
  5
1F1
102
{ACAD_REACTORS
330
1F0
102
}
330
1F0
100
AcDbXrecord
280
     1
102
RTVSPropertyOp0
 70
     1
102
RTVSPropertyOp1
 70
     1
102
RTVSPropertyOp2
 70
     1
102
RTVSPropertyOp3
 70
     1
102
RTVSPropertyOp4
 70
     1
102
RTVSPropertyOp5
 70
     1
102
RTVSPropertyOp6
 70
     1
102
RTVSPropertyOp7
 70
     1
102
RTVSPropertyOp8
 70
     1
102
RTVSPropertyOp9
 70
     1
102
RTVSPropertyOp10
 70
     1
102
RTVSPropertyOp11
 70
     1
102
RTVSPropertyOp12
 70
     1
102
RTVSPropertyOp13
 70
     1
102
RTVSPropertyOp14
 70
     1
102
RTVSPropertyOp15
 70
     1
102
RTVSPropertyOp16
 70
     1
102
RTVSPropertyOp17
 70
     1
102
RTVSPropertyOp18
 70
     1
102
RTVSPropertyOp19
 70
     1
102
RTVSPropertyOp20
 70
     1
102
RTVSPropertyOp21
 70
     1
102
RTVSPropertyOp22
 70
     1
102
RTVSPropertyOp23
 70
     1
102
RTVSPropertyOp24
 70
     1
102
RTVSPropertyOp25
 70
     1
102
RTVSPropertyOp26
 70
     1
102
RTVSPropertyOp27
 70
     1
102
RTVSPropertyOp28
 70
     1
102
RTVSPropertyOp29
 70
     1
102
RTVSPropertyOp30
 70
     1
102
RTVSPropertyOp31
 70
     1
102
RTVSPropertyOp32
 70
     1
102
RTVSPropertyOp33
 70
     1
102
RTVSPropertyOp34
 70
     1
102
RTVSPropertyOp35
 70
     1
102
RTVSPropertyOp36
 70
     1
102
RTVSPropertyOp37
 70
     1
102
RTVSPropertyOp38
 70
     1
102
RTVSPropertyOp39
 70
     1
102
RTVSPropertyOp40
 70
     1
102
RTVSPropertyOp41
 70
     1
102
RTVSPropertyOp42
 70
     1
102
RTVSPropertyOp43
 70
     1
102
RTVSPropertyOp44
 70
     1
102
RTVSPropertyOp45
 70
     1
102
RTVSPropertyOp46
 70
     1
102
RTVSPropertyOp47
 70
     1
102
RTVSPropertyOp48
 70
     1
102
RTVSPropertyOp49
 70
     1
102
RTVSPropertyOp50
 70
     1
102
RTVSPropertyOp51
 70
     0
102
RTVSPropertyOp52
 70
     0
102
RTVSPropertyOp53
 70
     1
102
RTVSPropertyOp54
 70
     1
102
RTVSPropertyOp55
 70
     1
102
RTVSPropertyOp56
 70
     1
102
RTVSPropertyOp57
 70
     1
102
RTVSPost2010Prop28
280
     0
102
RTVSPost2010PropOp28
 70
     1
102
RTVSPost2010Prop29
280
     1
102
RTVSPost2010PropOp29
 70
     1
102
RTVSPost2010Prop30
280
     1
102
RTVSPost2010PropOp30
 70
     1
102
RTVSPost2010Prop31
280
     0
102
RTVSPost2010PropOp31
 70
     1
102
RTVSPost2010Prop32
280
     0
102
RTVSPost2010PropOp32
 70
     1
102
RTVSPost2010Prop33
280
     0
102
RTVSPost2010PropOp33
 70
     1
102
RTVSPost2010Prop34
280
     0
102
RTVSPost2010PropOp34
 70
     1
102
RTVSPost2010Prop35
280
     0
102
RTVSPost2010PropOp35
 70
     1
102
RTVSPost2010Prop36
280
     0
102
RTVSPost2010PropOp36
 70
     1
102
RTVSPost2010Prop37
 90
       50
102
RTVSPost2010PropOp37
 70
     1
102
RTVSPost2010Prop38
140
0.0
102
RTVSPost2010PropOp38
 70
     1
102
RTVSPost2010Prop39
140
1.0
102
RTVSPost2010PropOp39
 70
     1
102
RTVSPost2010Prop40
 90
        0
102
RTVSPost2010PropOp40
 70
     1
102
RTVSPost2010Prop41ColorIndex
 90
       18
102
RTVSPost2010Prop41ColorRGB
 90
        0
102
RTVSPost2010PropOp41
 70
     1
102
RTVSPost2010Prop42
 90
       50
102
RTVSPost2010PropOp42
 70
     1
102
RTVSPost2010Prop43
 90
        3
102
RTVSPost2010PropOp43
 70
     1
102
RTVSPost2010Prop44ColorIndex
 90
        5
102
RTVSPost2010Prop44ColorRGB
 90
      255
102
RTVSPost2010PropOp44
 70
     1
102
RTVSPost2010Prop45
280
     0
102
RTVSPost2010PropOp45
 70
     1
102
RTVSPost2010Prop46
 90
       50
102
RTVSPost2010PropOp46
 70
     1
102
RTVSPost2010Prop47
 90
       50
102
RTVSPost2010PropOp47
 70
     1
102
RTVSPost2010Prop48
 90
       50
102
RTVSPost2010PropOp48
 70
     1
102
RTVSPost2010Prop49
280
     0
102
RTVSPost2010PropOp49
 70
     1
102
RTVSPost2010Prop50
 90
       50
102
RTVSPost2010PropOp50
 70
     1
102
RTVSPost2010Prop51ColorIndex
 90
      256
102
RTVSPost2010Prop51ColorRGB
 90
-16777216
102
RTVSPost2010PropOp51
 70
     0
102
RTVSPost2010Prop52
140
1.0
102
RTVSPost2010PropOp52
 70
     0
102
RTVSPost2010Prop53
 90
        2
102
RTVSPost2010PropOp53
 70
     1
102
RTVSPost2010Prop54
  1
strokes_ogs.tif
102
RTVSPost2010PropOp54
 70
     1
102
RTVSPost2010Prop55
280
     0
102
RTVSPost2010PropOp55
 70
     1
102
RTVSPost2010Prop56
140
1.0
102
RTVSPost2010PropOp56
 70
     1
102
RTVSPost2010Prop57
140
1.0
102
RTVSPost2010PropOp57
 70
     1
  0
XRECORD
  5
1F7
102
{ACAD_REACTORS
330
1F6
102
}
330
1F6
100
AcDbXrecord
280
     1
102
RTVSPropertyOp0
 70
     1
102
RTVSPropertyOp1
 70
     1
102
RTVSPropertyOp2
 70
     1
102
RTVSPropertyOp3
 70
     1
102
RTVSPropertyOp4
 70
     1
102
RTVSPropertyOp5
 70
     1
102
RTVSPropertyOp6
 70
     1
102
RTVSPropertyOp7
 70
     1
102
RTVSPropertyOp8
 70
     1
102
RTVSPropertyOp9
 70
     1
102
RTVSPropertyOp10
 70
     1
102
RTVSPropertyOp11
 70
     1
102
RTVSPropertyOp12
 70
     1
102
RTVSPropertyOp13
 70
     1
102
RTVSPropertyOp14
 70
     1
102
RTVSPropertyOp15
 70
     1
102
RTVSPropertyOp16
 70
     1
102
RTVSPropertyOp17
 70
     1
102
RTVSPropertyOp18
 70
     1
102
RTVSPropertyOp19
 70
     1
102
RTVSPropertyOp20
 70
     1
102
RTVSPropertyOp21
 70
     1
102
RTVSPropertyOp22
 70
     1
102
RTVSPropertyOp23
 70
     1
102
RTVSPropertyOp24
 70
     1
102
RTVSPropertyOp25
 70
     1
102
RTVSPropertyOp26
 70
     1
102
RTVSPropertyOp27
 70
     1
102
RTVSPropertyOp28
 70
     1
102
RTVSPropertyOp29
 70
     1
102
RTVSPropertyOp30
 70
     1
102
RTVSPropertyOp31
 70
     1
102
RTVSPropertyOp32
 70
     1
102
RTVSPropertyOp33
 70
     1
102
RTVSPropertyOp34
 70
     1
102
RTVSPropertyOp35
 70
     1
102
RTVSPropertyOp36
 70
     1
102
RTVSPropertyOp37
 70
     1
102
RTVSPropertyOp38
 70
     1
102
RTVSPropertyOp39
 70
     1
102
RTVSPropertyOp40
 70
     1
102
RTVSPropertyOp41
 70
     1
102
RTVSPropertyOp42
 70
     1
102
RTVSPropertyOp43
 70
     1
102
RTVSPropertyOp44
 70
     1
102
RTVSPropertyOp45
 70
     1
102
RTVSPropertyOp46
 70
     1
102
RTVSPropertyOp47
 70
     1
102
RTVSPropertyOp48
 70
     1
102
RTVSPropertyOp49
 70
     1
102
RTVSPropertyOp50
 70
     1
102
RTVSPropertyOp51
 70
     0
102
RTVSPropertyOp52
 70
     0
102
RTVSPropertyOp53
 70
     1
102
RTVSPropertyOp54
 70
     1
102
RTVSPropertyOp55
 70
     1
102
RTVSPropertyOp56
 70
     1
102
RTVSPropertyOp57
 70
     1
102
RTVSPost2010Prop28
280
     0
102
RTVSPost2010PropOp28
 70
     1
102
RTVSPost2010Prop29
280
     1
102
RTVSPost2010PropOp29
 70
     1
102
RTVSPost2010Prop30
280
     1
102
RTVSPost2010PropOp30
 70
     1
102
RTVSPost2010Prop31
280
     0
102
RTVSPost2010PropOp31
 70
     1
102
RTVSPost2010Prop32
280
     0
102
RTVSPost2010PropOp32
 70
     1
102
RTVSPost2010Prop33
280
     0
102
RTVSPost2010PropOp33
 70
     1
102
RTVSPost2010Prop34
280
     0
102
RTVSPost2010PropOp34
 70
     1
102
RTVSPost2010Prop35
280
     0
102
RTVSPost2010PropOp35
 70
     1
102
RTVSPost2010Prop36
280
     0
102
RTVSPost2010PropOp36
 70
     1
102
RTVSPost2010Prop37
 90
       50
102
RTVSPost2010PropOp37
 70
     1
102
RTVSPost2010Prop38
140
0.0
102
RTVSPost2010PropOp38
 70
     1
102
RTVSPost2010Prop39
140
1.0
102
RTVSPost2010PropOp39
 70
     1
102
RTVSPost2010Prop40
 90
        0
102
RTVSPost2010PropOp40
 70
     1
102
RTVSPost2010Prop41ColorIndex
 90
       18
102
RTVSPost2010Prop41ColorRGB
 90
        0
102
RTVSPost2010PropOp41
 70
     1
102
RTVSPost2010Prop42
 90
       50
102
RTVSPost2010PropOp42
 70
     1
102
RTVSPost2010Prop43
 90
        3
102
RTVSPost2010PropOp43
 70
     1
102
RTVSPost2010Prop44ColorIndex
 90
        5
102
RTVSPost2010Prop44ColorRGB
 90
      255
102
RTVSPost2010PropOp44
 70
     1
102
RTVSPost2010Prop45
280
     0
102
RTVSPost2010PropOp45
 70
     1
102
RTVSPost2010Prop46
 90
       50
102
RTVSPost2010PropOp46
 70
     1
102
RTVSPost2010Prop47
 90
       50
102
RTVSPost2010PropOp47
 70
     1
102
RTVSPost2010Prop48
 90
       50
102
RTVSPost2010PropOp48
 70
     1
102
RTVSPost2010Prop49
280
     0
102
RTVSPost2010PropOp49
 70
     1
102
RTVSPost2010Prop50
 90
       50
102
RTVSPost2010PropOp50
 70
     1
102
RTVSPost2010Prop51ColorIndex
 90
      256
102
RTVSPost2010Prop51ColorRGB
 90
-16777216
102
RTVSPost2010PropOp51
 70
     0
102
RTVSPost2010Prop52
140
1.0
102
RTVSPost2010PropOp52
 70
     0
102
RTVSPost2010Prop53
 90
        2
102
RTVSPost2010PropOp53
 70
     1
102
RTVSPost2010Prop54
  1
strokes_ogs.tif
102
RTVSPost2010PropOp54
 70
     1
102
RTVSPost2010Prop55
280
     0
102
RTVSPost2010PropOp55
 70
     1
102
RTVSPost2010Prop56
140
1.0
102
RTVSPost2010PropOp56
 70
     1
102
RTVSPost2010Prop57
140
1.0
102
RTVSPost2010PropOp57
 70
     1
  0
XRECORD
  5
20B
102
{ACAD_REACTORS
330
20A
102
}
330
20A
100
AcDbXrecord
280
     1
102
RTVSPropertyOp0
 70
     0
102
RTVSPropertyOp1
 70
     0
102
RTVSPropertyOp2
 70
     0
102
RTVSPropertyOp3
 70
     0
102
RTVSPropertyOp4
 70
     0
102
RTVSPropertyOp5
 70
     0
102
RTVSPropertyOp6
 70
     0
102
RTVSPropertyOp7
 70
     0
102
RTVSPropertyOp8
 70
     0
102
RTVSPropertyOp9
 70
     0
102
RTVSPropertyOp10
 70
     0
102
RTVSPropertyOp11
 70
     0
102
RTVSPropertyOp12
 70
     0
102
RTVSPropertyOp13
 70
     0
102
RTVSPropertyOp14
 70
     2
102
RTVSPropertyOp15
 70
     0
102
RTVSPropertyOp16
 70
     0
102
RTVSPropertyOp17
 70
     0
102
RTVSPropertyOp18
 70
     0
102
RTVSPropertyOp19
 70
     0
102
RTVSPropertyOp20
 70
     0
102
RTVSPropertyOp21
 70
     0
102
RTVSPropertyOp22
 70
     0
102
RTVSPropertyOp23
 70
     0
102
RTVSPropertyOp24
 70
     0
102
RTVSPropertyOp25
 70
     0
102
RTVSPropertyOp26
 70
     0
102
RTVSPropertyOp27
 70
     0
102
RTVSPropertyOp28
 70
     0
102
RTVSPropertyOp29
 70
     0
102
RTVSPropertyOp30
 70
     0
102
RTVSPropertyOp31
 70
     0
102
RTVSPropertyOp32
 70
     0
102
RTVSPropertyOp33
 70
     0
102
RTVSPropertyOp34
 70
     0
102
RTVSPropertyOp35
 70
     0
102
RTVSPropertyOp36
 70
     0
102
RTVSPropertyOp37
 70
     0
102
RTVSPropertyOp38
 70
     0
102
RTVSPropertyOp39
 70
     0
102
RTVSPropertyOp40
 70
     0
102
RTVSPropertyOp41
 70
     0
102
RTVSPropertyOp42
 70
     0
102
RTVSPropertyOp43
 70
     0
102
RTVSPropertyOp44
 70
     0
102
RTVSPropertyOp45
 70
     0
102
RTVSPropertyOp46
 70
     0
102
RTVSPropertyOp47
 70
     0
102
RTVSPropertyOp48
 70
     0
102
RTVSPropertyOp49
 70
     0
102
RTVSPropertyOp50
 70
     0
102
RTVSPropertyOp51
 70
     0
102
RTVSPropertyOp52
 70
     0
102
RTVSPropertyOp53
 70
     0
102
RTVSPropertyOp54
 70
     0
102
RTVSPropertyOp55
 70
     0
102
RTVSPropertyOp56
 70
     0
102
RTVSPropertyOp57
 70
     0
102
RTVSPost2010Prop28
280
     0
102
RTVSPost2010PropOp28
 70
     0
102
RTVSPost2010Prop29
280
     1
102
RTVSPost2010PropOp29
 70
     0
102
RTVSPost2010Prop30
280
     1
102
RTVSPost2010PropOp30
 70
     0
102
RTVSPost2010Prop31
280
     0
102
RTVSPost2010PropOp31
 70
     0
102
RTVSPost2010Prop32
280
     0
102
RTVSPost2010PropOp32
 70
     0
102
RTVSPost2010Prop33
280
     0
102
RTVSPost2010PropOp33
 70
     0
102
RTVSPost2010Prop34
280
     0
102
RTVSPost2010PropOp34
 70
     0
102
RTVSPost2010Prop35
280
     0
102
RTVSPost2010PropOp35
 70
     0
102
RTVSPost2010Prop36
280
     0
102
RTVSPost2010PropOp36
 70
     0
102
RTVSPost2010Prop37
 90
       50
102
RTVSPost2010PropOp37
 70
     0
102
RTVSPost2010Prop38
140
0.0
102
RTVSPost2010PropOp38
 70
     0
102
RTVSPost2010Prop39
140
1.0
102
RTVSPost2010PropOp39
 70
     0
102
RTVSPost2010Prop40
 90
        0
102
RTVSPost2010PropOp40
 70
     0
102
RTVSPost2010Prop41ColorIndex
 90
       18
102
RTVSPost2010Prop41ColorRGB
 90
        0
102
RTVSPost2010PropOp41
 70
     0
102
RTVSPost2010Prop42
 90
       50
102
RTVSPost2010PropOp42
 70
     0
102
RTVSPost2010Prop43
 90
        3
102
RTVSPost2010PropOp43
 70
     0
102
RTVSPost2010Prop44ColorIndex
 90
        5
102
RTVSPost2010Prop44ColorRGB
 90
      255
102
RTVSPost2010PropOp44
 70
     0
102
RTVSPost2010Prop45
280
     0
102
RTVSPost2010PropOp45
 70
     0
102
RTVSPost2010Prop46
 90
       50
102
RTVSPost2010PropOp46
 70
     0
102
RTVSPost2010Prop47
 90
       50
102
RTVSPost2010PropOp47
 70
     0
102
RTVSPost2010Prop48
 90
       50
102
RTVSPost2010PropOp48
 70
     0
102
RTVSPost2010Prop49
280
     0
102
RTVSPost2010PropOp49
 70
     0
102
RTVSPost2010Prop50
 90
       50
102
RTVSPost2010PropOp50
 70
     0
102
RTVSPost2010Prop51ColorIndex
 90
      256
102
RTVSPost2010Prop51ColorRGB
 90
-16777216
102
RTVSPost2010PropOp51
 70
     0
102
RTVSPost2010Prop52
140
1.0
102
RTVSPost2010PropOp52
 70
     0
102
RTVSPost2010Prop53
 90
        2
102
RTVSPost2010PropOp53
 70
     0
102
RTVSPost2010Prop54
  1
strokes_ogs.tif
102
RTVSPost2010PropOp54
 70
     0
102
RTVSPost2010Prop55
280
     0
102
RTVSPost2010PropOp55
 70
     0
102
RTVSPost2010Prop56
140
1.0
102
RTVSPost2010PropOp56
 70
     0
102
RTVSPost2010Prop57
140
1.0
102
RTVSPost2010PropOp57
 70
     0
  0
XRECORD
  5
205
102
{ACAD_REACTORS
330
204
102
}
330
204
100
AcDbXrecord
280
     1
102
RTVSPropertyOp0
 70
     1
102
RTVSPropertyOp1
 70
     1
102
RTVSPropertyOp2
 70
     1
102
RTVSPropertyOp3
 70
     1
102
RTVSPropertyOp4
 70
     1
102
RTVSPropertyOp5
 70
     1
102
RTVSPropertyOp6
 70
     1
102
RTVSPropertyOp7
 70
     1
102
RTVSPropertyOp8
 70
     1
102
RTVSPropertyOp9
 70
     1
102
RTVSPropertyOp10
 70
     1
102
RTVSPropertyOp11
 70
     1
102
RTVSPropertyOp12
 70
     1
102
RTVSPropertyOp13
 70
     1
102
RTVSPropertyOp14
 70
     1
102
RTVSPropertyOp15
 70
     1
102
RTVSPropertyOp16
 70
     1
102
RTVSPropertyOp17
 70
     1
102
RTVSPropertyOp18
 70
     1
102
RTVSPropertyOp19
 70
     1
102
RTVSPropertyOp20
 70
     1
102
RTVSPropertyOp21
 70
     1
102
RTVSPropertyOp22
 70
     1
102
RTVSPropertyOp23
 70
     1
102
RTVSPropertyOp24
 70
     1
102
RTVSPropertyOp25
 70
     1
102
RTVSPropertyOp26
 70
     1
102
RTVSPropertyOp27
 70
     1
102
RTVSPropertyOp28
 70
     1
102
RTVSPropertyOp29
 70
     1
102
RTVSPropertyOp30
 70
     1
102
RTVSPropertyOp31
 70
     1
102
RTVSPropertyOp32
 70
     1
102
RTVSPropertyOp33
 70
     1
102
RTVSPropertyOp34
 70
     1
102
RTVSPropertyOp35
 70
     1
102
RTVSPropertyOp36
 70
     1
102
RTVSPropertyOp37
 70
     1
102
RTVSPropertyOp38
 70
     1
102
RTVSPropertyOp39
 70
     1
102
RTVSPropertyOp40
 70
     1
102
RTVSPropertyOp41
 70
     1
102
RTVSPropertyOp42
 70
     1
102
RTVSPropertyOp43
 70
     1
102
RTVSPropertyOp44
 70
     1
102
RTVSPropertyOp45
 70
     1
102
RTVSPropertyOp46
 70
     1
102
RTVSPropertyOp47
 70
     1
102
RTVSPropertyOp48
 70
     1
102
RTVSPropertyOp49
 70
     1
102
RTVSPropertyOp50
 70
     1
102
RTVSPropertyOp51
 70
     0
102
RTVSPropertyOp52
 70
     0
102
RTVSPropertyOp53
 70
     1
102
RTVSPropertyOp54
 70
     1
102
RTVSPropertyOp55
 70
     1
102
RTVSPropertyOp56
 70
     1
102
RTVSPropertyOp57
 70
     1
102
RTVSPost2010Prop28
280
     0
102
RTVSPost2010PropOp28
 70
     1
102
RTVSPost2010Prop29
280
     1
102
RTVSPost2010PropOp29
 70
     1
102
RTVSPost2010Prop30
280
     1
102
RTVSPost2010PropOp30
 70
     1
102
RTVSPost2010Prop31
280
     0
102
RTVSPost2010PropOp31
 70
     1
102
RTVSPost2010Prop32
280
     0
102
RTVSPost2010PropOp32
 70
     1
102
RTVSPost2010Prop33
280
     0
102
RTVSPost2010PropOp33
 70
     1
102
RTVSPost2010Prop34
280
     0
102
RTVSPost2010PropOp34
 70
     1
102
RTVSPost2010Prop35
280
     0
102
RTVSPost2010PropOp35
 70
     1
102
RTVSPost2010Prop36
280
     0
102
RTVSPost2010PropOp36
 70
     1
102
RTVSPost2010Prop37
 90
       50
102
RTVSPost2010PropOp37
 70
     1
102
RTVSPost2010Prop38
140
0.0
102
RTVSPost2010PropOp38
 70
     1
102
RTVSPost2010Prop39
140
1.0
102
RTVSPost2010PropOp39
 70
     1
102
RTVSPost2010Prop40
 90
        0
102
RTVSPost2010PropOp40
 70
     1
102
RTVSPost2010Prop41ColorIndex
 90
       18
102
RTVSPost2010Prop41ColorRGB
 90
        0
102
RTVSPost2010PropOp41
 70
     1
102
RTVSPost2010Prop42
 90
       50
102
RTVSPost2010PropOp42
 70
     1
102
RTVSPost2010Prop43
 90
        3
102
RTVSPost2010PropOp43
 70
     1
102
RTVSPost2010Prop44ColorIndex
 90
        5
102
RTVSPost2010Prop44ColorRGB
 90
      255
102
RTVSPost2010PropOp44
 70
     1
102
RTVSPost2010Prop45
280
     0
102
RTVSPost2010PropOp45
 70
     1
102
RTVSPost2010Prop46
 90
       50
102
RTVSPost2010PropOp46
 70
     1
102
RTVSPost2010Prop47
 90
       50
102
RTVSPost2010PropOp47
 70
     1
102
RTVSPost2010Prop48
 90
       50
102
RTVSPost2010PropOp48
 70
     1
102
RTVSPost2010Prop49
280
     0
102
RTVSPost2010PropOp49
 70
     1
102
RTVSPost2010Prop50
 90
       50
102
RTVSPost2010PropOp50
 70
     1
102
RTVSPost2010Prop51ColorIndex
 90
      256
102
RTVSPost2010Prop51ColorRGB
 90
-16777216
102
RTVSPost2010PropOp51
 70
     0
102
RTVSPost2010Prop52
140
1.0
102
RTVSPost2010PropOp52
 70
     0
102
RTVSPost2010Prop53
 90
        2
102
RTVSPost2010PropOp53
 70
     1
102
RTVSPost2010Prop54
  1
strokes_ogs.tif
102
RTVSPost2010PropOp54
 70
     1
102
RTVSPost2010Prop55
280
     0
102
RTVSPost2010PropOp55
 70
     1
102
RTVSPost2010Prop56
140
1.0
102
RTVSPost2010PropOp56
 70
     1
102
RTVSPost2010Prop57
140
1.0
102
RTVSPost2010PropOp57
 70
     1
  0
XRECORD
  5
20D
102
{ACAD_REACTORS
330
20C
102
}
330
20C
100
AcDbXrecord
280
     1
102
RTVSPropertyOp0
 70
     0
102
RTVSPropertyOp1
 70
     0
102
RTVSPropertyOp2
 70
     0
102
RTVSPropertyOp3
 70
     0
102
RTVSPropertyOp4
 70
     0
102
RTVSPropertyOp5
 70
     0
102
RTVSPropertyOp6
 70
     0
102
RTVSPropertyOp7
 70
     0
102
RTVSPropertyOp8
 70
     0
102
RTVSPropertyOp9
 70
     0
102
RTVSPropertyOp10
 70
     0
102
RTVSPropertyOp11
 70
     0
102
RTVSPropertyOp12
 70
     0
102
RTVSPropertyOp13
 70
     0
102
RTVSPropertyOp14
 70
     2
102
RTVSPropertyOp15
 70
     0
102
RTVSPropertyOp16
 70
     0
102
RTVSPropertyOp17
 70
     0
102
RTVSPropertyOp18
 70
     0
102
RTVSPropertyOp19
 70
     0
102
RTVSPropertyOp20
 70
     0
102
RTVSPropertyOp21
 70
     0
102
RTVSPropertyOp22
 70
     0
102
RTVSPropertyOp23
 70
     0
102
RTVSPropertyOp24
 70
     0
102
RTVSPropertyOp25
 70
     0
102
RTVSPropertyOp26
 70
     0
102
RTVSPropertyOp27
 70
     0
102
RTVSPropertyOp28
 70
     0
102
RTVSPropertyOp29
 70
     0
102
RTVSPropertyOp30
 70
     0
102
RTVSPropertyOp31
 70
     0
102
RTVSPropertyOp32
 70
     0
102
RTVSPropertyOp33
 70
     0
102
RTVSPropertyOp34
 70
     0
102
RTVSPropertyOp35
 70
     0
102
RTVSPropertyOp36
 70
     0
102
RTVSPropertyOp37
 70
     0
102
RTVSPropertyOp38
 70
     0
102
RTVSPropertyOp39
 70
     0
102
RTVSPropertyOp40
 70
     0
102
RTVSPropertyOp41
 70
     0
102
RTVSPropertyOp42
 70
     0
102
RTVSPropertyOp43
 70
     0
102
RTVSPropertyOp44
 70
     0
102
RTVSPropertyOp45
 70
     0
102
RTVSPropertyOp46
 70
     0
102
RTVSPropertyOp47
 70
     0
102
RTVSPropertyOp48
 70
     0
102
RTVSPropertyOp49
 70
     0
102
RTVSPropertyOp50
 70
     0
102
RTVSPropertyOp51
 70
     0
102
RTVSPropertyOp52
 70
     0
102
RTVSPropertyOp53
 70
     0
102
RTVSPropertyOp54
 70
     0
102
RTVSPropertyOp55
 70
     0
102
RTVSPropertyOp56
 70
     0
102
RTVSPropertyOp57
 70
     0
102
RTVSPost2010Prop28
280
     0
102
RTVSPost2010PropOp28
 70
     0
102
RTVSPost2010Prop29
280
     1
102
RTVSPost2010PropOp29
 70
     0
102
RTVSPost2010Prop30
280
     1
102
RTVSPost2010PropOp30
 70
     0
102
RTVSPost2010Prop31
280
     0
102
RTVSPost2010PropOp31
 70
     0
102
RTVSPost2010Prop32
280
     0
102
RTVSPost2010PropOp32
 70
     0
102
RTVSPost2010Prop33
280
     0
102
RTVSPost2010PropOp33
 70
     0
102
RTVSPost2010Prop34
280
     0
102
RTVSPost2010PropOp34
 70
     0
102
RTVSPost2010Prop35
280
     0
102
RTVSPost2010PropOp35
 70
     0
102
RTVSPost2010Prop36
280
     0
102
RTVSPost2010PropOp36
 70
     0
102
RTVSPost2010Prop37
 90
       50
102
RTVSPost2010PropOp37
 70
     0
102
RTVSPost2010Prop38
140
0.0
102
RTVSPost2010PropOp38
 70
     0
102
RTVSPost2010Prop39
140
1.0
102
RTVSPost2010PropOp39
 70
     0
102
RTVSPost2010Prop40
 90
        0
102
RTVSPost2010PropOp40
 70
     0
102
RTVSPost2010Prop41ColorIndex
 90
       18
102
RTVSPost2010Prop41ColorRGB
 90
        0
102
RTVSPost2010PropOp41
 70
     0
102
RTVSPost2010Prop42
 90
       50
102
RTVSPost2010PropOp42
 70
     0
102
RTVSPost2010Prop43
 90
        3
102
RTVSPost2010PropOp43
 70
     0
102
RTVSPost2010Prop44ColorIndex
 90
        5
102
RTVSPost2010Prop44ColorRGB
 90
      255
102
RTVSPost2010PropOp44
 70
     0
102
RTVSPost2010Prop45
280
     0
102
RTVSPost2010PropOp45
 70
     0
102
RTVSPost2010Prop46
 90
       50
102
RTVSPost2010PropOp46
 70
     0
102
RTVSPost2010Prop47
 90
       50
102
RTVSPost2010PropOp47
 70
     0
102
RTVSPost2010Prop48
 90
       50
102
RTVSPost2010PropOp48
 70
     0
102
RTVSPost2010Prop49
280
     0
102
RTVSPost2010PropOp49
 70
     0
102
RTVSPost2010Prop50
 90
       50
102
RTVSPost2010PropOp50
 70
     0
102
RTVSPost2010Prop51ColorIndex
 90
      256
102
RTVSPost2010Prop51ColorRGB
 90
-16777216
102
RTVSPost2010PropOp51
 70
     0
102
RTVSPost2010Prop52
140
1.0
102
RTVSPost2010PropOp52
 70
     0
102
RTVSPost2010Prop53
 90
        2
102
RTVSPost2010PropOp53
 70
     0
102
RTVSPost2010Prop54
  1
strokes_ogs.tif
102
RTVSPost2010PropOp54
 70
     0
102
RTVSPost2010Prop55
280
     0
102
RTVSPost2010PropOp55
 70
     0
102
RTVSPost2010Prop56
140
1.0
102
RTVSPost2010PropOp56
 70
     0
102
RTVSPost2010Prop57
140
1.0
102
RTVSPost2010PropOp57
 70
     0
  0
XRECORD
  5
1FB
102
{ACAD_REACTORS
330
1FA
102
}
330
1FA
100
AcDbXrecord
280
     1
102
RTVSPropertyOp0
 70
     1
102
RTVSPropertyOp1
 70
     1
102
RTVSPropertyOp2
 70
     1
102
RTVSPropertyOp3
 70
     1
102
RTVSPropertyOp4
 70
     1
102
RTVSPropertyOp5
 70
     1
102
RTVSPropertyOp6
 70
     1
102
RTVSPropertyOp7
 70
     1
102
RTVSPropertyOp8
 70
     1
102
RTVSPropertyOp9
 70
     1
102
RTVSPropertyOp10
 70
     1
102
RTVSPropertyOp11
 70
     1
102
RTVSPropertyOp12
 70
     1
102
RTVSPropertyOp13
 70
     1
102
RTVSPropertyOp14
 70
     1
102
RTVSPropertyOp15
 70
     1
102
RTVSPropertyOp16
 70
     1
102
RTVSPropertyOp17
 70
     1
102
RTVSPropertyOp18
 70
     1
102
RTVSPropertyOp19
 70
     1
102
RTVSPropertyOp20
 70
     1
102
RTVSPropertyOp21
 70
     1
102
RTVSPropertyOp22
 70
     1
102
RTVSPropertyOp23
 70
     1
102
RTVSPropertyOp24
 70
     1
102
RTVSPropertyOp25
 70
     1
102
RTVSPropertyOp26
 70
     1
102
RTVSPropertyOp27
 70
     1
102
RTVSPropertyOp28
 70
     1
102
RTVSPropertyOp29
 70
     1
102
RTVSPropertyOp30
 70
     1
102
RTVSPropertyOp31
 70
     1
102
RTVSPropertyOp32
 70
     1
102
RTVSPropertyOp33
 70
     1
102
RTVSPropertyOp34
 70
     1
102
RTVSPropertyOp35
 70
     1
102
RTVSPropertyOp36
 70
     1
102
RTVSPropertyOp37
 70
     1
102
RTVSPropertyOp38
 70
     1
102
RTVSPropertyOp39
 70
     1
102
RTVSPropertyOp40
 70
     1
102
RTVSPropertyOp41
 70
     1
102
RTVSPropertyOp42
 70
     1
102
RTVSPropertyOp43
 70
     1
102
RTVSPropertyOp44
 70
     1
102
RTVSPropertyOp45
 70
     1
102
RTVSPropertyOp46
 70
     1
102
RTVSPropertyOp47
 70
     1
102
RTVSPropertyOp48
 70
     1
102
RTVSPropertyOp49
 70
     1
102
RTVSPropertyOp50
 70
     1
102
RTVSPropertyOp51
 70
     0
102
RTVSPropertyOp52
 70
     0
102
RTVSPropertyOp53
 70
     1
102
RTVSPropertyOp54
 70
     1
102
RTVSPropertyOp55
 70
     1
102
RTVSPropertyOp56
 70
     1
102
RTVSPropertyOp57
 70
     1
102
RTVSPost2010Prop28
280
     0
102
RTVSPost2010PropOp28
 70
     1
102
RTVSPost2010Prop29
280
     1
102
RTVSPost2010PropOp29
 70
     1
102
RTVSPost2010Prop30
280
     1
102
RTVSPost2010PropOp30
 70
     1
102
RTVSPost2010Prop31
280
     0
102
RTVSPost2010PropOp31
 70
     1
102
RTVSPost2010Prop32
280
     0
102
RTVSPost2010PropOp32
 70
     1
102
RTVSPost2010Prop33
280
     0
102
RTVSPost2010PropOp33
 70
     1
102
RTVSPost2010Prop34
280
     0
102
RTVSPost2010PropOp34
 70
     1
102
RTVSPost2010Prop35
280
     0
102
RTVSPost2010PropOp35
 70
     1
102
RTVSPost2010Prop36
280
     0
102
RTVSPost2010PropOp36
 70
     1
102
RTVSPost2010Prop37
 90
       50
102
RTVSPost2010PropOp37
 70
     1
102
RTVSPost2010Prop38
140
0.0
102
RTVSPost2010PropOp38
 70
     1
102
RTVSPost2010Prop39
140
1.0
102
RTVSPost2010PropOp39
 70
     1
102
RTVSPost2010Prop40
 90
        0
102
RTVSPost2010PropOp40
 70
     1
102
RTVSPost2010Prop41ColorIndex
 90
       18
102
RTVSPost2010Prop41ColorRGB
 90
        0
102
RTVSPost2010PropOp41
 70
     1
102
RTVSPost2010Prop42
 90
       50
102
RTVSPost2010PropOp42
 70
     1
102
RTVSPost2010Prop43
 90
        3
102
RTVSPost2010PropOp43
 70
     1
102
RTVSPost2010Prop44ColorIndex
 90
        5
102
RTVSPost2010Prop44ColorRGB
 90
      255
102
RTVSPost2010PropOp44
 70
     1
102
RTVSPost2010Prop45
280
     0
102
RTVSPost2010PropOp45
 70
     1
102
RTVSPost2010Prop46
 90
       50
102
RTVSPost2010PropOp46
 70
     1
102
RTVSPost2010Prop47
 90
       50
102
RTVSPost2010PropOp47
 70
     1
102
RTVSPost2010Prop48
 90
       50
102
RTVSPost2010PropOp48
 70
     1
102
RTVSPost2010Prop49
280
     0
102
RTVSPost2010PropOp49
 70
     1
102
RTVSPost2010Prop50
 90
       50
102
RTVSPost2010PropOp50
 70
     1
102
RTVSPost2010Prop51ColorIndex
 90
      256
102
RTVSPost2010Prop51ColorRGB
 90
-16777216
102
RTVSPost2010PropOp51
 70
     0
102
RTVSPost2010Prop52
140
1.0
102
RTVSPost2010PropOp52
 70
     0
102
RTVSPost2010Prop53
 90
        2
102
RTVSPost2010PropOp53
 70
     1
102
RTVSPost2010Prop54
  1
strokes_ogs.tif
102
RTVSPost2010PropOp54
 70
     1
102
RTVSPost2010Prop55
280
     0
102
RTVSPost2010PropOp55
 70
     1
102
RTVSPost2010Prop56
140
1.0
102
RTVSPost2010PropOp56
 70
     1
102
RTVSPost2010Prop57
140
1.0
102
RTVSPost2010PropOp57
 70
     1
  0
XRECORD
  5
219
102
{ACAD_REACTORS
330
218
102
}
330
218
100
AcDbXrecord
280
     1
102
RTVSPropertyOp0
 70
     1
102
RTVSPropertyOp1
 70
     1
102
RTVSPropertyOp2
 70
     1
102
RTVSPropertyOp3
 70
     1
102
RTVSPropertyOp4
 70
     1
102
RTVSPropertyOp5
 70
     1
102
RTVSPropertyOp6
 70
     1
102
RTVSPropertyOp7
 70
     1
102
RTVSPropertyOp8
 70
     1
102
RTVSPropertyOp9
 70
     1
102
RTVSPropertyOp10
 70
     1
102
RTVSPropertyOp11
 70
     1
102
RTVSPropertyOp12
 70
     1
102
RTVSPropertyOp13
 70
     1
102
RTVSPropertyOp14
 70
     1
102
RTVSPropertyOp15
 70
     1
102
RTVSPropertyOp16
 70
     1
102
RTVSPropertyOp17
 70
     1
102
RTVSPropertyOp18
 70
     1
102
RTVSPropertyOp19
 70
     1
102
RTVSPropertyOp20
 70
     1
102
RTVSPropertyOp21
 70
     1
102
RTVSPropertyOp22
 70
     1
102
RTVSPropertyOp23
 70
     1
102
RTVSPropertyOp24
 70
     1
102
RTVSPropertyOp25
 70
     1
102
RTVSPropertyOp26
 70
     1
102
RTVSPropertyOp27
 70
     1
102
RTVSPropertyOp28
 70
     1
102
RTVSPropertyOp29
 70
     1
102
RTVSPropertyOp30
 70
     1
102
RTVSPropertyOp31
 70
     1
102
RTVSPropertyOp32
 70
     1
102
RTVSPropertyOp33
 70
     1
102
RTVSPropertyOp34
 70
     1
102
RTVSPropertyOp35
 70
     1
102
RTVSPropertyOp36
 70
     1
102
RTVSPropertyOp37
 70
     1
102
RTVSPropertyOp38
 70
     1
102
RTVSPropertyOp39
 70
     1
102
RTVSPropertyOp40
 70
     1
102
RTVSPropertyOp41
 70
     1
102
RTVSPropertyOp42
 70
     1
102
RTVSPropertyOp43
 70
     1
102
RTVSPropertyOp44
 70
     1
102
RTVSPropertyOp45
 70
     1
102
RTVSPropertyOp46
 70
     1
102
RTVSPropertyOp47
 70
     1
102
RTVSPropertyOp48
 70
     1
102
RTVSPropertyOp49
 70
     1
102
RTVSPropertyOp50
 70
     1
102
RTVSPropertyOp51
 70
     0
102
RTVSPropertyOp52
 70
     0
102
RTVSPropertyOp53
 70
     1
102
RTVSPropertyOp54
 70
     1
102
RTVSPropertyOp55
 70
     1
102
RTVSPropertyOp56
 70
     1
102
RTVSPropertyOp57
 70
     1
102
RTVSPost2010Prop28
280
     0
102
RTVSPost2010PropOp28
 70
     1
102
RTVSPost2010Prop29
280
     1
102
RTVSPost2010PropOp29
 70
     1
102
RTVSPost2010Prop30
280
     1
102
RTVSPost2010PropOp30
 70
     1
102
RTVSPost2010Prop31
280
     0
102
RTVSPost2010PropOp31
 70
     1
102
RTVSPost2010Prop32
280
     0
102
RTVSPost2010PropOp32
 70
     1
102
RTVSPost2010Prop33
280
     0
102
RTVSPost2010PropOp33
 70
     1
102
RTVSPost2010Prop34
280
     0
102
RTVSPost2010PropOp34
 70
     1
102
RTVSPost2010Prop35
280
     0
102
RTVSPost2010PropOp35
 70
     1
102
RTVSPost2010Prop36
280
     0
102
RTVSPost2010PropOp36
 70
     1
102
RTVSPost2010Prop37
 90
       50
102
RTVSPost2010PropOp37
 70
     1
102
RTVSPost2010Prop38
140
0.0
102
RTVSPost2010PropOp38
 70
     1
102
RTVSPost2010Prop39
140
1.0
102
RTVSPost2010PropOp39
 70
     1
102
RTVSPost2010Prop40
 90
        0
102
RTVSPost2010PropOp40
 70
     1
102
RTVSPost2010Prop41ColorIndex
 90
       18
102
RTVSPost2010Prop41ColorRGB
 90
        0
102
RTVSPost2010PropOp41
 70
     1
102
RTVSPost2010Prop42
 90
       50
102
RTVSPost2010PropOp42
 70
     1
102
RTVSPost2010Prop43
 90
        3
102
RTVSPost2010PropOp43
 70
     1
102
RTVSPost2010Prop44ColorIndex
 90
        5
102
RTVSPost2010Prop44ColorRGB
 90
      255
102
RTVSPost2010PropOp44
 70
     1
102
RTVSPost2010Prop45
280
     0
102
RTVSPost2010PropOp45
 70
     1
102
RTVSPost2010Prop46
 90
       50
102
RTVSPost2010PropOp46
 70
     1
102
RTVSPost2010Prop47
 90
       50
102
RTVSPost2010PropOp47
 70
     1
102
RTVSPost2010Prop48
 90
       50
102
RTVSPost2010PropOp48
 70
     1
102
RTVSPost2010Prop49
280
     0
102
RTVSPost2010PropOp49
 70
     1
102
RTVSPost2010Prop50
 90
       50
102
RTVSPost2010PropOp50
 70
     1
102
RTVSPost2010Prop51ColorIndex
 90
      256
102
RTVSPost2010Prop51ColorRGB
 90
-16777216
102
RTVSPost2010PropOp51
 70
     0
102
RTVSPost2010Prop52
140
1.0
102
RTVSPost2010PropOp52
 70
     0
102
RTVSPost2010Prop53
 90
        2
102
RTVSPost2010PropOp53
 70
     1
102
RTVSPost2010Prop54
  1
strokes_ogs.tif
102
RTVSPost2010PropOp54
 70
     1
102
RTVSPost2010Prop55
280
     0
102
RTVSPost2010PropOp55
 70
     1
102
RTVSPost2010Prop56
140
1.0
102
RTVSPost2010PropOp56
 70
     1
102
RTVSPost2010Prop57
140
1.0
102
RTVSPost2010PropOp57
 70
     1
  0
XRECORD
  5
217
102
{ACAD_REACTORS
330
216
102
}
330
216
100
AcDbXrecord
280
     1
102
RTVSPropertyOp0
 70
     1
102
RTVSPropertyOp1
 70
     1
102
RTVSPropertyOp2
 70
     1
102
RTVSPropertyOp3
 70
     1
102
RTVSPropertyOp4
 70
     1
102
RTVSPropertyOp5
 70
     1
102
RTVSPropertyOp6
 70
     1
102
RTVSPropertyOp7
 70
     1
102
RTVSPropertyOp8
 70
     1
102
RTVSPropertyOp9
 70
     1
102
RTVSPropertyOp10
 70
     1
102
RTVSPropertyOp11
 70
     1
102
RTVSPropertyOp12
 70
     1
102
RTVSPropertyOp13
 70
     1
102
RTVSPropertyOp14
 70
     1
102
RTVSPropertyOp15
 70
     1
102
RTVSPropertyOp16
 70
     1
102
RTVSPropertyOp17
 70
     1
102
RTVSPropertyOp18
 70
     1
102
RTVSPropertyOp19
 70
     1
102
RTVSPropertyOp20
 70
     1
102
RTVSPropertyOp21
 70
     1
102
RTVSPropertyOp22
 70
     1
102
RTVSPropertyOp23
 70
     1
102
RTVSPropertyOp24
 70
     1
102
RTVSPropertyOp25
 70
     1
102
RTVSPropertyOp26
 70
     1
102
RTVSPropertyOp27
 70
     1
102
RTVSPropertyOp28
 70
     1
102
RTVSPropertyOp29
 70
     1
102
RTVSPropertyOp30
 70
     1
102
RTVSPropertyOp31
 70
     1
102
RTVSPropertyOp32
 70
     1
102
RTVSPropertyOp33
 70
     1
102
RTVSPropertyOp34
 70
     1
102
RTVSPropertyOp35
 70
     1
102
RTVSPropertyOp36
 70
     1
102
RTVSPropertyOp37
 70
     1
102
RTVSPropertyOp38
 70
     1
102
RTVSPropertyOp39
 70
     1
102
RTVSPropertyOp40
 70
     1
102
RTVSPropertyOp41
 70
     1
102
RTVSPropertyOp42
 70
     1
102
RTVSPropertyOp43
 70
     1
102
RTVSPropertyOp44
 70
     1
102
RTVSPropertyOp45
 70
     1
102
RTVSPropertyOp46
 70
     1
102
RTVSPropertyOp47
 70
     1
102
RTVSPropertyOp48
 70
     1
102
RTVSPropertyOp49
 70
     1
102
RTVSPropertyOp50
 70
     1
102
RTVSPropertyOp51
 70
     0
102
RTVSPropertyOp52
 70
     0
102
RTVSPropertyOp53
 70
     1
102
RTVSPropertyOp54
 70
     1
102
RTVSPropertyOp55
 70
     1
102
RTVSPropertyOp56
 70
     1
102
RTVSPropertyOp57
 70
     1
102
RTVSPost2010Prop28
280
     0
102
RTVSPost2010PropOp28
 70
     1
102
RTVSPost2010Prop29
280
     1
102
RTVSPost2010PropOp29
 70
     1
102
RTVSPost2010Prop30
280
     1
102
RTVSPost2010PropOp30
 70
     1
102
RTVSPost2010Prop31
280
     0
102
RTVSPost2010PropOp31
 70
     1
102
RTVSPost2010Prop32
280
     0
102
RTVSPost2010PropOp32
 70
     1
102
RTVSPost2010Prop33
280
     0
102
RTVSPost2010PropOp33
 70
     1
102
RTVSPost2010Prop34
280
     0
102
RTVSPost2010PropOp34
 70
     1
102
RTVSPost2010Prop35
280
     0
102
RTVSPost2010PropOp35
 70
     1
102
RTVSPost2010Prop36
280
     0
102
RTVSPost2010PropOp36
 70
     1
102
RTVSPost2010Prop37
 90
       50
102
RTVSPost2010PropOp37
 70
     1
102
RTVSPost2010Prop38
140
0.0
102
RTVSPost2010PropOp38
 70
     1
102
RTVSPost2010Prop39
140
1.0
102
RTVSPost2010PropOp39
 70
     1
102
RTVSPost2010Prop40
 90
        0
102
RTVSPost2010PropOp40
 70
     1
102
RTVSPost2010Prop41ColorIndex
 90
       18
102
RTVSPost2010Prop41ColorRGB
 90
        0
102
RTVSPost2010PropOp41
 70
     1
102
RTVSPost2010Prop42
 90
       50
102
RTVSPost2010PropOp42
 70
     1
102
RTVSPost2010Prop43
 90
        3
102
RTVSPost2010PropOp43
 70
     1
102
RTVSPost2010Prop44ColorIndex
 90
        5
102
RTVSPost2010Prop44ColorRGB
 90
      255
102
RTVSPost2010PropOp44
 70
     1
102
RTVSPost2010Prop45
280
     0
102
RTVSPost2010PropOp45
 70
     1
102
RTVSPost2010Prop46
 90
       50
102
RTVSPost2010PropOp46
 70
     1
102
RTVSPost2010Prop47
 90
       50
102
RTVSPost2010PropOp47
 70
     1
102
RTVSPost2010Prop48
 90
       50
102
RTVSPost2010PropOp48
 70
     1
102
RTVSPost2010Prop49
280
     0
102
RTVSPost2010PropOp49
 70
     1
102
RTVSPost2010Prop50
 90
       50
102
RTVSPost2010PropOp50
 70
     1
102
RTVSPost2010Prop51ColorIndex
 90
      256
102
RTVSPost2010Prop51ColorRGB
 90
-16777216
102
RTVSPost2010PropOp51
 70
     0
102
RTVSPost2010Prop52
140
1.0
102
RTVSPost2010PropOp52
 70
     0
102
RTVSPost2010Prop53
 90
        2
102
RTVSPost2010PropOp53
 70
     1
102
RTVSPost2010Prop54
  1
strokes_ogs.tif
102
RTVSPost2010PropOp54
 70
     1
102
RTVSPost2010Prop55
280
     0
102
RTVSPost2010PropOp55
 70
     1
102
RTVSPost2010Prop56
140
1.0
102
RTVSPost2010PropOp56
 70
     1
102
RTVSPost2010Prop57
140
1.0
102
RTVSPost2010PropOp57
 70
     1
  0
XRECORD
  5
211
102
{ACAD_REACTORS
330
210
102
}
330
210
100
AcDbXrecord
280
     1
102
RTVSPropertyOp0
 70
     1
102
RTVSPropertyOp1
 70
     1
102
RTVSPropertyOp2
 70
     1
102
RTVSPropertyOp3
 70
     1
102
RTVSPropertyOp4
 70
     1
102
RTVSPropertyOp5
 70
     1
102
RTVSPropertyOp6
 70
     1
102
RTVSPropertyOp7
 70
     1
102
RTVSPropertyOp8
 70
     1
102
RTVSPropertyOp9
 70
     1
102
RTVSPropertyOp10
 70
     1
102
RTVSPropertyOp11
 70
     1
102
RTVSPropertyOp12
 70
     1
102
RTVSPropertyOp13
 70
     1
102
RTVSPropertyOp14
 70
     1
102
RTVSPropertyOp15
 70
     1
102
RTVSPropertyOp16
 70
     1
102
RTVSPropertyOp17
 70
     1
102
RTVSPropertyOp18
 70
     1
102
RTVSPropertyOp19
 70
     1
102
RTVSPropertyOp20
 70
     1
102
RTVSPropertyOp21
 70
     1
102
RTVSPropertyOp22
 70
     1
102
RTVSPropertyOp23
 70
     1
102
RTVSPropertyOp24
 70
     1
102
RTVSPropertyOp25
 70
     1
102
RTVSPropertyOp26
 70
     1
102
RTVSPropertyOp27
 70
     1
102
RTVSPropertyOp28
 70
     1
102
RTVSPropertyOp29
 70
     1
102
RTVSPropertyOp30
 70
     1
102
RTVSPropertyOp31
 70
     1
102
RTVSPropertyOp32
 70
     1
102
RTVSPropertyOp33
 70
     1
102
RTVSPropertyOp34
 70
     1
102
RTVSPropertyOp35
 70
     1
102
RTVSPropertyOp36
 70
     1
102
RTVSPropertyOp37
 70
     1
102
RTVSPropertyOp38
 70
     1
102
RTVSPropertyOp39
 70
     1
102
RTVSPropertyOp40
 70
     1
102
RTVSPropertyOp41
 70
     1
102
RTVSPropertyOp42
 70
     1
102
RTVSPropertyOp43
 70
     1
102
RTVSPropertyOp44
 70
     1
102
RTVSPropertyOp45
 70
     1
102
RTVSPropertyOp46
 70
     1
102
RTVSPropertyOp47
 70
     1
102
RTVSPropertyOp48
 70
     1
102
RTVSPropertyOp49
 70
     1
102
RTVSPropertyOp50
 70
     1
102
RTVSPropertyOp51
 70
     0
102
RTVSPropertyOp52
 70
     0
102
RTVSPropertyOp53
 70
     1
102
RTVSPropertyOp54
 70
     1
102
RTVSPropertyOp55
 70
     1
102
RTVSPropertyOp56
 70
     1
102
RTVSPropertyOp57
 70
     1
102
RTVSPost2010Prop28
280
     0
102
RTVSPost2010PropOp28
 70
     1
102
RTVSPost2010Prop29
280
     1
102
RTVSPost2010PropOp29
 70
     1
102
RTVSPost2010Prop30
280
     1
102
RTVSPost2010PropOp30
 70
     1
102
RTVSPost2010Prop31
280
     0
102
RTVSPost2010PropOp31
 70
     1
102
RTVSPost2010Prop32
280
     0
102
RTVSPost2010PropOp32
 70
     1
102
RTVSPost2010Prop33
280
     0
102
RTVSPost2010PropOp33
 70
     1
102
RTVSPost2010Prop34
280
     0
102
RTVSPost2010PropOp34
 70
     1
102
RTVSPost2010Prop35
280
     0
102
RTVSPost2010PropOp35
 70
     1
102
RTVSPost2010Prop36
280
     0
102
RTVSPost2010PropOp36
 70
     1
102
RTVSPost2010Prop37
 90
       50
102
RTVSPost2010PropOp37
 70
     1
102
RTVSPost2010Prop38
140
0.0
102
RTVSPost2010PropOp38
 70
     1
102
RTVSPost2010Prop39
140
1.0
102
RTVSPost2010PropOp39
 70
     1
102
RTVSPost2010Prop40
 90
        0
102
RTVSPost2010PropOp40
 70
     1
102
RTVSPost2010Prop41ColorIndex
 90
       18
102
RTVSPost2010Prop41ColorRGB
 90
        0
102
RTVSPost2010PropOp41
 70
     1
102
RTVSPost2010Prop42
 90
       50
102
RTVSPost2010PropOp42
 70
     1
102
RTVSPost2010Prop43
 90
        3
102
RTVSPost2010PropOp43
 70
     1
102
RTVSPost2010Prop44ColorIndex
 90
        5
102
RTVSPost2010Prop44ColorRGB
 90
      255
102
RTVSPost2010PropOp44
 70
     1
102
RTVSPost2010Prop45
280
     0
102
RTVSPost2010PropOp45
 70
     1
102
RTVSPost2010Prop46
 90
       50
102
RTVSPost2010PropOp46
 70
     1
102
RTVSPost2010Prop47
 90
       50
102
RTVSPost2010PropOp47
 70
     1
102
RTVSPost2010Prop48
 90
       50
102
RTVSPost2010PropOp48
 70
     1
102
RTVSPost2010Prop49
280
     0
102
RTVSPost2010PropOp49
 70
     1
102
RTVSPost2010Prop50
 90
       50
102
RTVSPost2010PropOp50
 70
     1
102
RTVSPost2010Prop51ColorIndex
 90
      256
102
RTVSPost2010Prop51ColorRGB
 90
-16777216
102
RTVSPost2010PropOp51
 70
     0
102
RTVSPost2010Prop52
140
1.0
102
RTVSPost2010PropOp52
 70
     0
102
RTVSPost2010Prop53
 90
        2
102
RTVSPost2010PropOp53
 70
     1
102
RTVSPost2010Prop54
  1
strokes_ogs.tif
102
RTVSPost2010PropOp54
 70
     1
102
RTVSPost2010Prop55
280
     0
102
RTVSPost2010PropOp55
 70
     1
102
RTVSPost2010Prop56
140
1.0
102
RTVSPost2010PropOp56
 70
     1
102
RTVSPost2010Prop57
140
1.0
102
RTVSPost2010PropOp57
 70
     1
  0
XRECORD
  5
213
102
{ACAD_REACTORS
330
212
102
}
330
212
100
AcDbXrecord
280
     1
102
RTVSPropertyOp0
 70
     1
102
RTVSPropertyOp1
 70
     1
102
RTVSPropertyOp2
 70
     1
102
RTVSPropertyOp3
 70
     1
102
RTVSPropertyOp4
 70
     1
102
RTVSPropertyOp5
 70
     1
102
RTVSPropertyOp6
 70
     1
102
RTVSPropertyOp7
 70
     1
102
RTVSPropertyOp8
 70
     1
102
RTVSPropertyOp9
 70
     1
102
RTVSPropertyOp10
 70
     1
102
RTVSPropertyOp11
 70
     1
102
RTVSPropertyOp12
 70
     1
102
RTVSPropertyOp13
 70
     1
102
RTVSPropertyOp14
 70
     1
102
RTVSPropertyOp15
 70
     1
102
RTVSPropertyOp16
 70
     1
102
RTVSPropertyOp17
 70
     1
102
RTVSPropertyOp18
 70
     1
102
RTVSPropertyOp19
 70
     1
102
RTVSPropertyOp20
 70
     1
102
RTVSPropertyOp21
 70
     1
102
RTVSPropertyOp22
 70
     1
102
RTVSPropertyOp23
 70
     1
102
RTVSPropertyOp24
 70
     1
102
RTVSPropertyOp25
 70
     1
102
RTVSPropertyOp26
 70
     1
102
RTVSPropertyOp27
 70
     1
102
RTVSPropertyOp28
 70
     1
102
RTVSPropertyOp29
 70
     1
102
RTVSPropertyOp30
 70
     1
102
RTVSPropertyOp31
 70
     1
102
RTVSPropertyOp32
 70
     1
102
RTVSPropertyOp33
 70
     1
102
RTVSPropertyOp34
 70
     1
102
RTVSPropertyOp35
 70
     1
102
RTVSPropertyOp36
 70
     1
102
RTVSPropertyOp37
 70
     1
102
RTVSPropertyOp38
 70
     1
102
RTVSPropertyOp39
 70
     1
102
RTVSPropertyOp40
 70
     1
102
RTVSPropertyOp41
 70
     1
102
RTVSPropertyOp42
 70
     1
102
RTVSPropertyOp43
 70
     1
102
RTVSPropertyOp44
 70
     1
102
RTVSPropertyOp45
 70
     1
102
RTVSPropertyOp46
 70
     1
102
RTVSPropertyOp47
 70
     1
102
RTVSPropertyOp48
 70
     1
102
RTVSPropertyOp49
 70
     1
102
RTVSPropertyOp50
 70
     1
102
RTVSPropertyOp51
 70
     0
102
RTVSPropertyOp52
 70
     0
102
RTVSPropertyOp53
 70
     1
102
RTVSPropertyOp54
 70
     1
102
RTVSPropertyOp55
 70
     1
102
RTVSPropertyOp56
 70
     1
102
RTVSPropertyOp57
 70
     1
102
RTVSPost2010Prop28
280
     0
102
RTVSPost2010PropOp28
 70
     1
102
RTVSPost2010Prop29
280
     1
102
RTVSPost2010PropOp29
 70
     1
102
RTVSPost2010Prop30
280
     1
102
RTVSPost2010PropOp30
 70
     1
102
RTVSPost2010Prop31
280
     0
102
RTVSPost2010PropOp31
 70
     1
102
RTVSPost2010Prop32
280
     0
102
RTVSPost2010PropOp32
 70
     1
102
RTVSPost2010Prop33
280
     0
102
RTVSPost2010PropOp33
 70
     1
102
RTVSPost2010Prop34
280
     0
102
RTVSPost2010PropOp34
 70
     1
102
RTVSPost2010Prop35
280
     0
102
RTVSPost2010PropOp35
 70
     1
102
RTVSPost2010Prop36
280
     0
102
RTVSPost2010PropOp36
 70
     1
102
RTVSPost2010Prop37
 90
       50
102
RTVSPost2010PropOp37
 70
     1
102
RTVSPost2010Prop38
140
0.0
102
RTVSPost2010PropOp38
 70
     1
102
RTVSPost2010Prop39
140
1.0
102
RTVSPost2010PropOp39
 70
     1
102
RTVSPost2010Prop40
 90
        0
102
RTVSPost2010PropOp40
 70
     1
102
RTVSPost2010Prop41ColorIndex
 90
       18
102
RTVSPost2010Prop41ColorRGB
 90
        0
102
RTVSPost2010PropOp41
 70
     1
102
RTVSPost2010Prop42
 90
       50
102
RTVSPost2010PropOp42
 70
     1
102
RTVSPost2010Prop43
 90
        3
102
RTVSPost2010PropOp43
 70
     1
102
RTVSPost2010Prop44ColorIndex
 90
        5
102
RTVSPost2010Prop44ColorRGB
 90
      255
102
RTVSPost2010PropOp44
 70
     1
102
RTVSPost2010Prop45
280
     0
102
RTVSPost2010PropOp45
 70
     1
102
RTVSPost2010Prop46
 90
       50
102
RTVSPost2010PropOp46
 70
     1
102
RTVSPost2010Prop47
 90
       50
102
RTVSPost2010PropOp47
 70
     1
102
RTVSPost2010Prop48
 90
       50
102
RTVSPost2010PropOp48
 70
     1
102
RTVSPost2010Prop49
280
     0
102
RTVSPost2010PropOp49
 70
     1
102
RTVSPost2010Prop50
 90
       50
102
RTVSPost2010PropOp50
 70
     1
102
RTVSPost2010Prop51ColorIndex
 90
      256
102
RTVSPost2010Prop51ColorRGB
 90
-16777216
102
RTVSPost2010PropOp51
 70
     0
102
RTVSPost2010Prop52
140
1.0
102
RTVSPost2010PropOp52
 70
     0
102
RTVSPost2010Prop53
 90
        2
102
RTVSPost2010PropOp53
 70
     1
102
RTVSPost2010Prop54
  1
strokes_ogs.tif
102
RTVSPost2010PropOp54
 70
     1
102
RTVSPost2010Prop55
280
     0
102
RTVSPost2010PropOp55
 70
     1
102
RTVSPost2010Prop56
140
1.0
102
RTVSPost2010PropOp56
 70
     1
102
RTVSPost2010Prop57
140
1.0
102
RTVSPost2010PropOp57
 70
     1
  0
XRECORD
  5
203
102
{ACAD_REACTORS
330
202
102
}
330
202
100
AcDbXrecord
280
     1
102
RTVSPropertyOp0
 70
     1
102
RTVSPropertyOp1
 70
     1
102
RTVSPropertyOp2
 70
     1
102
RTVSPropertyOp3
 70
     1
102
RTVSPropertyOp4
 70
     1
102
RTVSPropertyOp5
 70
     1
102
RTVSPropertyOp6
 70
     1
102
RTVSPropertyOp7
 70
     1
102
RTVSPropertyOp8
 70
     1
102
RTVSPropertyOp9
 70
     1
102
RTVSPropertyOp10
 70
     1
102
RTVSPropertyOp11
 70
     1
102
RTVSPropertyOp12
 70
     1
102
RTVSPropertyOp13
 70
     1
102
RTVSPropertyOp14
 70
     1
102
RTVSPropertyOp15
 70
     1
102
RTVSPropertyOp16
 70
     1
102
RTVSPropertyOp17
 70
     1
102
RTVSPropertyOp18
 70
     1
102
RTVSPropertyOp19
 70
     1
102
RTVSPropertyOp20
 70
     1
102
RTVSPropertyOp21
 70
     1
102
RTVSPropertyOp22
 70
     1
102
RTVSPropertyOp23
 70
     1
102
RTVSPropertyOp24
 70
     1
102
RTVSPropertyOp25
 70
     1
102
RTVSPropertyOp26
 70
     1
102
RTVSPropertyOp27
 70
     1
102
RTVSPropertyOp28
 70
     1
102
RTVSPropertyOp29
 70
     1
102
RTVSPropertyOp30
 70
     1
102
RTVSPropertyOp31
 70
     1
102
RTVSPropertyOp32
 70
     1
102
RTVSPropertyOp33
 70
     1
102
RTVSPropertyOp34
 70
     1
102
RTVSPropertyOp35
 70
     1
102
RTVSPropertyOp36
 70
     1
102
RTVSPropertyOp37
 70
     1
102
RTVSPropertyOp38
 70
     1
102
RTVSPropertyOp39
 70
     1
102
RTVSPropertyOp40
 70
     1
102
RTVSPropertyOp41
 70
     1
102
RTVSPropertyOp42
 70
     1
102
RTVSPropertyOp43
 70
     1
102
RTVSPropertyOp44
 70
     1
102
RTVSPropertyOp45
 70
     1
102
RTVSPropertyOp46
 70
     1
102
RTVSPropertyOp47
 70
     1
102
RTVSPropertyOp48
 70
     1
102
RTVSPropertyOp49
 70
     1
102
RTVSPropertyOp50
 70
     1
102
RTVSPropertyOp51
 70
     0
102
RTVSPropertyOp52
 70
     0
102
RTVSPropertyOp53
 70
     1
102
RTVSPropertyOp54
 70
     1
102
RTVSPropertyOp55
 70
     1
102
RTVSPropertyOp56
 70
     1
102
RTVSPropertyOp57
 70
     1
102
RTVSPost2010Prop28
280
     0
102
RTVSPost2010PropOp28
 70
     1
102
RTVSPost2010Prop29
280
     1
102
RTVSPost2010PropOp29
 70
     1
102
RTVSPost2010Prop30
280
     1
102
RTVSPost2010PropOp30
 70
     1
102
RTVSPost2010Prop31
280
     0
102
RTVSPost2010PropOp31
 70
     1
102
RTVSPost2010Prop32
280
     0
102
RTVSPost2010PropOp32
 70
     1
102
RTVSPost2010Prop33
280
     0
102
RTVSPost2010PropOp33
 70
     1
102
RTVSPost2010Prop34
280
     0
102
RTVSPost2010PropOp34
 70
     1
102
RTVSPost2010Prop35
280
     0
102
RTVSPost2010PropOp35
 70
     1
102
RTVSPost2010Prop36
280
     0
102
RTVSPost2010PropOp36
 70
     1
102
RTVSPost2010Prop37
 90
       50
102
RTVSPost2010PropOp37
 70
     1
102
RTVSPost2010Prop38
140
0.0
102
RTVSPost2010PropOp38
 70
     1
102
RTVSPost2010Prop39
140
1.0
102
RTVSPost2010PropOp39
 70
     1
102
RTVSPost2010Prop40
 90
        0
102
RTVSPost2010PropOp40
 70
     1
102
RTVSPost2010Prop41ColorIndex
 90
       18
102
RTVSPost2010Prop41ColorRGB
 90
        0
102
RTVSPost2010PropOp41
 70
     1
102
RTVSPost2010Prop42
 90
       50
102
RTVSPost2010PropOp42
 70
     1
102
RTVSPost2010Prop43
 90
        3
102
RTVSPost2010PropOp43
 70
     1
102
RTVSPost2010Prop44ColorIndex
 90
        5
102
RTVSPost2010Prop44ColorRGB
 90
      255
102
RTVSPost2010PropOp44
 70
     1
102
RTVSPost2010Prop45
280
     0
102
RTVSPost2010PropOp45
 70
     1
102
RTVSPost2010Prop46
 90
       50
102
RTVSPost2010PropOp46
 70
     1
102
RTVSPost2010Prop47
 90
       50
102
RTVSPost2010PropOp47
 70
     1
102
RTVSPost2010Prop48
 90
       50
102
RTVSPost2010PropOp48
 70
     1
102
RTVSPost2010Prop49
280
     0
102
RTVSPost2010PropOp49
 70
     1
102
RTVSPost2010Prop50
 90
       50
102
RTVSPost2010PropOp50
 70
     1
102
RTVSPost2010Prop51ColorIndex
 90
      256
102
RTVSPost2010Prop51ColorRGB
 90
-16777216
102
RTVSPost2010PropOp51
 70
     0
102
RTVSPost2010Prop52
140
1.0
102
RTVSPost2010PropOp52
 70
     0
102
RTVSPost2010Prop53
 90
        2
102
RTVSPost2010PropOp53
 70
     1
102
RTVSPost2010Prop54
  1
strokes_ogs.tif
102
RTVSPost2010PropOp54
 70
     1
102
RTVSPost2010Prop55
280
     0
102
RTVSPost2010PropOp55
 70
     1
102
RTVSPost2010Prop56
140
1.0
102
RTVSPost2010PropOp56
 70
     1
102
RTVSPost2010Prop57
140
1.0
102
RTVSPost2010PropOp57
 70
     1
  0
XRECORD
  5
1F5
102
{ACAD_REACTORS
330
1F4
102
}
330
1F4
100
AcDbXrecord
280
     1
102
RTVSPropertyOp0
 70
     1
102
RTVSPropertyOp1
 70
     1
102
RTVSPropertyOp2
 70
     1
102
RTVSPropertyOp3
 70
     1
102
RTVSPropertyOp4
 70
     1
102
RTVSPropertyOp5
 70
     1
102
RTVSPropertyOp6
 70
     1
102
RTVSPropertyOp7
 70
     1
102
RTVSPropertyOp8
 70
     1
102
RTVSPropertyOp9
 70
     1
102
RTVSPropertyOp10
 70
     1
102
RTVSPropertyOp11
 70
     1
102
RTVSPropertyOp12
 70
     1
102
RTVSPropertyOp13
 70
     1
102
RTVSPropertyOp14
 70
     1
102
RTVSPropertyOp15
 70
     1
102
RTVSPropertyOp16
 70
     1
102
RTVSPropertyOp17
 70
     1
102
RTVSPropertyOp18
 70
     1
102
RTVSPropertyOp19
 70
     1
102
RTVSPropertyOp20
 70
     1
102
RTVSPropertyOp21
 70
     1
102
RTVSPropertyOp22
 70
     1
102
RTVSPropertyOp23
 70
     1
102
RTVSPropertyOp24
 70
     1
102
RTVSPropertyOp25
 70
     1
102
RTVSPropertyOp26
 70
     1
102
RTVSPropertyOp27
 70
     1
102
RTVSPropertyOp28
 70
     1
102
RTVSPropertyOp29
 70
     1
102
RTVSPropertyOp30
 70
     1
102
RTVSPropertyOp31
 70
     1
102
RTVSPropertyOp32
 70
     1
102
RTVSPropertyOp33
 70
     1
102
RTVSPropertyOp34
 70
     1
102
RTVSPropertyOp35
 70
     1
102
RTVSPropertyOp36
 70
     1
102
RTVSPropertyOp37
 70
     1
102
RTVSPropertyOp38
 70
     1
102
RTVSPropertyOp39
 70
     1
102
RTVSPropertyOp40
 70
     1
102
RTVSPropertyOp41
 70
     1
102
RTVSPropertyOp42
 70
     1
102
RTVSPropertyOp43
 70
     1
102
RTVSPropertyOp44
 70
     1
102
RTVSPropertyOp45
 70
     1
102
RTVSPropertyOp46
 70
     1
102
RTVSPropertyOp47
 70
     1
102
RTVSPropertyOp48
 70
     1
102
RTVSPropertyOp49
 70
     1
102
RTVSPropertyOp50
 70
     1
102
RTVSPropertyOp51
 70
     0
102
RTVSPropertyOp52
 70
     0
102
RTVSPropertyOp53
 70
     1
102
RTVSPropertyOp54
 70
     1
102
RTVSPropertyOp55
 70
     1
102
RTVSPropertyOp56
 70
     1
102
RTVSPropertyOp57
 70
     1
102
RTVSPost2010Prop28
280
     0
102
RTVSPost2010PropOp28
 70
     1
102
RTVSPost2010Prop29
280
     1
102
RTVSPost2010PropOp29
 70
     1
102
RTVSPost2010Prop30
280
     1
102
RTVSPost2010PropOp30
 70
     1
102
RTVSPost2010Prop31
280
     0
102
RTVSPost2010PropOp31
 70
     1
102
RTVSPost2010Prop32
280
     0
102
RTVSPost2010PropOp32
 70
     1
102
RTVSPost2010Prop33
280
     0
102
RTVSPost2010PropOp33
 70
     1
102
RTVSPost2010Prop34
280
     0
102
RTVSPost2010PropOp34
 70
     1
102
RTVSPost2010Prop35
280
     0
102
RTVSPost2010PropOp35
 70
     1
102
RTVSPost2010Prop36
280
     0
102
RTVSPost2010PropOp36
 70
     1
102
RTVSPost2010Prop37
 90
       50
102
RTVSPost2010PropOp37
 70
     1
102
RTVSPost2010Prop38
140
0.0
102
RTVSPost2010PropOp38
 70
     1
102
RTVSPost2010Prop39
140
1.0
102
RTVSPost2010PropOp39
 70
     1
102
RTVSPost2010Prop40
 90
        0
102
RTVSPost2010PropOp40
 70
     1
102
RTVSPost2010Prop41ColorIndex
 90
       18
102
RTVSPost2010Prop41ColorRGB
 90
        0
102
RTVSPost2010PropOp41
 70
     1
102
RTVSPost2010Prop42
 90
       50
102
RTVSPost2010PropOp42
 70
     1
102
RTVSPost2010Prop43
 90
        3
102
RTVSPost2010PropOp43
 70
     1
102
RTVSPost2010Prop44ColorIndex
 90
        5
102
RTVSPost2010Prop44ColorRGB
 90
      255
102
RTVSPost2010PropOp44
 70
     1
102
RTVSPost2010Prop45
280
     0
102
RTVSPost2010PropOp45
 70
     1
102
RTVSPost2010Prop46
 90
       50
102
RTVSPost2010PropOp46
 70
     1
102
RTVSPost2010Prop47
 90
       50
102
RTVSPost2010PropOp47
 70
     1
102
RTVSPost2010Prop48
 90
       50
102
RTVSPost2010PropOp48
 70
     1
102
RTVSPost2010Prop49
280
     0
102
RTVSPost2010PropOp49
 70
     1
102
RTVSPost2010Prop50
 90
       50
102
RTVSPost2010PropOp50
 70
     1
102
RTVSPost2010Prop51ColorIndex
 90
      256
102
RTVSPost2010Prop51ColorRGB
 90
-16777216
102
RTVSPost2010PropOp51
 70
     0
102
RTVSPost2010Prop52
140
1.0
102
RTVSPost2010PropOp52
 70
     0
102
RTVSPost2010Prop53
 90
        2
102
RTVSPost2010PropOp53
 70
     1
102
RTVSPost2010Prop54
  1
strokes_ogs.tif
102
RTVSPost2010PropOp54
 70
     1
102
RTVSPost2010Prop55
280
     0
102
RTVSPost2010PropOp55
 70
     1
102
RTVSPost2010Prop56
140
1.0
102
RTVSPost2010PropOp56
 70
     1
102
RTVSPost2010Prop57
140
1.0
102
RTVSPost2010PropOp57
 70
     1
  0
XRECORD
  5
215
102
{ACAD_REACTORS
330
214
102
}
330
214
100
AcDbXrecord
280
     1
102
RTVSPropertyOp0
 70
     1
102
RTVSPropertyOp1
 70
     1
102
RTVSPropertyOp2
 70
     1
102
RTVSPropertyOp3
 70
     1
102
RTVSPropertyOp4
 70
     1
102
RTVSPropertyOp5
 70
     1
102
RTVSPropertyOp6
 70
     1
102
RTVSPropertyOp7
 70
     1
102
RTVSPropertyOp8
 70
     1
102
RTVSPropertyOp9
 70
     1
102
RTVSPropertyOp10
 70
     1
102
RTVSPropertyOp11
 70
     1
102
RTVSPropertyOp12
 70
     1
102
RTVSPropertyOp13
 70
     1
102
RTVSPropertyOp14
 70
     1
102
RTVSPropertyOp15
 70
     1
102
RTVSPropertyOp16
 70
     1
102
RTVSPropertyOp17
 70
     1
102
RTVSPropertyOp18
 70
     1
102
RTVSPropertyOp19
 70
     1
102
RTVSPropertyOp20
 70
     1
102
RTVSPropertyOp21
 70
     1
102
RTVSPropertyOp22
 70
     1
102
RTVSPropertyOp23
 70
     1
102
RTVSPropertyOp24
 70
     1
102
RTVSPropertyOp25
 70
     1
102
RTVSPropertyOp26
 70
     1
102
RTVSPropertyOp27
 70
     1
102
RTVSPropertyOp28
 70
     1
102
RTVSPropertyOp29
 70
     1
102
RTVSPropertyOp30
 70
     1
102
RTVSPropertyOp31
 70
     1
102
RTVSPropertyOp32
 70
     1
102
RTVSPropertyOp33
 70
     1
102
RTVSPropertyOp34
 70
     1
102
RTVSPropertyOp35
 70
     1
102
RTVSPropertyOp36
 70
     1
102
RTVSPropertyOp37
 70
     1
102
RTVSPropertyOp38
 70
     1
102
RTVSPropertyOp39
 70
     1
102
RTVSPropertyOp40
 70
     1
102
RTVSPropertyOp41
 70
     1
102
RTVSPropertyOp42
 70
     1
102
RTVSPropertyOp43
 70
     1
102
RTVSPropertyOp44
 70
     1
102
RTVSPropertyOp45
 70
     1
102
RTVSPropertyOp46
 70
     1
102
RTVSPropertyOp47
 70
     1
102
RTVSPropertyOp48
 70
     1
102
RTVSPropertyOp49
 70
     1
102
RTVSPropertyOp50
 70
     1
102
RTVSPropertyOp51
 70
     0
102
RTVSPropertyOp52
 70
     0
102
RTVSPropertyOp53
 70
     1
102
RTVSPropertyOp54
 70
     1
102
RTVSPropertyOp55
 70
     1
102
RTVSPropertyOp56
 70
     1
102
RTVSPropertyOp57
 70
     1
102
RTVSPost2010Prop28
280
     0
102
RTVSPost2010PropOp28
 70
     1
102
RTVSPost2010Prop29
280
     1
102
RTVSPost2010PropOp29
 70
     1
102
RTVSPost2010Prop30
280
     1
102
RTVSPost2010PropOp30
 70
     1
102
RTVSPost2010Prop31
280
     0
102
RTVSPost2010PropOp31
 70
     1
102
RTVSPost2010Prop32
280
     0
102
RTVSPost2010PropOp32
 70
     1
102
RTVSPost2010Prop33
280
     0
102
RTVSPost2010PropOp33
 70
     1
102
RTVSPost2010Prop34
280
     0
102
RTVSPost2010PropOp34
 70
     1
102
RTVSPost2010Prop35
280
     0
102
RTVSPost2010PropOp35
 70
     1
102
RTVSPost2010Prop36
280
     0
102
RTVSPost2010PropOp36
 70
     1
102
RTVSPost2010Prop37
 90
       50
102
RTVSPost2010PropOp37
 70
     1
102
RTVSPost2010Prop38
140
0.0
102
RTVSPost2010PropOp38
 70
     1
102
RTVSPost2010Prop39
140
1.0
102
RTVSPost2010PropOp39
 70
     1
102
RTVSPost2010Prop40
 90
        0
102
RTVSPost2010PropOp40
 70
     1
102
RTVSPost2010Prop41ColorIndex
 90
       18
102
RTVSPost2010Prop41ColorRGB
 90
        0
102
RTVSPost2010PropOp41
 70
     1
102
RTVSPost2010Prop42
 90
       50
102
RTVSPost2010PropOp42
 70
     1
102
RTVSPost2010Prop43
 90
        3
102
RTVSPost2010PropOp43
 70
     1
102
RTVSPost2010Prop44ColorIndex
 90
        5
102
RTVSPost2010Prop44ColorRGB
 90
      255
102
RTVSPost2010PropOp44
 70
     1
102
RTVSPost2010Prop45
280
     0
102
RTVSPost2010PropOp45
 70
     1
102
RTVSPost2010Prop46
 90
       50
102
RTVSPost2010PropOp46
 70
     1
102
RTVSPost2010Prop47
 90
       50
102
RTVSPost2010PropOp47
 70
     1
102
RTVSPost2010Prop48
 90
       50
102
RTVSPost2010PropOp48
 70
     1
102
RTVSPost2010Prop49
280
     0
102
RTVSPost2010PropOp49
 70
     1
102
RTVSPost2010Prop50
 90
       50
102
RTVSPost2010PropOp50
 70
     1
102
RTVSPost2010Prop51ColorIndex
 90
      256
102
RTVSPost2010Prop51ColorRGB
 90
-16777216
102
RTVSPost2010PropOp51
 70
     0
102
RTVSPost2010Prop52
140
1.0
102
RTVSPost2010PropOp52
 70
     0
102
RTVSPost2010Prop53
 90
        2
102
RTVSPost2010PropOp53
 70
     1
102
RTVSPost2010Prop54
  1
strokes_ogs.tif
102
RTVSPost2010PropOp54
 70
     1
102
RTVSPost2010Prop55
280
     0
102
RTVSPost2010PropOp55
 70
     1
102
RTVSPost2010Prop56
140
1.0
102
RTVSPost2010PropOp56
 70
     1
102
RTVSPost2010Prop57
140
1.0
102
RTVSPost2010PropOp57
 70
     1
  0
ENDSEC
  0
EOF
